  0
SECTION
  2
HEADER
  9
$ACADVER
  1
AC1015
  9
$ACADMAINTVER
 70
    20
  9
$DWGCODEPAGE
  3
ANSI_932
  9
$INSBASE
 10
0.0
 20
0.0
 30
0.0
  9
$EXTMIN
 10
535.8627374468633
 20
28.05221906636371
 30
-0.0015258207003583
  9
$EXTMAX
 10
1535.939030111696
 20
1458.080752937915
 30
0.0000000349246037
  9
$LIMMIN
 10
0.0
 20
0.0
  9
$LIMMAX
 10
2100.0
 20
1485.0
  9
$ORTHOMODE
 70
     0
  9
$REGENMODE
 70
     1
  9
$FILLMODE
 70
     1
  9
$QTEXTMODE
 70
     0
  9
$MIRRTEXT
 70
     0
  9
$LTSCALE
 40
5.0
  9
$ATTMODE
 70
     1
  9
$TEXTSIZE
 40
0.2
  9
$TRACEWID
 40
0.05
  9
$TEXTSTYLE
  7
STANDARD
  9
$CLAYER
  8
0
  9
$CELTYPE
  6
CONTINUOUS
  9
$CECOLOR
 62
   256
  9
$CELTSCALE
 40
1.0
  9
$DISPSILH
 70
     0
  9
$DIMSCALE
 40
1.0
  9
$DIMASZ
 40
0.18
  9
$DIMEXO
 40
0.0625
  9
$DIMDLI
 40
0.38
  9
$DIMRND
 40
0.0
  9
$DIMDLE
 40
0.0
  9
$DIMEXE
 40
0.18
  9
$DIMTP
 40
0.0
  9
$DIMTM
 40
0.0
  9
$DIMTXT
 40
0.18
  9
$DIMCEN
 40
0.09
  9
$DIMTSZ
 40
0.0
  9
$DIMTOL
 70
     0
  9
$DIMLIM
 70
     0
  9
$DIMTIH
 70
     1
  9
$DIMTOH
 70
     1
  9
$DIMSE1
 70
     0
  9
$DIMSE2
 70
     0
  9
$DIMTAD
 70
     0
  9
$DIMZIN
 70
     0
  9
$DIMBLK
  1

  9
$DIMASO
 70
     1
  9
$DIMSHO
 70
     1
  9
$DIMPOST
  1

  9
$DIMAPOST
  1

  9
$DIMALT
 70
     0
  9
$DIMALTD
 70
     2
  9
$DIMALTF
 40
25.4
  9
$DIMLFAC
 40
1.0
  9
$DIMTOFL
 70
     0
  9
$DIMTVP
 40
0.0
  9
$DIMTIX
 70
     0
  9
$DIMSOXD
 70
     0
  9
$DIMSAH
 70
     0
  9
$DIMBLK1
  1

  9
$DIMBLK2
  1

  9
$DIMSTYLE
  2
Standard
  9
$DIMCLRD
 70
     0
  9
$DIMCLRE
 70
     0
  9
$DIMCLRT
 70
     0
  9
$DIMTFAC
 40
1.0
  9
$DIMGAP
 40
0.09
  9
$DIMJUST
 70
     0
  9
$DIMSD1
 70
     0
  9
$DIMSD2
 70
     0
  9
$DIMTOLJ
 70
     1
  9
$DIMTZIN
 70
     0
  9
$DIMALTZ
 70
     0
  9
$DIMALTTZ
 70
     0
  9
$DIMUPT
 70
     0
  9
$DIMDEC
 70
     4
  9
$DIMTDEC
 70
     4
  9
$DIMALTU
 70
     2
  9
$DIMALTTD
 70
     2
  9
$DIMTXSTY
  7
STANDARD
  9
$DIMAUNIT
 70
     0
  9
$DIMADEC
 70
     0
  9
$DIMALTRND
 40
0.0
  9
$DIMAZIN
 70
     0
  9
$DIMDSEP
 70
    46
  9
$DIMATFIT
 70
     3
  9
$DIMFRAC
 70
     0
  9
$DIMLDRBLK
  1

  9
$DIMLUNIT
 70
     2
  9
$DIMLWD
 70
    -2
  9
$DIMLWE
 70
    -2
  9
$DIMTMOVE
 70
     0
  9
$LUNITS
 70
     2
  9
$LUPREC
 70
     4
  9
$SKETCHINC
 40
0.1
  9
$FILLETRAD
 40
0.0
  9
$AUNITS
 70
     0
  9
$AUPREC
 70
     0
  9
$MENU
  1
.
  9
$ELEVATION
 40
0.0
  9
$PELEVATION
 40
0.0
  9
$THICKNESS
 40
0.0
  9
$LIMCHECK
 70
     0
  9
$CHAMFERA
 40
0.0
  9
$CHAMFERB
 40
0.0
  9
$CHAMFERC
 40
0.0
  9
$CHAMFERD
 40
0.0
  9
$SKPOLY
 70
     0
  9
$TDCREATE
 40
2454846.609658785
  9
$TDUCREATE
 40
2454846.234658785
  9
$TDUPDATE
 40
2454846.616211574
  9
$TDUUPDATE
 40
2454846.241211574
  9
$TDINDWG
 40
0.0065549537
  9
$TDUSRTIMER
 40
0.0065549537
  9
$USRTIMER
 70
     1
  9
$ANGBASE
 50
0.0
  9
$ANGDIR
 70
     0
  9
$PDMODE
 70
     0
  9
$PDSIZE
 40
0.0
  9
$PLINEWID
 40
0.0
  9
$SPLFRAME
 70
     0
  9
$SPLINETYPE
 70
     6
  9
$SPLINESEGS
 70
     8
  9
$HANDSEED
  5
674
  9
$SURFTAB1
 70
     6
  9
$SURFTAB2
 70
     6
  9
$SURFTYPE
 70
     6
  9
$SURFU
 70
     6
  9
$SURFV
 70
     6
  9
$UCSBASE
  2

  9
$UCSNAME
  2

  9
$UCSORG
 10
0.0
 20
0.0
 30
0.0
  9
$UCSXDIR
 10
1.0
 20
0.0
 30
0.0
  9
$UCSYDIR
 10
0.0
 20
1.0
 30
0.0
  9
$UCSORTHOREF
  2

  9
$UCSORTHOVIEW
 70
     0
  9
$UCSORGTOP
 10
0.0
 20
0.0
 30
0.0
  9
$UCSORGBOTTOM
 10
0.0
 20
0.0
 30
0.0
  9
$UCSORGLEFT
 10
0.0
 20
0.0
 30
0.0
  9
$UCSORGRIGHT
 10
0.0
 20
0.0
 30
0.0
  9
$UCSORGFRONT
 10
0.0
 20
0.0
 30
0.0
  9
$UCSORGBACK
 10
0.0
 20
0.0
 30
0.0
  9
$PUCSBASE
  2

  9
$PUCSNAME
  2

  9
$PUCSORG
 10
0.0
 20
0.0
 30
0.0
  9
$PUCSXDIR
 10
1.0
 20
0.0
 30
0.0
  9
$PUCSYDIR
 10
0.0
 20
1.0
 30
0.0
  9
$PUCSORTHOREF
  2

  9
$PUCSORTHOVIEW
 70
     0
  9
$PUCSORGTOP
 10
0.0
 20
0.0
 30
0.0
  9
$PUCSORGBOTTOM
 10
0.0
 20
0.0
 30
0.0
  9
$PUCSORGLEFT
 10
0.0
 20
0.0
 30
0.0
  9
$PUCSORGRIGHT
 10
0.0
 20
0.0
 30
0.0
  9
$PUCSORGFRONT
 10
0.0
 20
0.0
 30
0.0
  9
$PUCSORGBACK
 10
0.0
 20
0.0
 30
0.0
  9
$USERI1
 70
     0
  9
$USERI2
 70
     0
  9
$USERI3
 70
     0
  9
$USERI4
 70
     0
  9
$USERI5
 70
     0
  9
$USERR1
 40
0.0
  9
$USERR2
 40
0.0
  9
$USERR3
 40
0.0
  9
$USERR4
 40
0.0
  9
$USERR5
 40
0.0
  9
$WORLDVIEW
 70
     1
  9
$SHADEDGE
 70
     3
  9
$SHADEDIF
 70
    70
  9
$TILEMODE
 70
     1
  9
$MAXACTVP
 70
    64
  9
$PINSBASE
 10
0.0
 20
0.0
 30
0.0
  9
$PLIMCHECK
 70
     0
  9
$PEXTMIN
 10
1.000000000000000E+20
 20
1.000000000000000E+20
 30
1.000000000000000E+20
  9
$PEXTMAX
 10
-1.000000000000000E+20
 20
-1.000000000000000E+20
 30
-1.000000000000000E+20
  9
$PLIMMIN
 10
0.0
 20
0.0
  9
$PLIMMAX
 10
12.0
 20
9.0
  9
$UNITMODE
 70
     0
  9
$VISRETAIN
 70
     1
  9
$PLINEGEN
 70
     0
  9
$PSLTSCALE
 70
     1
  9
$TREEDEPTH
 70
  3020
  9
$CMLSTYLE
  2
Standard
  9
$CMLJUST
 70
     0
  9
$CMLSCALE
 40
1.0
  9
$PROXYGRAPHICS
 70
     1
  9
$MEASUREMENT
 70
     0
  9
$CELWEIGHT
370
    -1
  9
$ENDCAPS
280
     0
  9
$JOINSTYLE
280
     0
  9
$LWDISPLAY
290
     0
  9
$INSUNITS
 70
     0
  9
$HYPERLINKBASE
  1

  9
$STYLESHEET
  1

  9
$XEDIT
290
     1
  9
$CEPSNTYPE
380
     0
  9
$PSTYLEMODE
290
     1
  9
$FINGERPRINTGUID
  2
{EDAF22C2-3A95-4DB4-AF4F-F324D0AD91FA}
  9
$VERSIONGUID
  2
{A0B57F52-AD62-4BCA-BC22-2D01042476E4}
  9
$EXTNAMES
290
     1
  9
$PSVPSCALE
 40
0.0
  9
$OLESTARTUP
290
     0
  0
ENDSEC
  0
SECTION
  2
CLASSES
  0
CLASS
  1
ACDBDICTIONARYWDFLT
  2
AcDbDictionaryWithDefault
  3
ObjectDBX Classes
 90
        0
280
     0
281
     0
  0
CLASS
  1
TABLESTYLE
  2
AcDbTableStyle
  3
ObjectDBX Classes
 90
     2047
280
     0
281
     0
  0
CLASS
  1
DICTIONARYVAR
  2
AcDbDictionaryVar
  3
ObjectDBX Classes
 90
        0
280
     0
281
     0
  0
CLASS
  1
ACDBPLACEHOLDER
  2
AcDbPlaceHolder
  3
ObjectDBX Classes
 90
        0
280
     0
281
     0
  0
CLASS
  1
LAYOUT
  2
AcDbLayout
  3
ObjectDBX Classes
 90
        0
280
     0
281
     0
  0
ENDSEC
  0
SECTION
  2
TABLES
  0
TABLE
  2
VPORT
  5
8
330
0
100
AcDbSymbolTable
 70
     2
  0
VPORT
  5
66E
330
8
100
AcDbSymbolTableRecord
100
AcDbViewportTableRecord
  2
*Active
 70
     0
 10
0.0
 20
0.0
 11
1.0
 21
1.0
 12
1035.90088377928
 22
743.0664860021396
 13
0.0
 23
0.0
 14
1.0
 24
1.0
 15
0.0
 25
0.0
 16
0.0
 26
0.0
 36
1.0
 17
0.0
 27
0.0
 37
0.0
 40
1443.009125706997
 41
2.069696969696969
 42
50.0
 43
0.0
 44
0.0
 50
0.0
 51
0.0
 71
     0
 72
   100
 73
     1
 74
     1
 75
     0
 76
     0
 77
     0
 78
     0
281
     0
 65
     1
110
0.0
120
0.0
130
0.0
111
1.0
121
0.0
131
0.0
112
0.0
122
1.0
132
0.0
 79
     0
146
0.0
  0
ENDTAB
  0
TABLE
  2
LTYPE
  5
5
330
0
100
AcDbSymbolTable
 70
    35
  0
LTYPE
  5
13
330
5
100
AcDbSymbolTableRecord
100
AcDbLinetypeTableRecord
  2
ByBlock
 70
     0
  3

 72
    65
 73
     0
 40
0.0
  0
LTYPE
  5
14
330
5
100
AcDbSymbolTableRecord
100
AcDbLinetypeTableRecord
  2
ByLayer
 70
     0
  3

 72
    65
 73
     0
 40
0.0
  0
LTYPE
  5
15
330
5
100
AcDbSymbolTableRecord
100
AcDbLinetypeTableRecord
  2
CONTINUOUS
 70
     0
  3
実線
 72
    65
 73
     0
 40
0.0
  0
LTYPE
  5
26
330
5
100
AcDbSymbolTableRecord
100
AcDbLinetypeTableRecord
  2
DASHED1
 70
     0
  3
--  --  --  --  --  --  --  --  
 72
    65
 73
     2
 40
2.5
 49
1.25
 74
     0
 49
-1.25
 74
     0
  0
LTYPE
  5
27
330
5
100
AcDbSymbolTableRecord
100
AcDbLinetypeTableRecord
  2
DASHED2
 70
     0
  3
----    ----    ----    ----    
 72
    65
 73
     2
 40
5.0
 49
2.5
 74
     0
 49
-2.5
 74
     0
  0
LTYPE
  5
28
330
5
100
AcDbSymbolTableRecord
100
AcDbLinetypeTableRecord
  2
DASHED3
 70
     0
  3
------  ------  ------  ------  
 72
    65
 73
     2
 40
5.0
 49
3.75
 74
     0
 49
-1.25
 74
     0
  0
LTYPE
  5
29
330
5
100
AcDbSymbolTableRecord
100
AcDbLinetypeTableRecord
  2
CENTER1
 70
     0
  3
----- - ----- - ----- - ----- - 
 72
    65
 73
     4
 40
10.0
 49
6.25
 74
     0
 49
-1.25
 74
     0
 49
1.25
 74
     0
 49
-1.25
 74
     0
  0
LTYPE
  5
2A
330
5
100
AcDbSymbolTableRecord
100
AcDbLinetypeTableRecord
  2
CENTER2
 70
     0
  3
----------  --  ----------  --  
 72
    65
 73
     4
 40
20.0
 49
12.5
 74
     0
 49
-2.5
 74
     0
 49
2.5
 74
     0
 49
-2.5
 74
     0
  0
LTYPE
  5
2B
330
5
100
AcDbSymbolTableRecord
100
AcDbLinetypeTableRecord
  2
PHANTOM1
 70
     0
  3
--- - - --- - - --- - - --- - - 
 72
    65
 73
     6
 40
10.0
 49
3.25
 74
     0
 49
-1.25
 74
     0
 49
1.25
 74
     0
 49
-1.25
 74
     0
 49
1.25
 74
     0
 49
-1.25
 74
     0
  0
LTYPE
  5
2C
330
5
100
AcDbSymbolTableRecord
100
AcDbLinetypeTableRecord
  2
PHANTOM2
 70
     0
  3
--------  -  -  --------  -  -  
 72
    65
 73
     6
 40
20.0
 49
10.0
 74
     0
 49
-2.5
 74
     0
 49
1.25
 74
     0
 49
-2.5
 74
     0
 49
1.25
 74
     0
 49
-2.5
 74
     0
  0
LTYPE
  5
2D
330
5
100
AcDbSymbolTableRecord
100
AcDbLinetypeTableRecord
  2
DOT
 70
     0
  3
-   -   -   -   -   -   -   -   
 72
    65
 73
     2
 40
2.5
 49
0.625
 74
     0
 49
-1.875
 74
     0
  0
LTYPE
  5
2E
330
5
100
AcDbSymbolTableRecord
100
AcDbLinetypeTableRecord
  2
DUMMY
 70
     0
  3
ダミー
 72
    65
 73
     0
 40
0.0
  0
LTYPE
  5
2F
330
5
100
AcDbSymbolTableRecord
100
AcDbLinetypeTableRecord
  2
RAND1
 70
     0
  3
ランダム線1
 72
    65
 73
     4
 40
10.0
 49
1.0
 74
     0
 49
-2.0
 74
     0
 49
3.0
 74
     0
 49
-4.0
 74
     0
  0
LTYPE
  5
30
330
5
100
AcDbSymbolTableRecord
100
AcDbLinetypeTableRecord
  2
RAND2
 70
     0
  3
ランダム線2
 72
    65
 73
     4
 40
14.0
 49
2.0
 74
     0
 49
-3.0
 74
     0
 49
4.0
 74
     0
 49
-5.0
 74
     0
  0
LTYPE
  5
31
330
5
100
AcDbSymbolTableRecord
100
AcDbLinetypeTableRecord
  2
RAND3
 70
     0
  3
ランダム線3
 72
    65
 73
     4
 40
18.0
 49
3.0
 74
     0
 49
-4.0
 74
     0
 49
5.0
 74
     0
 49
-6.0
 74
     0
  0
LTYPE
  5
32
330
5
100
AcDbSymbolTableRecord
100
AcDbLinetypeTableRecord
  2
RAND4
 70
     0
  3
ランダム線4
 72
    65
 73
     4
 40
22.0
 49
4.0
 74
     0
 49
-5.0
 74
     0
 49
6.0
 74
     0
 49
-7.0
 74
     0
  0
LTYPE
  5
33
330
5
100
AcDbSymbolTableRecord
100
AcDbLinetypeTableRecord
  2
RAND5
 70
     0
  3
ランダム線5
 72
    65
 73
     4
 40
26.0
 49
5.0
 74
     0
 49
-6.0
 74
     0
 49
7.0
 74
     0
 49
-8.0
 74
     0
  0
LTYPE
  5
34
330
5
100
AcDbSymbolTableRecord
100
AcDbLinetypeTableRecord
  2
LONG1
 70
     0
  3
----------  --  ----------  --  
 72
    65
 73
     4
 40
40.0
 49
32.5
 74
     0
 49
-2.5
 74
     0
 49
2.5
 74
     0
 49
-2.5
 74
     0
  0
LTYPE
  5
35
330
5
100
AcDbSymbolTableRecord
100
AcDbLinetypeTableRecord
  2
LONG2
 70
     0
  3
--------  -  -  --------  -  -  
 72
    65
 73
     6
 40
40.0
 49
30.0
 74
     0
 49
-2.5
 74
     0
 49
1.25
 74
     0
 49
-2.5
 74
     0
 49
1.25
 74
     0
 49
-2.5
 74
     0
  0
LTYPE
  5
36
330
5
100
AcDbSymbolTableRecord
100
AcDbLinetypeTableRecord
  2
LONG3
 70
     0
  3
+++++++++++++++..+++++++++++++++
 72
    65
 73
     2
 40
40.0
 49
37.5
 74
     0
 49
-2.5
 74
     0
  0
LTYPE
  5
37
330
5
100
AcDbSymbolTableRecord
100
AcDbLinetypeTableRecord
  2
LONG4
 70
     0
  3
+++++++++++++++..+++++++++++++++
 72
    65
 73
     2
 40
80.0
 49
75.0
 74
     0
 49
-5.0
 74
     0
  0
LTYPE
  5
38
330
5
100
AcDbSymbolTableRecord
100
AcDbLinetypeTableRecord
  2
LONG5
 70
     0
  3
----------  --  ----------  --  
 72
    65
 73
     4
 40
60.0
 49
37.5
 74
     0
 49
-7.5
 74
     0
 49
7.5
 74
     0
 49
-7.5
 74
     0
  0
LTYPE
  5
39
330
5
100
AcDbSymbolTableRecord
100
AcDbLinetypeTableRecord
  2
DASHED
 70
     0
  3
-------   -------------   ------
 72
    65
 73
     2
 40
7.5
 49
6.0
 74
     0
 49
-1.5
 74
     0
  0
LTYPE
  5
3A
330
5
100
AcDbSymbolTableRecord
100
AcDbLinetypeTableRecord
  2
DASHED_SPACED
 70
     0
  3
----        --------        ----
 72
    65
 73
     2
 40
12.0
 49
6.0
 74
     0
 49
-6.0
 74
     0
  0
LTYPE
  5
3B
330
5
100
AcDbSymbolTableRecord
100
AcDbLinetypeTableRecord
  2
LONG_DASHED_DOTTED
 70
     0
  3
------------- --- --------------
 72
    65
 73
     4
 40
15.25
 49
12.0
 74
     0
 49
-1.5
 74
     0
 49
0.25
 74
     0
 49
-1.5
 74
     0
  0
LTYPE
  5
3C
330
5
100
AcDbSymbolTableRecord
100
AcDbLinetypeTableRecord
  2
LONG_DASHED_DOUBLE-DOTTED
 70
     0
  3
----------- --- --- ------------
 72
    65
 73
     6
 40
17.0
 49
12.0
 74
     0
 49
-1.5
 74
     0
 49
0.25
 74
     0
 49
-1.5
 74
     0
 49
0.25
 74
     0
 49
-1.5
 74
     0
  0
LTYPE
  5
3D
330
5
100
AcDbSymbolTableRecord
100
AcDbLinetypeTableRecord
  2
LONG_DASHED_TRIPLICATE-DOTTED
 70
     0
  3
--------- --- --- --- ----------
 72
    65
 73
     8
 40
18.75
 49
12.0
 74
     0
 49
-1.5
 74
     0
 49
0.25
 74
     0
 49
-1.5
 74
     0
 49
0.25
 74
     0
 49
-1.5
 74
     0
 49
0.25
 74
     0
 49
-1.5
 74
     0
  0
LTYPE
  5
3E
330
5
100
AcDbSymbolTableRecord
100
AcDbLinetypeTableRecord
  2
DOTTED
 70
     0
  3
   -       -       -       -    
 72
    65
 73
     2
 40
1.75
 49
0.25
 74
     0
 49
-1.5
 74
     0
  0
LTYPE
  5
3F
330
5
100
AcDbSymbolTableRecord
100
AcDbLinetypeTableRecord
  2
CHAIN
 70
     0
  3
-------------- -- --------------
 72
    65
 73
     4
 40
18.5
 49
12.0
 74
     0
 49
-1.5
 74
     0
 49
3.5
 74
     0
 49
-1.5
 74
     0
  0
LTYPE
  5
40
330
5
100
AcDbSymbolTableRecord
100
AcDbLinetypeTableRecord
  2
CHAIN_DOUBLE_DASH
 70
     0
  3
------------ -- -- -------------
 72
    65
 73
     6
 40
23.5
 49
12.0
 74
     0
 49
-1.5
 74
     0
 49
3.5
 74
     0
 49
-1.5
 74
     0
 49
3.5
 74
     0
 49
-1.5
 74
     0
  0
LTYPE
  5
41
330
5
100
AcDbSymbolTableRecord
100
AcDbLinetypeTableRecord
  2
DASHED_DOTTED
 70
     0
  3
-----------     -     ----------
 72
    65
 73
     4
 40
9.25
 49
6.0
 74
     0
 49
-1.5
 74
     0
 49
0.25
 74
     0
 49
-1.5
 74
     0
  0
LTYPE
  5
42
330
5
100
AcDbSymbolTableRecord
100
AcDbLinetypeTableRecord
  2
DOUBLE-DASHED_DOTTED
 70
     0
  3
------   -----------   -   -----
 72
    65
 73
     6
 40
16.75
 49
6.0
 74
     0
 49
-1.5
 74
     0
 49
6.0
 74
     0
 49
-1.5
 74
     0
 49
0.25
 74
     0
 49
-1.5
 74
     0
  0
LTYPE
  5
43
330
5
100
AcDbSymbolTableRecord
100
AcDbLinetypeTableRecord
  2
DASHED_DOUBLE-DOTTED
 70
     0
  3
---------    -    -    ---------
 72
    65
 73
     6
 40
11.0
 49
6.0
 74
     0
 49
-1.5
 74
     0
 49
0.25
 74
     0
 49
-1.5
 74
     0
 49
0.25
 74
     0
 49
-1.5
 74
     0
  0
LTYPE
  5
44
330
5
100
AcDbSymbolTableRecord
100
AcDbLinetypeTableRecord
  2
DOUBLE-DASHED_DOUBLE-DOTTED
 70
     0
  3
-----   ---------   -   -   ----
 72
    65
 73
     8
 40
18.5
 49
6.0
 74
     0
 49
-1.5
 74
     0
 49
6.0
 74
     0
 49
-1.5
 74
     0
 49
0.25
 74
     0
 49
-1.5
 74
     0
 49
0.25
 74
     0
 49
-1.5
 74
     0
  0
LTYPE
  5
45
330
5
100
AcDbSymbolTableRecord
100
AcDbLinetypeTableRecord
  2
DASHED_TRIPLICATE-DOTTED
 70
     0
  3
-------    -    -    -    ------
 72
    65
 73
     8
 40
12.75
 49
6.0
 74
     0
 49
-1.5
 74
     0
 49
0.25
 74
     0
 49
-1.5
 74
     0
 49
0.25
 74
     0
 49
-1.5
 74
     0
 49
0.25
 74
     0
 49
-1.5
 74
     0
  0
LTYPE
  5
46
330
5
100
AcDbSymbolTableRecord
100
AcDbLinetypeTableRecord
  2
DOUBLE-DASHED_TRIPLICATE-DOTTED
 70
     0
  3
-----  ---------  -  -  -  -----
 72
    65
 73
    10
 40
20.25
 49
6.0
 74
     0
 49
-1.5
 74
     0
 49
6.0
 74
     0
 49
-1.5
 74
     0
 49
0.25
 74
     0
 49
-1.5
 74
     0
 49
0.25
 74
     0
 49
-1.5
 74
     0
 49
0.25
 74
     0
 49
-1.5
 74
     0
  0
LTYPE
  5
47
330
5
100
AcDbSymbolTableRecord
100
AcDbLinetypeTableRecord
  2
UNDEFINED
 70
     0
  3
--------------------------------
 72
    65
 73
     0
 40
0.0
  0
ENDTAB
  0
TABLE
  2
LAYER
  5
2
330
0
100
AcDbSymbolTable
 70
    22
  0
LAYER
  5
10
330
2
100
AcDbSymbolTableRecord
100
AcDbLayerTableRecord
  2
0
 70
     0
 62
     7
  6
CONTINUOUS
370
    -3
390
F
  0
LAYER
  5
49
330
2
100
AcDbSymbolTableRecord
100
AcDbLayerTableRecord
  2
_2-2_IN_LINE
 70
     0
 62
     7
  6
CONTINUOUS
370
    -3
390
F
  0
LAYER
  5
4A
330
2
100
AcDbSymbolTableRecord
100
AcDbLayerTableRecord
  2
_2-4_OUT_LINE
 70
     0
 62
     7
  6
CONTINUOUS
370
    -3
390
F
  0
LAYER
  5
4B
330
2
100
AcDbSymbolTableRecord
100
AcDbLayerTableRecord
  2
_2-A_MOJI
 70
     0
 62
     7
  6
CONTINUOUS
370
    -3
390
F
  0
LAYER
  5
4C
330
2
100
AcDbSymbolTableRecord
100
AcDbLayerTableRecord
  2
_2-B_DIM
 70
     0
 62
     7
  6
CONTINUOUS
370
    -3
390
F
  0
LAYER
  5
4D
330
2
100
AcDbSymbolTableRecord
100
AcDbLayerTableRecord
  2
_2-D_ハッチ他
 70
     0
 62
     7
  6
CONTINUOUS
370
    -3
390
F
  0
LAYER
  5
4E
330
2
100
AcDbSymbolTableRecord
100
AcDbLayerTableRecord
  2
_2-E_CON他
 70
     0
 62
     7
  6
CONTINUOUS
370
    -3
390
F
  0
LAYER
  5
4F
330
2
100
AcDbSymbolTableRecord
100
AcDbLayerTableRecord
  2
_4-2_
 70
     0
 62
     7
  6
CONTINUOUS
370
    -3
390
F
  0
LAYER
  5
50
330
2
100
AcDbSymbolTableRecord
100
AcDbLayerTableRecord
  2
_4-3_
 70
     0
 62
     7
  6
CONTINUOUS
370
    -3
390
F
  0
LAYER
  5
51
330
2
100
AcDbSymbolTableRecord
100
AcDbLayerTableRecord
  2
_4-4_
 70
     0
 62
     7
  6
CONTINUOUS
370
    -3
390
F
  0
LAYER
  5
52
330
2
100
AcDbSymbolTableRecord
100
AcDbLayerTableRecord
  2
_4-6_
 70
     0
 62
     7
  6
CONTINUOUS
370
    -3
390
F
  0
LAYER
  5
53
330
2
100
AcDbSymbolTableRecord
100
AcDbLayerTableRecord
  2
_4-7_
 70
     0
 62
     7
  6
CONTINUOUS
370
    -3
390
F
  0
LAYER
  5
54
330
2
100
AcDbSymbolTableRecord
100
AcDbLayerTableRecord
  2
_4-A_
 70
     0
 62
     7
  6
CONTINUOUS
370
    -3
390
F
  0
LAYER
  5
55
330
2
100
AcDbSymbolTableRecord
100
AcDbLayerTableRecord
  2
_4-B_
 70
     0
 62
     7
  6
CONTINUOUS
370
    -3
390
F
  0
LAYER
  5
56
330
2
100
AcDbSymbolTableRecord
100
AcDbLayerTableRecord
  2
_4-D_
 70
     0
 62
     7
  6
CONTINUOUS
370
    -3
390
F
  0
LAYER
  5
57
330
2
100
AcDbSymbolTableRecord
100
AcDbLayerTableRecord
  2
_4-E_
 70
     0
 62
     7
  6
CONTINUOUS
370
    -3
390
F
  0
LAYER
  5
58
330
2
100
AcDbSymbolTableRecord
100
AcDbLayerTableRecord
  2
_F-2_
 70
     0
 62
     7
  6
CONTINUOUS
370
    -3
390
F
  0
LAYER
  5
59
330
2
100
AcDbSymbolTableRecord
100
AcDbLayerTableRecord
  2
_F-5_
 70
     0
 62
     7
  6
CONTINUOUS
370
    -3
390
F
  0
LAYER
  5
5A
330
2
100
AcDbSymbolTableRecord
100
AcDbLayerTableRecord
  2
_F-7_
 70
     0
 62
     7
  6
CONTINUOUS
370
    -3
390
F
  0
LAYER
  5
5B
330
2
100
AcDbSymbolTableRecord
100
AcDbLayerTableRecord
  2
_F-8_
 70
     0
 62
     7
  6
CONTINUOUS
370
    -3
390
F
  0
LAYER
  5
5C
330
2
100
AcDbSymbolTableRecord
100
AcDbLayerTableRecord
  2
_F-A_
 70
     0
 62
     7
  6
CONTINUOUS
370
    -3
390
F
  0
LAYER
  5
5D
330
2
100
AcDbSymbolTableRecord
100
AcDbLayerTableRecord
  2
ADD_LINE
 70
     0
 62
     7
  6
CONTINUOUS
370
    -3
390
F
  0
ENDTAB
  0
TABLE
  2
STYLE
  5
3
330
0
100
AcDbSymbolTable
 70
     2
  0
STYLE
  5
11
330
3
100
AcDbSymbolTableRecord
100
AcDbTextStyleTableRecord
  2
STANDARD
 70
     0
 40
0.0
 41
1.0
 50
0.0
 71
     0
 42
0.2
  3
txt
  4
bigfont.shx
  0
STYLE
  5
48
330
3
100
AcDbSymbolTableRecord
100
AcDbTextStyleTableRecord
  2
TATEGAKI
 70
     4
 40
0.0
 41
1.0
 50
0.0
 71
     0
 42
1.0
  3
txt
  4
bigfont.shx
  0
ENDTAB
  0
TABLE
  2
VIEW
  5
6
330
0
100
AcDbSymbolTable
 70
     0
  0
ENDTAB
  0
TABLE
  2
UCS
  5
7
330
0
100
AcDbSymbolTable
 70
     0
  0
ENDTAB
  0
TABLE
  2
APPID
  5
9
330
0
100
AcDbSymbolTable
 70
     1
  0
APPID
  5
12
330
9
100
AcDbSymbolTableRecord
100
AcDbRegAppTableRecord
  2
ACAD
 70
     0
  0
ENDTAB
  0
TABLE
  2
DIMSTYLE
  5
A
330
0
100
AcDbSymbolTable
 70
     1
100
AcDbDimStyleTable
 71
     0
  0
DIMSTYLE
105
668
330
A
100
AcDbSymbolTableRecord
100
AcDbDimStyleTableRecord
  2
Standard
 70
     0
340
11
  0
ENDTAB
  0
TABLE
  2
BLOCK_RECORD
  5
1
330
0
100
AcDbSymbolTable
 70
     0
  0
BLOCK_RECORD
  5
22
330
1
100
AcDbSymbolTableRecord
100
AcDbBlockTableRecord
  2
*Model_Space
340
25
  0
BLOCK_RECORD
  5
1E
330
1
100
AcDbSymbolTableRecord
100
AcDbBlockTableRecord
  2
*Paper_Space
340
21
  0
ENDTAB
  0
ENDSEC
  0
SECTION
  2
BLOCKS
  0
BLOCK
  5
23
330
22
100
AcDbEntity
  8
0
100
AcDbBlockBegin
  2
*Model_Space
 70
     0
 10
0.0
 20
0.0
 30
0.0
  3
*Model_Space
  1

  0
ENDBLK
  5
24
330
22
100
AcDbEntity
  8
0
100
AcDbBlockEnd
  0
BLOCK
  5
1F
330
1E
100
AcDbEntity
 67
     1
  8
0
100
AcDbBlockBegin
  2
*Paper_Space
 70
     0
 10
0.0
 20
0.0
 30
0.0
  3
*Paper_Space
  1

  0
ENDBLK
  5
20
330
1E
100
AcDbEntity
 67
     1
  8
0
100
AcDbBlockEnd
  0
ENDSEC
  0
SECTION
  2
ENTITIES
  0
LINE
  5
61
330
22
100
AcDbEntity
  8
ADD_LINE
  6
DOT
 62
   136
100
AcDbLine
 10
1535.874879229757
 20
28.057045447122
 30
0.0
 11
535.8748792297537
 21
28.057045447122
 31
0.0
  0
LINE
  5
62
330
22
100
AcDbEntity
  8
ADD_LINE
  6
DOT
 62
   136
100
AcDbLine
 10
1535.874879229757
 20
1458.057045447122
 30
0.0
 11
1535.874879229757
 21
28.057045447122
 31
0.0
  0
LINE
  5
63
330
22
100
AcDbEntity
  8
ADD_LINE
  6
DOT
 62
   136
100
AcDbLine
 10
535.8748792297581
 20
1458.057045447122
 30
0.0
 11
1535.874879229757
 21
1458.057045447122
 31
0.0
  0
LINE
  5
64
330
22
100
AcDbEntity
  8
ADD_LINE
  6
DOT
 62
   136
100
AcDbLine
 10
535.8748792297581
 20
1458.057045447122
 30
0.0
 11
535.8748792297581
 21
28.057045447122
 31
0.0
  0
LINE
  5
65
330
22
100
AcDbEntity
  8
ADD_LINE
  6
DOT
 62
   136
100
AcDbLine
 10
635.8748792297581
 20
788.0570454471195
 30
0.0
 11
1435.874879229757
 21
788.0570454471195
 31
0.0
  0
LINE
  5
66
330
22
100
AcDbEntity
  8
ADD_LINE
  6
DOT
 62
   136
100
AcDbLine
 10
655.874879229758
 20
808.0570454471196
 30
0.0
 11
655.874879229758
 21
768.0570454471195
 31
0.0
  0
LINE
  5
67
330
22
100
AcDbEntity
  8
ADD_LINE
  6
DOT
 62
   136
100
AcDbLine
 10
940.8748792297567
 20
808.0570454471196
 30
0.0
 11
940.8748792297567
 21
768.0570454471195
 31
0.0
  0
LINE
  5
68
330
22
100
AcDbEntity
  8
ADD_LINE
  6
DOT
 62
   136
100
AcDbLine
 10
790.8748792297569
 20
808.0570454471196
 30
0.0
 11
790.8748792297569
 21
768.0570454471195
 31
0.0
  0
LINE
  5
69
330
22
100
AcDbEntity
  8
ADD_LINE
  6
DOT
 62
   136
100
AcDbLine
 10
635.8748792297581
 20
148.057045447122
 30
0.0
 11
1435.874879229757
 21
148.057045447122
 31
0.0
  0
LINE
  5
6A
330
22
100
AcDbEntity
  8
ADD_LINE
  6
DOT
 62
   136
100
AcDbLine
 10
655.874879229758
 20
168.057045447122
 30
0.0
 11
655.874879229758
 21
128.057045447122
 31
0.0
  0
LINE
  5
6B
330
22
100
AcDbEntity
  8
ADD_LINE
  6
DOT
 62
   136
100
AcDbLine
 10
940.8748792297567
 20
168.057045447122
 30
0.0
 11
940.8748792297567
 21
128.057045447122
 31
0.0
  0
LINE
  5
6C
330
22
100
AcDbEntity
  8
ADD_LINE
  6
DOT
 62
   136
100
AcDbLine
 10
790.8748792297569
 20
168.057045447122
 30
0.0
 11
790.8748792297569
 21
128.057045447122
 31
0.0
  0
LINE
  5
6D
330
22
100
AcDbEntity
  8
ADD_LINE
  6
DOT
 62
   136
100
AcDbLine
 10
1320.874879229757
 20
808.0570454471196
 30
0.0
 11
1320.874879229757
 21
768.0570454471195
 31
0.0
  0
LINE
  5
6E
330
22
100
AcDbEntity
  8
ADD_LINE
  6
DOT
 62
   136
100
AcDbLine
 10
1215.874879229757
 20
808.0570454471196
 30
0.0
 11
1215.874879229757
 21
768.0570454471195
 31
0.0
  0
LINE
  5
6F
330
22
100
AcDbEntity
  8
ADD_LINE
  6
DOT
 62
   136
100
AcDbLine
 10
1320.874879229757
 20
168.057045447122
 30
0.0
 11
1320.874879229757
 21
128.057045447122
 31
0.0
  0
LINE
  5
70
330
22
100
AcDbEntity
  8
ADD_LINE
  6
DOT
 62
   136
100
AcDbLine
 10
1215.874879229757
 20
168.057045447122
 30
0.0
 11
1215.874879229757
 21
128.057045447122
 31
0.0
  0
LINE
  5
71
330
22
100
AcDbEntity
  8
_F-7_
  6
Continuous
 62
     1
100
AcDbLine
 10
635.8748792297581
 20
768.0570454471195
 30
0.0
 11
1435.874879229757
 21
768.0570454471195
 31
0.0
  0
LINE
  5
72
330
22
100
AcDbEntity
  8
_F-5_
  6
Continuous
 62
     6
100
AcDbLine
 10
635.8748792297581
 20
808.0570454471196
 30
0.0
 11
1435.874879229757
 21
808.0570454471196
 31
0.0
  0
LINE
  5
73
330
22
100
AcDbEntity
  8
_F-2_
  6
Continuous
 62
     7
100
AcDbLine
 10
925.8748792297566
 20
808.0570454471196
 30
0.0
 11
925.8748792297566
 21
768.0570454471195
 31
0.0
  0
TEXT
  5
74
330
22
100
AcDbEntity
  8
_F-A_
 62
     7
100
AcDbText
 10
655.874879229758
 20
778.0570454471195
 30
0.0
 40
20.0
  1
１１０仕様
100
AcDbText
  0
LINE
  5
75
330
22
100
AcDbEntity
  8
_F-7_
  6
Continuous
 62
     1
100
AcDbLine
 10
635.8748792297581
 20
128.057045447122
 30
0.0
 11
1435.874879229757
 21
128.057045447122
 31
0.0
  0
LINE
  5
76
330
22
100
AcDbEntity
  8
_F-5_
  6
Continuous
 62
     6
100
AcDbLine
 10
635.8748792297581
 20
168.057045447122
 30
0.0
 11
1435.874879229757
 21
168.057045447122
 31
0.0
  0
LINE
  5
77
330
22
100
AcDbEntity
  8
_F-2_
  6
Continuous
 62
     7
100
AcDbLine
 10
925.8748792297566
 20
168.057045447122
 30
0.0
 11
925.8748792297566
 21
128.057045447122
 31
0.0
  0
TEXT
  5
78
330
22
100
AcDbEntity
  8
_F-A_
 62
     7
100
AcDbText
 10
655.874879229758
 20
138.057045447122
 30
0.0
 40
20.0
  1
１１０仕様
100
AcDbText
  0
LINE
  5
79
330
22
100
AcDbEntity
  8
_F-7_
  6
Continuous
 62
     1
100
AcDbLine
 10
1435.874879229757
 20
1358.057045447119
 30
0.0
 11
1435.874879229757
 21
768.0570454471195
 31
0.0
  0
LINE
  5
7A
330
22
100
AcDbEntity
  8
_F-7_
  6
Continuous
 62
     1
100
AcDbLine
 10
635.8748792297581
 20
1358.057045447119
 30
0.0
 11
1435.874879229757
 21
1358.057045447119
 31
0.0
  0
LINE
  5
7B
330
22
100
AcDbEntity
  8
_F-7_
  6
Continuous
 62
     1
100
AcDbLine
 10
635.8748792297581
 20
1358.057045447119
 30
0.0
 11
635.8748792297581
 21
768.0570454471195
 31
0.0
  0
LINE
  5
7C
330
22
100
AcDbEntity
  8
_F-7_
  6
Continuous
 62
     1
100
AcDbLine
 10
1435.874879229757
 20
718.0570454471195
 30
0.0
 11
1435.874879229757
 21
128.057045447122
 31
0.0
  0
TEXT
  5
7D
330
22
100
AcDbEntity
  8
_F-A_
 62
     7
100
AcDbText
 10
790.8748792297569
 20
778.0570454471195
 30
0.0
 40
17.5
  1
下地：ＲＣ
100
AcDbText
  0
TEXT
  5
7E
330
22
100
AcDbEntity
  8
_F-A_
 62
     7
100
AcDbText
 10
790.8748792297569
 20
138.057045447122
 30
0.0
 40
17.5
  1
下地：ＲＣ
100
AcDbText
  0
LINE
  5
7F
330
22
100
AcDbEntity
  8
_F-5_
  6
Continuous
 62
     6
100
AcDbLine
 10
775.8748792297569
 20
808.0570454471196
 30
0.0
 11
775.8748792297569
 21
768.0570454471195
 31
0.0
  0
LINE
  5
80
330
22
100
AcDbEntity
  8
_F-5_
  6
Continuous
 62
     6
100
AcDbLine
 10
775.8748792297569
 20
168.057045447122
 30
0.0
 11
775.8748792297569
 21
128.057045447122
 31
0.0
  0
LINE
  5
81
330
22
100
AcDbEntity
  8
_F-5_
  6
Continuous
 62
     6
100
AcDbLine
 10
773.374879229757
 20
808.0570454471196
 30
0.0
 11
773.374879229757
 21
768.0570454471195
 31
0.0
  0
LINE
  5
82
330
22
100
AcDbEntity
  8
_F-5_
  6
Continuous
 62
     6
100
AcDbLine
 10
773.374879229757
 20
168.057045447122
 30
0.0
 11
773.374879229757
 21
128.057045447122
 31
0.0
  0
TEXT
  5
83
330
22
100
AcDbEntity
  8
_F-A_
 62
     7
100
AcDbText
 10
940.8748792297567
 20
778.0570454471195
 30
0.0
 40
17.5
  1
部位：手摺り基礎廻り
100
AcDbText
  0
TEXT
  5
84
330
22
100
AcDbEntity
  8
_F-A_
 62
     7
100
AcDbText
 10
940.8748792297567
 20
138.057045447122
 30
0.0
 40
17.5
  1
部位：クーリングタワー台座
100
AcDbText
  0
LINE
  5
85
330
22
100
AcDbEntity
  8
_F-7_
  6
Continuous
 62
     1
100
AcDbLine
 10
635.8748792297581
 20
718.0570454471195
 30
0.0
 11
635.8748792297581
 21
128.057045447122
 31
0.0
  0
LINE
  5
86
330
22
100
AcDbEntity
  8
_F-7_
  6
Continuous
 62
     1
100
AcDbLine
 10
635.8748792297581
 20
718.0570454471195
 30
0.0
 11
1435.874879229757
 21
718.0570454471195
 31
0.0
  0
LINE
  5
87
330
22
100
AcDbEntity
  8
_F-2_
  6
Continuous
 62
     7
100
AcDbLine
 10
1305.874879229757
 20
808.0570454471196
 30
0.0
 11
1305.874879229757
 21
768.0570454471195
 31
0.0
  0
LINE
  5
88
330
22
100
AcDbEntity
  8
_F-2_
  6
Continuous
 62
     7
100
AcDbLine
 10
1200.874879229757
 20
808.0570454471196
 30
0.0
 11
1200.874879229757
 21
768.0570454471195
 31
0.0
  0
TEXT
  5
89
330
22
100
AcDbEntity
  8
_F-A_
 62
     7
100
AcDbText
 10
1320.874879229757
 20
778.0570454471195
 30
0.0
 40
15.0
  1
図番
100
AcDbText
  0
LINE
  5
8A
330
22
100
AcDbEntity
  8
_F-2_
  6
Continuous
 62
     7
100
AcDbLine
 10
1305.874879229757
 20
168.057045447122
 30
0.0
 11
1305.874879229757
 21
128.057045447122
 31
0.0
  0
LINE
  5
8B
330
22
100
AcDbEntity
  8
_F-2_
  6
Continuous
 62
     7
100
AcDbLine
 10
1200.874879229757
 20
168.057045447122
 30
0.0
 11
1200.874879229757
 21
128.057045447122
 31
0.0
  0
TEXT
  5
8C
330
22
100
AcDbEntity
  8
_F-A_
 62
     7
100
AcDbText
 10
1320.874879229757
 20
138.057045447122
 30
0.0
 40
15.0
  1
図番
100
AcDbText
  0
TEXT
  5
8D
330
22
100
AcDbEntity
  8
_F-A_
 62
     7
100
AcDbText
 10
1215.874879229757
 20
138.057045447122
 30
0.0
 40
15.0
  1
Ｓ＝１：５
100
AcDbText
  0
TEXT
  5
8E
330
22
100
AcDbEntity
  8
_F-A_
 62
     7
100
AcDbText
 10
1215.874879229757
 20
778.0570454471195
 30
0.0
 40
15.0
  1
Ｓ＝１：８
100
AcDbText
  0
TEXT
  5
8F
330
22
100
AcDbEntity
  8
_F-A_
 62
     7
100
AcDbText
 10
1367.292547953864
 20
778.0570454471195
 30
0.0
 40
15.0
  1
１－２１
100
AcDbText
  0
TEXT
  5
90
330
22
100
AcDbEntity
  8
_F-A_
 62
     7
100
AcDbText
 10
1367.292547953864
 20
138.0570454471197
 30
0.0
 40
15.0
  1
１－２２
100
AcDbText
  0
TEXT
  5
91
330
22
100
AcDbEntity
  8
_2-A_MOJI
 62
     7
100
AcDbText
 10
1188.58155446164
 20
378.7208706086861
 30
0.0
 40
15.0
  1
プルーフシーラー
100
AcDbText
  0
TEXT
  5
92
330
22
100
AcDbEntity
  8
_2-A_MOJI
 62
     7
100
AcDbText
 10
1188.58155446164
 20
353.7208706086861
 30
0.0
 40
15.0
  1
塩ビシート 接着工法
100
AcDbText
  0
LINE
  5
93
330
22
100
AcDbEntity
  8
_2-A_MOJI
  6
Continuous
 62
     7
100
AcDbLine
 10
1178.58155446164
 20
361.2208706086861
 30
0.0
 11
1154.122878577909
 21
361.2208706086861
 31
0.0
  0
TEXT
  5
94
330
22
100
AcDbEntity
  8
_2-A_MOJI
 62
     7
100
AcDbText
 10
1112.223688403641
 20
478.720870608686
 30
0.0
 40
15.0
  1
塩ビシート 接着工法
100
AcDbText
  0
LINE
  5
95
330
22
100
AcDbEntity
  8
_2-A_MOJI
  6
Continuous
 62
     7
100
AcDbLine
 10
1102.223688403641
 20
486.220870608686
 30
0.0
 11
1075.727305471976
 21
486.220870608686
 31
0.0
  0
LINE
  5
96
330
22
100
AcDbEntity
  8
_2-4_OUT_LINE
  6
Continuous
 62
     2
100
AcDbLine
 10
1047.253298999246
 20
323.057045447122
 30
0.0
 11
1410.874879229757
 21
323.057045447122
 31
0.0
  0
LINE
  5
97
330
22
100
AcDbEntity
  8
_2-D_ハッチ他
  6
Continuous
 62
     4
100
AcDbLine
 10
901.1595489992451
 20
571.6960098531628
 30
0.0
 11
903.503298999243
 21
574.0397598531606
 31
0.0
  0
LINE
  5
98
330
22
100
AcDbEntity
  8
_2-D_ハッチ他
  6
Continuous
 62
     4
100
AcDbLine
 10
901.1595489992441
 20
575.9386505402883
 30
0.0
 11
903.2779439060778
 21
578.0570454471195
 31
0.0
  0
LINE
  5
99
330
22
100
AcDbEntity
  8
_2-D_ハッチ他
  6
Continuous
 62
     4
100
AcDbLine
 10
891.0032989992453
 20
571.6960098531628
 30
0.0
 11
893.347048999243
 21
574.0397598531606
 31
0.0
  0
LINE
  5
9A
330
22
100
AcDbEntity
  8
_2-D_ハッチ他
  6
Continuous
 62
     4
100
AcDbLine
 10
891.0032989992441
 20
575.9386505402883
 30
0.0
 11
893.1216939060778
 21
578.0570454471195
 31
0.0
  0
ARC
  5
9B
330
22
100
AcDbEntity
  8
_2-4_OUT_LINE
  6
Continuous
 62
     2
100
AcDbCircle
 10
1055.253298999246
 20
331.0570454471238
 30
0.0
 40
3.0
100
AcDbArc
 50
180.0
 51
270.0
  0
LINE
  5
9C
330
22
100
AcDbEntity
  8
_2-4_OUT_LINE
  6
Continuous
 62
     2
100
AcDbLine
 10
1105.253298999246
 20
328.057045447122
 30
0.0
 11
1105.253298999246
 21
323.057045447122
 31
0.0
  0
LINE
  5
9D
330
22
100
AcDbEntity
  8
_2-4_OUT_LINE
  6
Continuous
 62
     2
100
AcDbLine
 10
1055.253298999246
 20
328.057045447122
 30
0.0
 11
1105.253298999246
 21
328.057045447122
 31
0.0
  0
LINE
  5
9E
330
22
100
AcDbEntity
  8
_2-B_DIM
  6
Continuous
 62
     7
100
AcDbLine
 10
1105.253298999246
 20
379.4164394476709
 30
0.0
 11
1105.253298999246
 21
339.3860697347534
 31
0.0
  0
POINT
  5
9F
330
22
100
AcDbEntity
  8
_2-B_DIM
 62
     1
100
AcDbPoint
 10
1105.253298999246
 20
379.4164394476709
 30
0.0
  0
LINE
  5
A0
330
22
100
AcDbEntity
  8
_2-B_DIM
  6
Continuous
 62
     7
100
AcDbLine
 10
1052.253298999246
 20
379.4164394476709
 30
0.0
 11
1105.253298999246
 21
379.4164394476709
 31
0.0
  0
POINT
  5
A1
330
22
100
AcDbEntity
  8
_2-B_DIM
 62
     1
100
AcDbPoint
 10
1052.253298999246
 20
379.4164394476709
 30
0.0
  0
LINE
  5
A2
330
22
100
AcDbEntity
  8
_2-4_OUT_LINE
  6
Continuous
 62
     2
100
AcDbLine
 10
1052.253298999246
 20
570.0570454471201
 30
0.0
 11
1052.253298999246
 21
331.0570454471238
 31
0.0
  0
ARC
  5
A3
330
22
100
AcDbEntity
  8
_2-4_OUT_LINE
  6
Continuous
 62
     2
100
AcDbCircle
 10
1049.253298999247
 20
570.0570454471201
 30
0.0
 40
3.0
100
AcDbArc
 50
0.0
 51
90.0
  0
LINE
  5
A4
330
22
100
AcDbEntity
  8
_2-D_ハッチ他
  6
Continuous
 62
     4
100
AcDbLine
 10
891.6069752803286
 20
568.0570454471195
 30
0.0
 11
893.3470489992441
 21
569.7971191660352
 31
0.0
  0
LINE
  5
A5
330
22
100
AcDbEntity
  8
_2-D_ハッチ他
  6
Continuous
 62
     4
100
AcDbLine
 10
901.7632252803286
 20
568.0570454471195
 30
0.0
 11
903.5032989992441
 21
569.7971191660352
 31
0.0
  0
LINE
  5
A6
330
22
100
AcDbEntity
  8
_2-4_OUT_LINE
  6
Continuous
 62
     2
100
AcDbLine
 10
1049.253298999247
 20
573.0570454471195
 30
0.0
 11
903.5032989992464
 21
573.0570454471195
 31
0.0
  0
ARC
  5
A7
330
22
100
AcDbEntity
  8
_2-4_OUT_LINE
  6
Continuous
 62
     2
100
AcDbCircle
 10
739.2532989992457
 20
331.0570454471238
 30
0.0
 40
3.0
100
AcDbArc
 50
270.0
 51
0.0
  0
LINE
  5
A8
330
22
100
AcDbEntity
  8
_2-4_OUT_LINE
  6
Continuous
 62
     2
100
AcDbLine
 10
689.2532989992457
 20
328.057045447122
 30
0.0
 11
689.2532989992457
 21
323.057045447122
 31
0.0
  0
LINE
  5
A9
330
22
100
AcDbEntity
  8
_2-4_OUT_LINE
  6
Continuous
 62
     2
100
AcDbLine
 10
739.2532989992457
 20
328.057045447122
 30
0.0
 11
689.2532989992457
 21
328.057045447122
 31
0.0
  0
LINE
  5
AA
330
22
100
AcDbEntity
  8
_2-4_OUT_LINE
  6
Continuous
 62
     2
100
AcDbLine
 10
742.2532989992475
 20
570.0570454471201
 30
0.0
 11
742.2532989992475
 21
331.0570454471238
 31
0.0
  0
ARC
  5
AB
330
22
100
AcDbEntity
  8
_2-4_OUT_LINE
  6
Continuous
 62
     2
100
AcDbCircle
 10
745.2532989992469
 20
570.0570454471201
 30
0.0
 40
3.0
100
AcDbArc
 50
90.0
 51
180.0
  0
LINE
  5
AC
330
22
100
AcDbEntity
  8
_2-4_OUT_LINE
  6
Continuous
 62
     2
100
AcDbLine
 10
891.0032989992464
 20
573.0570454471195
 30
0.0
 11
745.2532989992469
 21
573.0570454471195
 31
0.0
  0
LINE
  5
AD
330
22
100
AcDbEntity
  8
_2-4_OUT_LINE
  6
Continuous
 62
     2
100
AcDbLine
 10
747.2532989992475
 20
323.057045447122
 30
0.0
 11
660.8748792297581
 21
323.057045447122
 31
0.0
  0
LINE
  5
AE
330
22
100
AcDbEntity
  8
_2-A_MOJI
  6
Continuous
 62
     7
100
AcDbLine
 10
1132.088983847575
 20
323.057045447122
 30
0.0
 11
1154.122878577909
 21
361.2208706086861
 31
0.0
  0
LINE
  5
AF
330
22
100
AcDbEntity
  8
_2-A_MOJI
  6
Continuous
 62
     7
100
AcDbLine
 10
1178.58155446164
 20
386.2208706086861
 30
0.0
 11
1137.260878729988
 21
386.2208706086861
 31
0.0
  0
LINE
  5
B0
330
22
100
AcDbEntity
  8
_2-A_MOJI
  6
Continuous
 62
     7
100
AcDbLine
 10
1106.091639379207
 20
332.2341644198562
 30
0.0
 11
1137.260878729988
 21
386.2208706086861
 31
0.0
  0
LINE
  5
B1
330
22
100
AcDbEntity
  8
_2-A_MOJI
  6
Continuous
 62
     7
100
AcDbLine
 10
1052.253298999246
 20
445.5626987407188
 30
0.0
 11
1075.727305471976
 21
486.220870608686
 31
0.0
  0
LINE
  5
B2
330
22
100
AcDbEntity
  8
_2-A_MOJI
  6
Continuous
 62
     7
100
AcDbLine
 10
1011.383676583909
 20
611.2208706086837
 30
0.0
 11
982.298275457199
 21
611.2208706086837
 31
0.0
  0
TEXT
  5
B3
330
22
100
AcDbEntity
  8
_2-A_MOJI
 62
     7
100
AcDbText
 10
1021.383676583909
 20
628.7208706086837
 30
0.0
 40
15.0
  1
ロンシーラントＬ(充分に充填する)
100
AcDbText
  0
LINE
  5
B4
330
22
100
AcDbEntity
  8
_2-A_MOJI
  6
Continuous
 62
     7
100
AcDbLine
 10
963.1511320728112
 20
578.0570454471195
 30
0.0
 11
982.298275457199
 21
611.2208706086837
 31
0.0
  0
LINE
  5
B5
330
22
100
AcDbEntity
  8
_2-A_MOJI
  6
Continuous
 62
     7
100
AcDbLine
 10
1011.383676583909
 20
636.2208706086837
 30
0.0
 11
938.0115242142652
 21
636.2208706086837
 31
0.0
  0
LINE
  5
B6
330
22
100
AcDbEntity
  8
_2-A_MOJI
  6
Continuous
 62
     7
100
AcDbLine
 10
902.4484089043744
 20
574.623748016527
 30
0.0
 11
938.0115242142652
 21
636.2208706086837
 31
0.0
  0
LINE
  5
B7
330
22
100
AcDbEntity
  8
_2-E_CON他
  6
Continuous
 62
     4
100
AcDbLine
 10
696.1226220153401
 20
217.3790941189216
 30
0.0
 11
1046.80057334354
 21
568.0570454471195
 31
0.0
  0
LINE
  5
B8
330
22
100
AcDbEntity
  8
_2-E_CON他
  6
Continuous
 62
     4
100
AcDbLine
 10
1096.122622015337
 20
218.057045447122
 30
0.0
 11
1196.122622015337
 21
318.057045447122
 31
0.0
  0
LINE
  5
B9
330
22
100
AcDbEntity
  8
_2-E_CON他
  6
Continuous
 62
     4
100
AcDbLine
 10
1110.264757639068
 20
218.057045447122
 30
0.0
 11
1210.264757639069
 21
318.057045447122
 31
0.0
  0
LINE
  5
BA
330
22
100
AcDbEntity
  8
_2-E_CON他
  6
Continuous
 62
     4
100
AcDbLine
 10
1103.193689827203
 20
218.057045447122
 30
0.0
 11
1203.193689827203
 21
318.057045447122
 31
0.0
  0
LINE
  5
BB
330
22
100
AcDbEntity
  8
_2-E_CON他
  6
Continuous
 62
     4
100
AcDbLine
 10
1295.444670687136
 20
218.057045447122
 30
0.0
 11
1395.444670687136
 21
318.057045447122
 31
0.0
  0
LINE
  5
BC
330
22
100
AcDbEntity
  8
_2-E_CON他
  6
Continuous
 62
     4
100
AcDbLine
 10
1309.586806310866
 20
218.057045447122
 30
0.0
 11
1409.586806310868
 21
318.057045447122
 31
0.0
  0
LINE
  5
BD
330
22
100
AcDbEntity
  8
_2-E_CON他
  6
Continuous
 62
     4
100
AcDbLine
 10
1302.515738499002
 20
218.057045447122
 30
0.0
 11
1402.515738499002
 21
318.057045447122
 31
0.0
  0
LINE
  5
BE
330
22
100
AcDbEntity
  8
_2-E_CON他
  6
Continuous
 62
     4
100
AcDbLine
 10
747.2532989992475
 20
453.6896841508954
 30
0.0
 11
861.6206602954743
 21
568.0570454471195
 31
0.0
  0
LINE
  5
BF
330
22
100
AcDbEntity
  8
_2-E_CON他
  6
Continuous
 62
     4
100
AcDbLine
 10
747.2532989992475
 20
460.760751962762
 30
0.0
 11
854.5495924836052
 21
568.0570454471195
 31
0.0
  0
LINE
  5
C0
330
22
100
AcDbEntity
  8
_2-E_CON他
  6
Continuous
 62
     4
100
AcDbLine
 10
747.2532989992475
 20
467.8318197746264
 30
0.0
 11
847.478524671742
 21
568.0570454471195
 31
0.0
  0
LINE
  5
C1
330
22
100
AcDbEntity
  8
_2-E_CON他
  6
Continuous
 62
     4
100
AcDbLine
 10
703.8716411554048
 20
218.057045447122
 30
0.0
 11
1047.253298999246
 21
561.4387032909648
 31
0.0
  0
LINE
  5
C2
330
22
100
AcDbEntity
  8
_2-E_CON他
  6
Continuous
 62
     4
100
AcDbLine
 10
711.6206602954696
 20
218.7349967753224
 30
0.0
 11
1047.253298999246
 21
554.3676354790957
 31
0.0
  0
LINE
  5
C3
330
22
100
AcDbEntity
  8
_2-E_CON他
  6
Continuous
 62
     4
100
AcDbLine
 10
895.4446706871374
 20
217.3790941189216
 30
0.0
 11
1047.253298999246
 21
369.1877224310295
 31
0.0
  0
LINE
  5
C4
330
22
100
AcDbEntity
  8
_2-E_CON他
  6
Continuous
 62
     4
100
AcDbLine
 10
903.1936898272032
 20
218.057045447122
 30
0.0
 11
1047.253298999246
 21
362.1166546191651
 31
0.0
  0
LINE
  5
C5
330
22
100
AcDbEntity
  8
_2-E_CON他
  6
Continuous
 62
     4
100
AcDbLine
 10
910.942708967269
 20
218.7349967753224
 30
0.0
 11
1047.253298999246
 21
355.0455868072984
 31
0.0
  0
POINT
  5
C6
330
22
100
AcDbEntity
  8
_2-B_DIM
 62
     1
100
AcDbPoint
 10
935.1168505805299
 20
521.656947291722
 30
0.0
  0
LINE
  5
C7
330
22
100
AcDbEntity
  8
_2-B_DIM
  6
Continuous
 62
     7
100
AcDbLine
 10
935.1168505805299
 20
521.656947291722
 30
0.0
 11
935.1168505805299
 21
559.5425078559927
 31
0.0
  0
LINE
  5
C8
330
22
100
AcDbEntity
  8
_2-E_CON他
  6
Continuous
 62
     4
100
AcDbLine
 10
873.950423067073
 20
580.0570454471201
 30
0.0
 11
875.9504230670735
 21
578.0570454471195
 31
0.0
  0
LINE
  5
C9
330
22
100
AcDbEntity
  8
_2-E_CON他
  6
Continuous
 62
     4
100
AcDbLine
 10
877.4859569730063
 20
580.0570454471223
 30
0.0
 11
879.4859569730057
 21
578.0570454471219
 31
0.0
  0
LINE
  5
CA
330
22
100
AcDbEntity
  8
_2-E_CON他
  6
Continuous
 62
     4
100
AcDbLine
 10
881.0214908789385
 20
580.0570454471223
 30
0.0
 11
883.021490878939
 21
578.0570454471219
 31
0.0
  0
LINE
  5
CB
330
22
100
AcDbEntity
  8
_2-E_CON他
  6
Continuous
 62
     4
100
AcDbLine
 10
884.5570247848717
 20
580.0570454471223
 30
0.0
 11
886.5570247848724
 21
578.0570454471219
 31
0.0
  0
LINE
  5
CC
330
22
100
AcDbEntity
  8
_2-E_CON他
  6
Continuous
 62
     4
100
AcDbLine
 10
888.092558690805
 20
580.0570454471223
 30
0.0
 11
890.0925586908044
 21
578.0570454471219
 31
0.0
  0
LINE
  5
CD
330
22
100
AcDbEntity
  8
_2-E_CON他
  6
Continuous
 62
     4
100
AcDbLine
 10
902.2346943145421
 20
580.0570454471177
 30
0.0
 11
904.2346943145387
 21
578.0570454471219
 31
0.0
  0
LINE
  5
CE
330
22
100
AcDbEntity
  8
_2-E_CON他
  6
Continuous
 62
     4
100
AcDbLine
 10
905.7702282204754
 20
580.0570454471177
 30
0.0
 11
907.7702282204723
 21
578.0570454471219
 31
0.0
  0
LINE
  5
CF
330
22
100
AcDbEntity
  8
_2-E_CON他
  6
Continuous
 62
     4
100
AcDbLine
 10
909.3057621264073
 20
580.0570454471201
 30
0.0
 11
911.3057621264056
 21
578.0570454471219
 31
0.0
  0
LINE
  5
D0
330
22
100
AcDbEntity
  8
_2-E_CON他
  6
Continuous
 62
     4
100
AcDbLine
 10
912.8412960323302
 20
580.0570454471201
 30
0.0
 11
914.8412960323309
 21
578.0570454471195
 31
0.0
  0
LINE
  5
D1
330
22
100
AcDbEntity
  8
_2-E_CON他
  6
Continuous
 62
     4
100
AcDbLine
 10
916.3768299382738
 20
580.0570454471201
 30
0.0
 11
918.3768299382734
 21
578.0570454471195
 31
0.0
  0
LINE
  5
D2
330
22
100
AcDbEntity
  8
_2-E_CON他
  6
Continuous
 62
     4
100
AcDbLine
 10
919.9123638441971
 20
580.0570454471223
 30
0.0
 11
921.9123638441963
 21
578.0570454471219
 31
0.0
  0
LINE
  5
D3
330
22
100
AcDbEntity
  8
_2-E_CON他
  6
Continuous
 62
     4
100
AcDbLine
 10
923.4478977501295
 20
580.0570454471223
 30
0.0
 11
925.4478977501298
 21
578.0570454471219
 31
0.0
  0
LINE
  5
D4
330
22
100
AcDbEntity
  8
_2-E_CON他
  6
Continuous
 62
     4
100
AcDbLine
 10
926.9834316560627
 20
580.0570454471223
 30
0.0
 11
928.9834316560632
 21
578.0570454471219
 31
0.0
  0
LINE
  5
D5
330
22
100
AcDbEntity
  8
_2-E_CON他
  6
Continuous
 62
     4
100
AcDbLine
 10
930.5189655619962
 20
580.0570454471223
 30
0.0
 11
932.5189655619954
 21
578.0570454471219
 31
0.0
  0
LINE
  5
D6
330
22
100
AcDbEntity
  8
_2-E_CON他
  6
Continuous
 62
     4
100
AcDbLine
 10
934.0544994679282
 20
580.0570454471223
 30
0.0
 11
935.116850580532
 21
578.9946943345196
 31
0.0
  0
LINE
  5
D7
330
22
100
AcDbEntity
  8
_2-E_CON他
  6
Continuous
 62
     4
100
AcDbLine
 10
891.6280925967406
 20
580.0570454471201
 30
0.0
 11
893.3470489992464
 21
578.3380890446144
 31
0.0
  0
LINE
  5
D8
330
22
100
AcDbEntity
  8
_2-A_MOJI
  6
Continuous
 62
     7
100
AcDbLine
 10
810.5199466236705
 20
636.2208706086837
 30
0.0
 11
851.2134313099796
 21
636.2208706086837
 31
0.0
  0
LINE
  5
D9
330
22
100
AcDbEntity
  8
_2-A_MOJI
  6
Continuous
 62
     7
100
AcDbLine
 10
884.2797420236079
 20
578.9483404338217
 30
0.0
 11
851.2134313099796
 21
636.2208706086837
 31
0.0
  0
TEXT
  5
DA
330
22
100
AcDbEntity
  8
_2-A_MOJI
 62
     7
100
AcDbText
 10
665.5199466236706
 20
628.7208706086837
 30
0.0
 40
15.0
  1
ブチルゴム系シール
100
AcDbText
  0
TEXT
  5
DB
330
22
100
AcDbEntity
  8
_2-A_MOJI
 62
     7
100
AcDbText
 10
755.5199466236705
 20
608.7208706086837
 30
0.0
 40
15.0
  1
(別途)
100
AcDbText
  0
LINE
  5
DC
330
22
100
AcDbEntity
  8
_2-2_IN_LINE
  6
Continuous
 62
     7
100
AcDbLine
 10
747.2532989992475
 20
318.057045447122
 30
0.0
 11
660.8748792297581
 21
318.057045447122
 31
0.0
  0
LINE
  5
DD
330
22
100
AcDbEntity
  8
_2-2_IN_LINE
  6
Continuous
 62
     7
100
AcDbLine
 10
747.2532989992475
 20
568.0570454471195
 30
0.0
 11
747.2532989992475
 21
318.057045447122
 31
0.0
  0
LINE
  5
DE
330
22
100
AcDbEntity
  8
_2-2_IN_LINE
  6
Continuous
 62
     7
100
AcDbLine
 10
1047.253298999246
 20
568.0570454471195
 30
0.0
 11
1047.253298999246
 21
318.057045447122
 31
0.0
  0
LINE
  5
DF
330
22
100
AcDbEntity
  8
_2-2_IN_LINE
  6
Continuous
 62
     7
100
AcDbLine
 10
1047.253298999246
 20
318.057045447122
 30
0.0
 11
1410.874879229757
 21
318.057045447122
 31
0.0
  0
ARC
  5
E0
330
22
100
AcDbEntity
  8
_2-2_IN_LINE
  6
Continuous
 62
     7
100
AcDbCircle
 10
1055.253298999246
 20
331.0570454471238
 30
0.0
 40
8.0
100
AcDbArc
 50
180.0
 51
270.0
  0
LINE
  5
E1
330
22
100
AcDbEntity
  8
_2-2_IN_LINE
  6
Continuous
 62
     7
100
AcDbLine
 10
1099.256166932314
 20
328.057045447122
 30
0.0
 11
1099.274385719836
 21
328.1879503938037
 31
0.0
  0
LINE
  5
E2
330
22
100
AcDbEntity
  8
_2-2_IN_LINE
  6
Continuous
 62
     7
100
AcDbLine
 10
1099.274385719836
 20
328.1879503938037
 30
0.0
 11
1099.307452499497
 21
328.4130243288225
 31
0.0
  0
LINE
  5
E3
330
22
100
AcDbEntity
  8
_2-2_IN_LINE
  6
Continuous
 62
     7
100
AcDbLine
 10
1099.307452499497
 20
328.4130243288225
 30
0.0
 11
1099.345116715364
 21
328.6363642390805
 31
0.0
  0
LINE
  5
E4
330
22
100
AcDbEntity
  8
_2-2_IN_LINE
  6
Continuous
 62
     7
100
AcDbLine
 10
1099.345116715364
 20
328.6363642390805
 30
0.0
 11
1099.390288137188
 21
328.8568726405518
 31
0.0
  0
LINE
  5
E5
330
22
100
AcDbEntity
  8
_2-2_IN_LINE
  6
Continuous
 62
     7
100
AcDbLine
 10
1099.390288137188
 20
328.8568726405518
 30
0.0
 11
1099.445876534718
 21
329.0734520492109
 31
0.0
  0
LINE
  5
E6
330
22
100
AcDbEntity
  8
_2-2_IN_LINE
  6
Continuous
 62
     7
100
AcDbLine
 10
1099.445876534718
 20
329.0734520492109
 30
0.0
 11
1099.514791677707
 21
329.2850049810297
 31
0.0
  0
LINE
  5
E7
330
22
100
AcDbEntity
  8
_2-2_IN_LINE
  6
Continuous
 62
     7
100
AcDbLine
 10
1099.514791677707
 20
329.2850049810297
 30
0.0
 11
1099.562015376
 21
329.4049700840222
 31
0.0
  0
LINE
  5
E8
330
22
100
AcDbEntity
  8
_2-2_IN_LINE
  6
Continuous
 62
     7
100
AcDbLine
 10
1099.562015376
 20
329.4049700840222
 30
0.0
 11
1099.602956437263
 21
329.4970869236116
 31
0.0
  0
LINE
  5
E9
330
22
100
AcDbEntity
  8
_2-2_IN_LINE
  6
Continuous
 62
     7
100
AcDbLine
 10
1099.602956437263
 20
329.4970869236116
 30
0.0
 11
1099.681371609945
 21
329.6528012266256
 31
0.0
  0
LINE
  5
EA
330
22
100
AcDbEntity
  8
_2-2_IN_LINE
  6
Continuous
 62
     7
100
AcDbLine
 10
1099.681371609945
 20
329.6528012266256
 30
0.0
 11
1099.768478624271
 21
329.8048048295052
 31
0.0
  0
LINE
  5
EB
330
22
100
AcDbEntity
  8
_2-2_IN_LINE
  6
Continuous
 62
     7
100
AcDbLine
 10
1099.768478624271
 20
329.8048048295052
 30
0.0
 11
1099.862863613419
 21
329.9533573453053
 31
0.0
  0
LINE
  5
EC
330
22
100
AcDbEntity
  8
_2-2_IN_LINE
  6
Continuous
 62
     7
100
AcDbLine
 10
1099.862863613419
 20
329.9533573453053
 30
0.0
 11
1099.963112710563
 21
330.0987183870782
 31
0.0
  0
LINE
  5
ED
330
22
100
AcDbEntity
  8
_2-2_IN_LINE
  6
Continuous
 62
     7
100
AcDbLine
 10
1099.963112710563
 20
330.0987183870782
 30
0.0
 11
1100.06781204888
 21
330.2411475678744
 31
0.0
  0
LINE
  5
EE
330
22
100
AcDbEntity
  8
_2-2_IN_LINE
  6
Continuous
 62
     7
100
AcDbLine
 10
1100.06781204888
 20
330.2411475678744
 30
0.0
 11
1100.130019628559
 21
330.322515415078
 31
0.0
  0
LINE
  5
EF
330
22
100
AcDbEntity
  8
_2-2_IN_LINE
  6
Continuous
 62
     7
100
AcDbLine
 10
1100.130019628559
 20
330.322515415078
 30
0.0
 11
1100.204235902495
 21
330.417199007882
 31
0.0
  0
LINE
  5
F0
330
22
100
AcDbEntity
  8
_2-2_IN_LINE
  6
Continuous
 62
     7
100
AcDbLine
 10
1100.204235902495
 20
330.417199007882
 30
0.0
 11
1100.334460842599
 21
330.5779178017432
 31
0.0
  0
LINE
  5
F1
330
22
100
AcDbEntity
  8
_2-2_IN_LINE
  6
Continuous
 62
     7
100
AcDbLine
 10
1100.334460842599
 20
330.5779178017432
 30
0.0
 11
1100.467312661819
 21
330.7357845641334
 31
0.0
  0
LINE
  5
F2
330
22
100
AcDbEntity
  8
_2-2_IN_LINE
  6
Continuous
 62
     7
100
AcDbLine
 10
1100.467312661819
 20
330.7357845641334
 30
0.0
 11
1100.602510799948
 21
330.8912050575989
 31
0.0
  0
LINE
  5
F3
330
22
100
AcDbEntity
  8
_2-2_IN_LINE
  6
Continuous
 62
     7
100
AcDbLine
 10
1100.602510799948
 20
330.8912050575989
 30
0.0
 11
1100.739774696771
 21
331.0445850446879
 31
0.0
  0
LINE
  5
F4
330
22
100
AcDbEntity
  8
_2-2_IN_LINE
  6
Continuous
 62
     7
100
AcDbLine
 10
1100.739774696771
 20
331.0445850446879
 30
0.0
 11
1100.878823792079
 21
331.196330287942
 31
0.0
  0
LINE
  5
F5
330
22
100
AcDbEntity
  8
_2-2_IN_LINE
  6
Continuous
 62
     7
100
AcDbLine
 10
1100.878823792079
 20
331.196330287942
 30
0.0
 11
1100.960179689993
 21
331.2837533809491
 31
0.0
  0
LINE
  5
F6
330
22
100
AcDbEntity
  8
_2-2_IN_LINE
  6
Continuous
 62
     7
100
AcDbLine
 10
1100.960179689993
 20
331.2837533809491
 30
0.0
 11
1101.045814763406
 21
331.3748235553478
 31
0.0
  0
LINE
  5
F7
330
22
100
AcDbEntity
  8
_2-2_IN_LINE
  6
Continuous
 62
     7
100
AcDbLine
 10
1101.045814763406
 20
331.3748235553478
 30
0.0
 11
1101.195012121713
 21
331.5305253041814
 31
0.0
  0
LINE
  5
F8
330
22
100
AcDbEntity
  8
_2-2_IN_LINE
  6
Continuous
 62
     7
100
AcDbLine
 10
1101.195012121713
 20
331.5305253041814
 30
0.0
 11
1101.346762335285
 21
331.6838712825805
 31
0.0
  0
LINE
  5
F9
330
22
100
AcDbEntity
  8
_2-2_IN_LINE
  6
Continuous
 62
     7
100
AcDbLine
 10
1101.346762335285
 20
331.6838712825805
 30
0.0
 11
1101.501751414787
 21
331.8340589214998
 31
0.0
  0
LINE
  5
FA
330
22
100
AcDbEntity
  8
_2-2_IN_LINE
  6
Continuous
 62
     7
100
AcDbLine
 10
1101.501751414787
 20
331.8340589214998
 30
0.0
 11
1101.660665370894
 21
331.9802856518984
 31
0.0
  0
LINE
  5
FB
330
22
100
AcDbEntity
  8
_2-2_IN_LINE
  6
Continuous
 62
     7
100
AcDbLine
 10
1101.660665370894
 20
331.9802856518984
 30
0.0
 11
1101.824190214276
 21
332.1217489047265
 31
0.0
  0
LINE
  5
FC
330
22
100
AcDbEntity
  8
_2-2_IN_LINE
  6
Continuous
 62
     7
100
AcDbLine
 10
1101.824190214276
 20
332.1217489047265
 30
0.0
 11
1101.921417655862
 21
332.2012987120073
 31
0.0
  0
LINE
  5
FD
330
22
100
AcDbEntity
  8
_2-2_IN_LINE
  6
Continuous
 62
     7
100
AcDbLine
 10
1101.921417655862
 20
332.2012987120073
 30
0.0
 11
1102.009071355404
 21
332.2700240645034
 31
0.0
  0
LINE
  5
FE
330
22
100
AcDbEntity
  8
_2-2_IN_LINE
  6
Continuous
 62
     7
100
AcDbLine
 10
1102.009071355404
 20
332.2700240645034
 30
0.0
 11
1102.163684455324
 21
332.384236832302
 31
0.0
  0
LINE
  5
FF
330
22
100
AcDbEntity
  8
_2-2_IN_LINE
  6
Continuous
 62
     7
100
AcDbLine
 10
1102.163684455324
 20
332.384236832302
 30
0.0
 11
1102.322649598515
 21
332.4922095212335
 31
0.0
  0
LINE
  5
100
330
22
100
AcDbEntity
  8
_2-2_IN_LINE
  6
Continuous
 62
     7
100
AcDbLine
 10
1102.322649598515
 20
332.4922095212335
 30
0.0
 11
1102.485896255741
 21
332.5929847526597
 31
0.0
  0
LINE
  5
101
330
22
100
AcDbEntity
  8
_2-2_IN_LINE
  6
Continuous
 62
     7
100
AcDbLine
 10
1102.485896255741
 20
332.5929847526597
 30
0.0
 11
1102.653353897772
 21
332.685605147947
 31
0.0
  0
LINE
  5
102
330
22
100
AcDbEntity
  8
_2-2_IN_LINE
  6
Continuous
 62
     7
100
AcDbLine
 10
1102.653353897772
 20
332.685605147947
 30
0.0
 11
1102.824951995376
 21
332.7691133284568
 31
0.0
  0
LINE
  5
103
330
22
100
AcDbEntity
  8
_2-2_IN_LINE
  6
Continuous
 62
     7
100
AcDbLine
 10
1102.824951995376
 20
332.7691133284568
 30
0.0
 11
1102.926348256544
 21
332.8129955993793
 31
0.0
  0
LINE
  5
104
330
22
100
AcDbEntity
  8
_2-2_IN_LINE
  6
Continuous
 62
     7
100
AcDbLine
 10
1102.926348256544
 20
332.8129955993793
 30
0.0
 11
1103.040253749284
 21
332.8575243126422
 31
0.0
  0
LINE
  5
105
330
22
100
AcDbEntity
  8
_2-2_IN_LINE
  6
Continuous
 62
     7
100
AcDbLine
 10
1103.040253749284
 20
332.8575243126422
 30
0.0
 11
1103.240142207138
 21
332.9248349410548
 31
0.0
  0
LINE
  5
106
330
22
100
AcDbEntity
  8
_2-2_IN_LINE
  6
Continuous
 62
     7
100
AcDbLine
 10
1103.240142207138
 20
332.9248349410548
 30
0.0
 11
1103.443844305997
 21
332.9814384925547
 31
0.0
  0
LINE
  5
107
330
22
100
AcDbEntity
  8
_2-2_IN_LINE
  6
Continuous
 62
     7
100
AcDbLine
 10
1103.443844305997
 20
332.9814384925547
 30
0.0
 11
1103.650643382804
 21
333.0288133662842
 31
0.0
  0
LINE
  5
108
330
22
100
AcDbEntity
  8
_2-2_IN_LINE
  6
Continuous
 62
     7
100
AcDbLine
 10
1103.650643382804
 20
333.0288133662842
 30
0.0
 11
1103.859822774514
 21
333.0684379613948
 31
0.0
  0
LINE
  5
109
330
22
100
AcDbEntity
  8
_2-2_IN_LINE
  6
Continuous
 62
     7
100
AcDbLine
 10
1103.859822774514
 20
333.0684379613948
 30
0.0
 11
1104.07066581807
 21
333.1017906770288
 31
0.0
  0
LINE
  5
10A
330
22
100
AcDbEntity
  8
_2-2_IN_LINE
  6
Continuous
 62
     7
100
AcDbLine
 10
1104.07066581807
 20
333.1017906770288
 30
0.0
 11
1104.1934346661
 21
333.1188440430631
 31
0.0
  0
LINE
  5
10B
330
22
100
AcDbEntity
  8
_2-2_IN_LINE
  6
Continuous
 62
     7
100
AcDbLine
 10
1104.1934346661
 20
333.1188440430631
 30
0.0
 11
1104.341891636183
 21
333.1375610423314
 31
0.0
  0
LINE
  5
10C
330
22
100
AcDbEntity
  8
_2-2_IN_LINE
  6
Continuous
 62
     7
100
AcDbLine
 10
1104.341891636183
 20
333.1375610423314
 30
0.0
 11
1104.598211901468
 21
333.1644678034198
 31
0.0
  0
LINE
  5
10D
330
22
100
AcDbEntity
  8
_2-2_IN_LINE
  6
Continuous
 62
     7
100
AcDbLine
 10
1104.598211901468
 20
333.1644678034198
 30
0.0
 11
1104.854607230049
 21
333.1833260507191
 31
0.0
  0
LINE
  5
10E
330
22
100
AcDbEntity
  8
_2-2_IN_LINE
  6
Continuous
 62
     7
100
AcDbLine
 10
1104.854607230049
 20
333.1833260507191
 30
0.0
 11
1105.11063506668
 21
333.1926721419066
 31
0.0
  0
LINE
  5
10F
330
22
100
AcDbEntity
  8
_2-2_IN_LINE
  6
Continuous
 62
     7
100
AcDbLine
 10
1105.11063506668
 20
333.1926721419066
 30
0.0
 11
1105.365852856114
 21
333.19104243466
 31
0.0
  0
LINE
  5
110
330
22
100
AcDbEntity
  8
_2-2_IN_LINE
  6
Continuous
 62
     7
100
AcDbLine
 10
1105.365852856114
 20
333.19104243466
 30
0.0
 11
1105.619818043106
 21
333.1769732866568
 31
0.0
  0
LINE
  5
111
330
22
100
AcDbEntity
  8
_2-2_IN_LINE
  6
Continuous
 62
     7
100
AcDbLine
 10
1105.619818043106
 20
333.1769732866568
 30
0.0
 11
1105.766369519341
 21
333.162536677876
 31
0.0
  0
LINE
  5
112
330
22
100
AcDbEntity
  8
_2-2_IN_LINE
  6
Continuous
 62
     7
100
AcDbLine
 10
1105.766369519341
 20
333.162536677876
 30
0.0
 11
1105.873713710908
 21
333.1488468917908
 31
0.0
  0
LINE
  5
113
330
22
100
AcDbEntity
  8
_2-2_IN_LINE
  6
Continuous
 62
     7
100
AcDbLine
 10
1105.873713710908
 20
333.1488468917908
 30
0.0
 11
1106.058163771678
 21
333.1198872605504
 31
0.0
  0
LINE
  5
114
330
22
100
AcDbEntity
  8
_2-2_IN_LINE
  6
Continuous
 62
     7
100
AcDbLine
 10
1106.058163771678
 20
333.1198872605504
 30
0.0
 11
1106.242134629118
 21
333.0855717790112
 31
0.0
  0
LINE
  5
115
330
22
100
AcDbEntity
  8
_2-2_IN_LINE
  6
Continuous
 62
     7
100
AcDbLine
 10
1106.242134629118
 20
333.0855717790112
 30
0.0
 11
1106.425990664976
 21
333.0475569529838
 31
0.0
  0
LINE
  5
116
330
22
100
AcDbEntity
  8
_2-2_IN_LINE
  6
Continuous
 62
     7
100
AcDbLine
 10
1106.425990664976
 20
333.0475569529838
 30
0.0
 11
1106.610096260997
 21
333.0074992882785
 31
0.0
  0
LINE
  5
117
330
22
100
AcDbEntity
  8
_2-2_IN_LINE
  6
Continuous
 62
     7
100
AcDbLine
 10
1106.610096260997
 20
333.0074992882785
 30
0.0
 11
1106.794815798925
 21
332.9670552907012
 31
0.0
  0
LINE
  5
118
330
22
100
AcDbEntity
  8
_2-2_IN_LINE
  6
Continuous
 62
     7
100
AcDbLine
 10
1106.794815798925
 20
332.9670552907012
 30
0.0
 11
1106.90237802446
 21
332.9440735038159
 31
0.0
  0
LINE
  5
119
330
22
100
AcDbEntity
  8
_2-2_IN_LINE
  6
Continuous
 62
     7
100
AcDbLine
 10
1106.90237802446
 20
332.9440735038159
 30
0.0
 11
1107.024489255789
 21
332.9187997823172
 31
0.0
  0
LINE
  5
11A
330
22
100
AcDbEntity
  8
_2-2_IN_LINE
  6
Continuous
 62
     7
100
AcDbLine
 10
1107.024489255789
 20
332.9187997823172
 30
0.0
 11
1107.235287279352
 21
332.8754502660812
 31
0.0
  0
LINE
  5
11B
330
22
100
AcDbEntity
  8
_2-2_IN_LINE
  6
Continuous
 62
     7
100
AcDbLine
 10
1107.235287279352
 20
332.8754502660812
 30
0.0
 11
1107.44499250319
 21
332.8293171079329
 31
0.0
  0
LINE
  5
11C
330
22
100
AcDbEntity
  8
_2-2_IN_LINE
  6
Continuous
 62
     7
100
AcDbLine
 10
1107.44499250319
 20
332.8293171079329
 30
0.0
 11
1107.651949452457
 21
332.7768310662307
 31
0.0
  0
LINE
  5
11D
330
22
100
AcDbEntity
  8
_2-2_IN_LINE
  6
Continuous
 62
     7
100
AcDbLine
 10
1107.651949452457
 20
332.7768310662307
 30
0.0
 11
1107.854502652312
 21
332.7144228993305
 31
0.0
  0
LINE
  5
11E
330
22
100
AcDbEntity
  8
_2-2_IN_LINE
  6
Continuous
 62
     7
100
AcDbLine
 10
1107.854502652312
 20
332.7144228993305
 30
0.0
 11
1108.050996627912
 21
332.6385233655972
 31
0.0
  0
LINE
  5
11F
330
22
100
AcDbEntity
  8
_2-2_IN_LINE
  6
Continuous
 62
     7
100
AcDbLine
 10
1108.050996627912
 20
332.6385233655972
 30
0.0
 11
1108.161534454033
 21
332.5869134249412
 31
0.0
  0
LINE
  5
120
330
22
100
AcDbEntity
  8
_2-2_IN_LINE
  6
Continuous
 62
     7
100
AcDbLine
 10
1108.161534454033
 20
332.5869134249412
 30
0.0
 11
1108.260856685211
 21
332.5338279530164
 31
0.0
  0
LINE
  5
121
330
22
100
AcDbEntity
  8
_2-2_IN_LINE
  6
Continuous
 62
     7
100
AcDbLine
 10
1108.260856685211
 20
332.5338279530164
 30
0.0
 11
1108.426280600403
 21
332.4305416719179
 31
0.0
  0
LINE
  5
122
330
22
100
AcDbEntity
  8
_2-2_IN_LINE
  6
Continuous
 62
     7
100
AcDbLine
 10
1108.426280600403
 20
332.4305416719179
 30
0.0
 11
1108.584332171762
 21
332.3139920401857
 31
0.0
  0
LINE
  5
123
330
22
100
AcDbEntity
  8
_2-2_IN_LINE
  6
Continuous
 62
     7
100
AcDbLine
 10
1108.584332171762
 20
332.3139920401857
 30
0.0
 11
1108.735007218178
 21
332.1860653668708
 31
0.0
  0
LINE
  5
124
330
22
100
AcDbEntity
  8
_2-2_IN_LINE
  6
Continuous
 62
     7
100
AcDbLine
 10
1108.735007218178
 20
332.1860653668708
 30
0.0
 11
1108.878301558544
 21
332.0486479610238
 31
0.0
  0
LINE
  5
125
330
22
100
AcDbEntity
  8
_2-2_IN_LINE
  6
Continuous
 62
     7
100
AcDbLine
 10
1108.878301558544
 20
332.0486479610238
 30
0.0
 11
1109.014211011749
 21
331.9036261316958
 31
0.0
  0
LINE
  5
126
330
22
100
AcDbEntity
  8
_2-2_IN_LINE
  6
Continuous
 62
     7
100
AcDbLine
 10
1109.014211011749
 20
331.9036261316958
 30
0.0
 11
1109.089653091735
 21
331.8167724276966
 31
0.0
  0
LINE
  5
127
330
22
100
AcDbEntity
  8
_2-2_IN_LINE
  6
Continuous
 62
     7
100
AcDbLine
 10
1109.089653091735
 20
331.8167724276966
 30
0.0
 11
1109.173948116106
 21
331.7142050397072
 31
0.0
  0
LINE
  5
128
330
22
100
AcDbEntity
  8
_2-2_IN_LINE
  6
Continuous
 62
     7
100
AcDbLine
 10
1109.173948116106
 20
331.7142050397072
 30
0.0
 11
1109.312119975375
 21
331.5329200299701
 31
0.0
  0
LINE
  5
129
330
22
100
AcDbEntity
  8
_2-2_IN_LINE
  6
Continuous
 62
     7
100
AcDbLine
 10
1109.312119975375
 20
331.5329200299701
 30
0.0
 11
1109.442230242393
 21
331.3466953553509
 31
0.0
  0
LINE
  5
12A
330
22
100
AcDbEntity
  8
_2-2_IN_LINE
  6
Continuous
 62
     7
100
AcDbLine
 10
1109.442230242393
 20
331.3466953553509
 30
0.0
 11
1109.56545014438
 21
331.1563292942608
 31
0.0
  0
LINE
  5
12B
330
22
100
AcDbEntity
  8
_2-2_IN_LINE
  6
Continuous
 62
     7
100
AcDbLine
 10
1109.56545014438
 20
331.1563292942608
 30
0.0
 11
1109.68295090855
 21
330.9626201251175
 31
0.0
  0
LINE
  5
12C
330
22
100
AcDbEntity
  8
_2-2_IN_LINE
  6
Continuous
 62
     7
100
AcDbLine
 10
1109.68295090855
 20
330.9626201251175
 30
0.0
 11
1109.795903762118
 21
330.7663661263339
 31
0.0
  0
LINE
  5
12D
330
22
100
AcDbEntity
  8
_2-2_IN_LINE
  6
Continuous
 62
     7
100
AcDbLine
 10
1109.795903762118
 20
330.7663661263339
 30
0.0
 11
1109.859794088978
 21
330.6516873293052
 31
0.0
  0
LINE
  5
12E
330
22
100
AcDbEntity
  8
_2-2_IN_LINE
  6
Continuous
 62
     7
100
AcDbLine
 10
1109.859794088978
 20
330.6516873293052
 30
0.0
 11
1109.927061456484
 21
330.5286207371685
 31
0.0
  0
LINE
  5
12F
330
22
100
AcDbEntity
  8
_2-2_IN_LINE
  6
Continuous
 62
     7
100
AcDbLine
 10
1109.927061456484
 20
330.5286207371685
 30
0.0
 11
1110.041042697692
 21
330.3154139808
 31
0.0
  0
LINE
  5
130
330
22
100
AcDbEntity
  8
_2-2_IN_LINE
  6
Continuous
 62
     7
100
AcDbLine
 10
1110.041042697692
 20
330.3154139808
 30
0.0
 11
1110.153157246057
 21
330.1011169812639
 31
0.0
  0
LINE
  5
131
330
22
100
AcDbEntity
  8
_2-2_IN_LINE
  6
Continuous
 62
     7
100
AcDbLine
 10
1110.153157246057
 20
330.1011169812639
 30
0.0
 11
1110.264173855304
 21
329.8859677201906
 31
0.0
  0
LINE
  5
132
330
22
100
AcDbEntity
  8
_2-2_IN_LINE
  6
Continuous
 62
     7
100
AcDbLine
 10
1110.264173855304
 20
329.8859677201906
 30
0.0
 11
1110.374861279161
 21
329.6702041792085
 31
0.0
  0
LINE
  5
133
330
22
100
AcDbEntity
  8
_2-2_IN_LINE
  6
Continuous
 62
     7
100
AcDbLine
 10
1110.374861279161
 20
329.6702041792085
 30
0.0
 11
1110.485988271359
 21
329.4540643399525
 31
0.0
  0
LINE
  5
134
330
22
100
AcDbEntity
  8
_2-2_IN_LINE
  6
Continuous
 62
     7
100
AcDbLine
 10
1110.485988271359
 20
329.4540643399525
 30
0.0
 11
1110.55094626599
 21
329.3286245904531
 31
0.0
  0
LINE
  5
135
330
22
100
AcDbEntity
  8
_2-2_IN_LINE
  6
Continuous
 62
     7
100
AcDbLine
 10
1110.55094626599
 20
329.3286245904531
 30
0.0
 11
1110.639359720166
 21
329.1597964074461
 31
0.0
  0
LINE
  5
136
330
22
100
AcDbEntity
  8
_2-2_IN_LINE
  6
Continuous
 62
     7
100
AcDbLine
 10
1110.639359720166
 20
329.1597964074461
 30
0.0
 11
1110.795864536096
 21
328.8704006415585
 31
0.0
  0
LINE
  5
137
330
22
100
AcDbEntity
  8
_2-2_IN_LINE
  6
Continuous
 62
     7
100
AcDbLine
 10
1110.795864536096
 20
328.8704006415585
 30
0.0
 11
1110.960086129323
 21
328.5856924653084
 31
0.0
  0
LINE
  5
138
330
22
100
AcDbEntity
  8
_2-2_IN_LINE
  6
Continuous
 62
     7
100
AcDbLine
 10
1110.960086129323
 20
328.5856924653084
 30
0.0
 11
1111.135010116709
 21
328.3086390372889
 31
0.0
  0
LINE
  5
139
330
22
100
AcDbEntity
  8
_2-2_IN_LINE
  6
Continuous
 62
     7
100
AcDbLine
 10
1111.135010116709
 20
328.3086390372889
 30
0.0
 11
1111.323622115109
 21
328.0422075161031
 31
0.0
  0
LINE
  5
13A
330
22
100
AcDbEntity
  8
_2-2_IN_LINE
  6
Continuous
 62
     7
100
AcDbLine
 10
1111.323622115109
 20
328.0422075161031
 30
0.0
 11
1111.528907741384
 21
327.7893650603463
 31
0.0
  0
LINE
  5
13B
330
22
100
AcDbEntity
  8
_2-2_IN_LINE
  6
Continuous
 62
     7
100
AcDbLine
 10
1111.528907741384
 20
327.7893650603463
 30
0.0
 11
1111.65678974921
 21
327.6501121605659
 31
0.0
  0
LINE
  5
13C
330
22
100
AcDbEntity
  8
_2-2_IN_LINE
  6
Continuous
 62
     7
100
AcDbLine
 10
1111.65678974921
 20
327.6501121605659
 30
0.0
 11
1111.703004921515
 21
327.6030071546555
 31
0.0
  0
LINE
  5
13D
330
22
100
AcDbEntity
  8
_2-2_IN_LINE
  6
Continuous
 62
     7
100
AcDbLine
 10
1111.703004921515
 20
327.6030071546555
 30
0.0
 11
1111.784704183055
 21
327.5236620596186
 31
0.0
  0
LINE
  5
13E
330
22
100
AcDbEntity
  8
_2-2_IN_LINE
  6
Continuous
 62
     7
100
AcDbLine
 10
1111.784704183055
 20
327.5236620596186
 30
0.0
 11
1111.868906575386
 21
327.4468619501775
 31
0.0
  0
LINE
  5
13F
330
22
100
AcDbEntity
  8
_2-2_IN_LINE
  6
Continuous
 62
     7
100
AcDbLine
 10
1111.868906575386
 20
327.4468619501775
 30
0.0
 11
1111.955552550881
 21
327.3728130468524
 31
0.0
  0
LINE
  5
140
330
22
100
AcDbEntity
  8
_2-2_IN_LINE
  6
Continuous
 62
     7
100
AcDbLine
 10
1111.955552550881
 20
327.3728130468524
 30
0.0
 11
1112.044582561917
 21
327.3017215701614
 31
0.0
  0
LINE
  5
141
330
22
100
AcDbEntity
  8
_2-2_IN_LINE
  6
Continuous
 62
     7
100
AcDbLine
 10
1112.044582561917
 20
327.3017215701614
 30
0.0
 11
1112.135937060868
 21
327.2337937406316
 31
0.0
  0
LINE
  5
142
330
22
100
AcDbEntity
  8
_2-2_IN_LINE
  6
Continuous
 62
     7
100
AcDbLine
 10
1112.135937060868
 20
327.2337937406316
 30
0.0
 11
1112.189964285763
 21
327.1959264442424
 31
0.0
  0
LINE
  5
143
330
22
100
AcDbEntity
  8
_2-2_IN_LINE
  6
Continuous
 62
     7
100
AcDbLine
 10
1112.189964285763
 20
327.1959264442424
 30
0.0
 11
1112.279565696852
 21
327.1366337538647
 31
0.0
  0
LINE
  5
144
330
22
100
AcDbEntity
  8
_2-2_IN_LINE
  6
Continuous
 62
     7
100
AcDbLine
 10
1112.279565696852
 20
327.1366337538647
 30
0.0
 11
1112.437757141021
 21
327.0402204896689
 31
0.0
  0
LINE
  5
145
330
22
100
AcDbEntity
  8
_2-2_IN_LINE
  6
Continuous
 62
     7
100
AcDbLine
 10
1112.437757141021
 20
327.0402204896689
 30
0.0
 11
1112.599168428054
 21
326.9488920805978
 31
0.0
  0
LINE
  5
146
330
22
100
AcDbEntity
  8
_2-2_IN_LINE
  6
Continuous
 62
     7
100
AcDbLine
 10
1112.599168428054
 20
326.9488920805978
 30
0.0
 11
1112.762088376347
 21
326.8600013721473
 31
0.0
  0
LINE
  5
147
330
22
100
AcDbEntity
  8
_2-2_IN_LINE
  6
Continuous
 62
     7
100
AcDbLine
 10
1112.762088376347
 20
326.8600013721473
 30
0.0
 11
1112.9248058043
 21
326.7709012098115
 31
0.0
  0
LINE
  5
148
330
22
100
AcDbEntity
  8
_2-2_IN_LINE
  6
Continuous
 62
     7
100
AcDbLine
 10
1112.9248058043
 20
326.7709012098115
 30
0.0
 11
1113.085609530312
 21
326.6789444390864
 31
0.0
  0
LINE
  5
149
330
22
100
AcDbEntity
  8
_2-2_IN_LINE
  6
Continuous
 62
     7
100
AcDbLine
 10
1113.085609530312
 20
326.6789444390864
 30
0.0
 11
1113.177324538638
 21
326.6232574975746
 31
0.0
  0
LINE
  5
14A
330
22
100
AcDbEntity
  8
_2-2_IN_LINE
  6
Continuous
 62
     7
100
AcDbLine
 10
1113.177324538638
 20
326.6232574975746
 30
0.0
 11
1113.269735531037
 21
326.5638927277021
 31
0.0
  0
LINE
  5
14B
330
22
100
AcDbEntity
  8
_2-2_IN_LINE
  6
Continuous
 62
     7
100
AcDbLine
 10
1113.269735531037
 20
326.5638927277021
 30
0.0
 11
1113.425678533191
 21
326.4563909659344
 31
0.0
  0
LINE
  5
14C
330
22
100
AcDbEntity
  8
_2-2_IN_LINE
  6
Continuous
 62
     7
100
AcDbLine
 10
1113.425678533191
 20
326.4563909659344
 30
0.0
 11
1113.578001075413
 21
326.3434077759669
 31
0.0
  0
LINE
  5
14D
330
22
100
AcDbEntity
  8
_2-2_IN_LINE
  6
Continuous
 62
     7
100
AcDbLine
 10
1113.578001075413
 20
326.3434077759669
 30
0.0
 11
1113.727477564148
 21
326.2261477235713
 31
0.0
  0
LINE
  5
14E
330
22
100
AcDbEntity
  8
_2-2_IN_LINE
  6
Continuous
 62
     7
100
AcDbLine
 10
1113.727477564148
 20
326.2261477235713
 30
0.0
 11
1113.874882405841
 21
326.105815374522
 31
0.0
  0
LINE
  5
14F
330
22
100
AcDbEntity
  8
_2-2_IN_LINE
  6
Continuous
 62
     7
100
AcDbLine
 10
1113.874882405841
 20
326.105815374522
 30
0.0
 11
1114.020990006937
 21
325.983615294597
 31
0.0
  0
LINE
  5
150
330
22
100
AcDbEntity
  8
_2-2_IN_LINE
  6
Continuous
 62
     7
100
AcDbLine
 10
1114.020990006937
 20
325.983615294597
 30
0.0
 11
1114.10544317634
 21
325.9123581155044
 31
0.0
  0
LINE
  5
151
330
22
100
AcDbEntity
  8
_2-2_IN_LINE
  6
Continuous
 62
     7
100
AcDbLine
 10
1114.10544317634
 20
325.9123581155044
 30
0.0
 11
1114.211285039959
 21
325.822877531605
 31
0.0
  0
LINE
  5
152
330
22
100
AcDbEntity
  8
_2-2_IN_LINE
  6
Continuous
 62
     7
100
AcDbLine
 10
1114.211285039959
 20
325.822877531605
 30
0.0
 11
1114.392857818269
 21
325.6677944778088
 31
0.0
  0
LINE
  5
153
330
22
100
AcDbEntity
  8
_2-2_IN_LINE
  6
Continuous
 62
     7
100
AcDbLine
 10
1114.392857818269
 20
325.6677944778088
 30
0.0
 11
1114.572032470894
 21
325.5104053095672
 31
0.0
  0
LINE
  5
154
330
22
100
AcDbEntity
  8
_2-2_IN_LINE
  6
Continuous
 62
     7
100
AcDbLine
 10
1114.572032470894
 20
325.5104053095672
 30
0.0
 11
1114.747364597118
 21
325.3492151116418
 31
0.0
  0
LINE
  5
155
330
22
100
AcDbEntity
  8
_2-2_IN_LINE
  6
Continuous
 62
     7
100
AcDbLine
 10
1114.747364597118
 20
325.3492151116418
 30
0.0
 11
1114.917409796228
 21
325.1827289687916
 31
0.0
  0
LINE
  5
156
330
22
100
AcDbEntity
  8
_2-2_IN_LINE
  6
Continuous
 62
     7
100
AcDbLine
 10
1114.917409796228
 20
325.1827289687916
 30
0.0
 11
1115.080723667506
 21
325.0094519657821
 31
0.0
  0
LINE
  5
157
330
22
100
AcDbEntity
  8
_2-2_IN_LINE
  6
Continuous
 62
     7
100
AcDbLine
 10
1115.080723667506
 20
325.0094519657821
 30
0.0
 11
1115.171792249446
 21
324.9052506575711
 31
0.0
  0
LINE
  5
158
330
22
100
AcDbEntity
  8
_2-2_IN_LINE
  6
Continuous
 62
     7
100
AcDbLine
 10
1115.171792249446
 20
324.9052506575711
 30
0.0
 11
1115.223451522082
 21
324.84316338205
 31
0.0
  0
LINE
  5
159
330
22
100
AcDbEntity
  8
_2-2_IN_LINE
  6
Continuous
 62
     7
100
AcDbLine
 10
1115.223451522082
 20
324.84316338205
 30
0.0
 11
1115.309776632388
 21
324.7336906422109
 31
0.0
  0
LINE
  5
15A
330
22
100
AcDbEntity
  8
_2-2_IN_LINE
  6
Continuous
 62
     7
100
AcDbLine
 10
1115.309776632388
 20
324.7336906422109
 30
0.0
 11
1115.392136504521
 21
324.6211893844523
 31
0.0
  0
LINE
  5
15B
330
22
100
AcDbEntity
  8
_2-2_IN_LINE
  6
Continuous
 62
     7
100
AcDbLine
 10
1115.392136504521
 20
324.6211893844523
 30
0.0
 11
1115.469957195265
 21
324.5057084517409
 31
0.0
  0
LINE
  5
15C
330
22
100
AcDbEntity
  8
_2-2_IN_LINE
  6
Continuous
 62
     7
100
AcDbLine
 10
1115.469957195265
 20
324.5057084517409
 30
0.0
 11
1115.54266476141
 21
324.3872966870484
 31
0.0
  0
LINE
  5
15D
330
22
100
AcDbEntity
  8
_2-2_IN_LINE
  6
Continuous
 62
     7
100
AcDbLine
 10
1115.54266476141
 20
324.3872966870484
 30
0.0
 11
1115.609685259738
 21
324.2660029333436
 31
0.0
  0
LINE
  5
15E
330
22
100
AcDbEntity
  8
_2-2_IN_LINE
  6
Continuous
 62
     7
100
AcDbLine
 10
1115.609685259738
 20
324.2660029333436
 30
0.0
 11
1115.645725170826
 21
324.1943512755032
 31
0.0
  0
LINE
  5
15F
330
22
100
AcDbEntity
  8
_2-2_IN_LINE
  6
Continuous
 62
     7
100
AcDbLine
 10
1115.645725170826
 20
324.1943512755032
 30
0.0
 11
1115.692377024184
 21
324.0928753844517
 31
0.0
  0
LINE
  5
160
330
22
100
AcDbEntity
  8
_2-2_IN_LINE
  6
Continuous
 62
     7
100
AcDbLine
 10
1115.692377024184
 20
324.0928753844517
 30
0.0
 11
1115.763863782534
 21
323.9141110054018
 31
0.0
  0
LINE
  5
161
330
22
100
AcDbEntity
  8
_2-2_IN_LINE
  6
Continuous
 62
     7
100
AcDbLine
 10
1115.763863782534
 20
323.9141110054018
 30
0.0
 11
1115.825815121157
 21
323.7312905872525
 31
0.0
  0
LINE
  5
162
330
22
100
AcDbEntity
  8
_2-2_IN_LINE
  6
Continuous
 62
     7
100
AcDbLine
 10
1115.825815121157
 20
323.7312905872525
 30
0.0
 11
1115.880313009427
 21
323.5452997280621
 31
0.0
  0
LINE
  5
163
330
22
100
AcDbEntity
  8
_2-2_IN_LINE
  6
Continuous
 62
     7
100
AcDbLine
 10
1115.880313009427
 20
323.5452997280621
 30
0.0
 11
1115.929439416714
 21
323.3570240258885
 31
0.0
  0
LINE
  5
164
330
22
100
AcDbEntity
  8
_2-2_IN_LINE
  6
Continuous
 62
     7
100
AcDbLine
 10
1115.929439416714
 20
323.3570240258885
 30
0.0
 11
1115.975276312391
 21
323.1673490787833
 31
0.0
  0
LINE
  5
165
330
22
100
AcDbEntity
  8
_2-2_IN_LINE
  6
Continuous
 62
     7
100
AcDbLine
 10
1115.975276312391
 20
323.1673490787833
 30
0.0
 11
1116.001174861861
 21
323.057045447122
 31
0.0
  0
LINE
  5
166
330
22
100
AcDbEntity
  8
_2-2_IN_LINE
  6
Continuous
 62
     7
100
AcDbLine
 10
1047.253298999246
 20
323.057045447122
 30
0.0
 11
1105.253298999246
 21
323.057045447122
 31
0.0
  0
LINE
  5
167
330
22
100
AcDbEntity
  8
_2-2_IN_LINE
  6
Continuous
 62
     7
100
AcDbLine
 10
901.1595489992464
 20
568.0570454471195
 30
0.0
 11
901.1595489992464
 21
603.8382954471195
 31
0.0
  0
LINE
  5
168
330
22
100
AcDbEntity
  8
_2-2_IN_LINE
  6
Continuous
 62
     7
100
AcDbLine
 10
903.5032989992464
 20
568.0570454471195
 30
0.0
 11
903.5032989992464
 21
578.0570454471195
 31
0.0
  0
LINE
  5
169
330
22
100
AcDbEntity
  8
_2-2_IN_LINE
  6
Continuous
 62
     7
100
AcDbLine
 10
893.3470489992464
 20
568.0570454471195
 30
0.0
 11
893.3470489992464
 21
603.8382954471195
 31
0.0
  0
LINE
  5
16A
330
22
100
AcDbEntity
  8
_2-2_IN_LINE
  6
Continuous
 62
     7
100
AcDbLine
 10
891.0032989992464
 20
568.0570454471195
 30
0.0
 11
891.0032989992464
 21
578.0570454471195
 31
0.0
  0
LINE
  5
16B
330
22
100
AcDbEntity
  8
_2-2_IN_LINE
  6
Continuous
 62
     7
100
AcDbLine
 10
747.2532989992475
 20
568.0570454471195
 30
0.0
 11
747.2532989992475
 21
318.057045447122
 31
0.0
  0
ARC
  5
16C
330
22
100
AcDbEntity
  8
_2-2_IN_LINE
  6
Continuous
 62
     7
100
AcDbCircle
 10
739.2532989992457
 20
331.0570454471238
 30
0.0
 40
8.0
100
AcDbArc
 50
270.0
 51
0.0
  0
LINE
  5
16D
330
22
100
AcDbEntity
  8
_2-2_IN_LINE
  6
Continuous
 62
     7
100
AcDbLine
 10
695.2504310661777
 20
328.057045447122
 30
0.0
 11
695.2322122786552
 21
328.1879503938037
 31
0.0
  0
LINE
  5
16E
330
22
100
AcDbEntity
  8
_2-2_IN_LINE
  6
Continuous
 62
     7
100
AcDbLine
 10
695.2322122786552
 20
328.1879503938037
 30
0.0
 11
695.1991454989943
 21
328.4130243288225
 31
0.0
  0
LINE
  5
16F
330
22
100
AcDbEntity
  8
_2-2_IN_LINE
  6
Continuous
 62
     7
100
AcDbLine
 10
695.1991454989943
 20
328.4130243288225
 30
0.0
 11
695.1614812831293
 21
328.6363642390805
 31
0.0
  0
LINE
  5
170
330
22
100
AcDbEntity
  8
_2-2_IN_LINE
  6
Continuous
 62
     7
100
AcDbLine
 10
695.1614812831293
 20
328.6363642390805
 30
0.0
 11
695.1163098613039
 21
328.8568726405518
 31
0.0
  0
LINE
  5
171
330
22
100
AcDbEntity
  8
_2-2_IN_LINE
  6
Continuous
 62
     7
100
AcDbLine
 10
695.1163098613039
 20
328.8568726405518
 30
0.0
 11
695.0607214637751
 21
329.0734520492109
 31
0.0
  0
LINE
  5
172
330
22
100
AcDbEntity
  8
_2-2_IN_LINE
  6
Continuous
 62
     7
100
AcDbLine
 10
695.0607214637751
 20
329.0734520492109
 30
0.0
 11
694.9918063207848
 21
329.2850049810297
 31
0.0
  0
LINE
  5
173
330
22
100
AcDbEntity
  8
_2-2_IN_LINE
  6
Continuous
 62
     7
100
AcDbLine
 10
694.9918063207848
 20
329.2850049810297
 30
0.0
 11
694.9445826224915
 21
329.4049700840222
 31
0.0
  0
LINE
  5
174
330
22
100
AcDbEntity
  8
_2-2_IN_LINE
  6
Continuous
 62
     7
100
AcDbLine
 10
694.9445826224915
 20
329.4049700840222
 30
0.0
 11
694.9036415612304
 21
329.4970869236116
 31
0.0
  0
LINE
  5
175
330
22
100
AcDbEntity
  8
_2-2_IN_LINE
  6
Continuous
 62
     7
100
AcDbLine
 10
694.9036415612304
 20
329.4970869236116
 30
0.0
 11
694.8252263885467
 21
329.6528012266256
 31
0.0
  0
LINE
  5
176
330
22
100
AcDbEntity
  8
_2-2_IN_LINE
  6
Continuous
 62
     7
100
AcDbLine
 10
694.8252263885467
 20
329.6528012266256
 30
0.0
 11
694.7381193742227
 21
329.8048048295052
 31
0.0
  0
LINE
  5
177
330
22
100
AcDbEntity
  8
_2-2_IN_LINE
  6
Continuous
 62
     7
100
AcDbLine
 10
694.7381193742227
 20
329.8048048295052
 30
0.0
 11
694.6437343850732
 21
329.9533573453053
 31
0.0
  0
LINE
  5
178
330
22
100
AcDbEntity
  8
_2-2_IN_LINE
  6
Continuous
 62
     7
100
AcDbLine
 10
694.6437343850732
 20
329.9533573453053
 30
0.0
 11
694.5434852879304
 21
330.0987183870782
 31
0.0
  0
LINE
  5
179
330
22
100
AcDbEntity
  8
_2-2_IN_LINE
  6
Continuous
 62
     7
100
AcDbLine
 10
694.5434852879304
 20
330.0987183870782
 30
0.0
 11
694.4387859496134
 21
330.2411475678744
 31
0.0
  0
LINE
  5
17A
330
22
100
AcDbEntity
  8
_2-2_IN_LINE
  6
Continuous
 62
     7
100
AcDbLine
 10
694.4387859496134
 20
330.2411475678744
 30
0.0
 11
694.3765783699325
 21
330.322515415078
 31
0.0
  0
LINE
  5
17B
330
22
100
AcDbEntity
  8
_2-2_IN_LINE
  6
Continuous
 62
     7
100
AcDbLine
 10
694.3765783699325
 20
330.322515415078
 30
0.0
 11
694.3023620959991
 21
330.417199007882
 31
0.0
  0
LINE
  5
17C
330
22
100
AcDbEntity
  8
_2-2_IN_LINE
  6
Continuous
 62
     7
100
AcDbLine
 10
694.3023620959991
 20
330.417199007882
 30
0.0
 11
694.1721371558935
 21
330.5779178017432
 31
0.0
  0
LINE
  5
17D
330
22
100
AcDbEntity
  8
_2-2_IN_LINE
  6
Continuous
 62
     7
100
AcDbLine
 10
694.1721371558935
 20
330.5779178017432
 30
0.0
 11
694.0392853366745
 21
330.7357845641334
 31
0.0
  0
LINE
  5
17E
330
22
100
AcDbEntity
  8
_2-2_IN_LINE
  6
Continuous
 62
     7
100
AcDbLine
 10
694.0392853366745
 20
330.7357845641334
 30
0.0
 11
693.9040871985446
 21
330.8912050575989
 31
0.0
  0
LINE
  5
17F
330
22
100
AcDbEntity
  8
_2-2_IN_LINE
  6
Continuous
 62
     7
100
AcDbLine
 10
693.9040871985446
 20
330.8912050575989
 30
0.0
 11
693.76682330172
 21
331.0445850446879
 31
0.0
  0
LINE
  5
180
330
22
100
AcDbEntity
  8
_2-2_IN_LINE
  6
Continuous
 62
     7
100
AcDbLine
 10
693.76682330172
 20
331.0445850446879
 30
0.0
 11
693.6277742064145
 21
331.196330287942
 31
0.0
  0
LINE
  5
181
330
22
100
AcDbEntity
  8
_2-2_IN_LINE
  6
Continuous
 62
     7
100
AcDbLine
 10
693.6277742064145
 20
331.196330287942
 30
0.0
 11
693.5464183085001
 21
331.2837533809491
 31
0.0
  0
LINE
  5
182
330
22
100
AcDbEntity
  8
_2-2_IN_LINE
  6
Continuous
 62
     7
100
AcDbLine
 10
693.5464183085001
 20
331.2837533809491
 30
0.0
 11
693.4607832350855
 21
331.3748235553478
 31
0.0
  0
LINE
  5
183
330
22
100
AcDbEntity
  8
_2-2_IN_LINE
  6
Continuous
 62
     7
100
AcDbLine
 10
693.4607832350855
 20
331.3748235553478
 30
0.0
 11
693.3115858767804
 21
331.5305253041814
 31
0.0
  0
LINE
  5
184
330
22
100
AcDbEntity
  8
_2-2_IN_LINE
  6
Continuous
 62
     7
100
AcDbLine
 10
693.3115858767804
 20
331.5305253041814
 30
0.0
 11
693.1598356632081
 21
331.6838712825805
 31
0.0
  0
LINE
  5
185
330
22
100
AcDbEntity
  8
_2-2_IN_LINE
  6
Continuous
 62
     7
100
AcDbLine
 10
693.1598356632081
 20
331.6838712825805
 30
0.0
 11
693.0048465837067
 21
331.8340589214998
 31
0.0
  0
LINE
  5
186
330
22
100
AcDbEntity
  8
_2-2_IN_LINE
  6
Continuous
 62
     7
100
AcDbLine
 10
693.0048465837067
 20
331.8340589214998
 30
0.0
 11
692.8459326276004
 21
331.9802856518984
 31
0.0
  0
LINE
  5
187
330
22
100
AcDbEntity
  8
_2-2_IN_LINE
  6
Continuous
 62
     7
100
AcDbLine
 10
692.8459326276004
 20
331.9802856518984
 30
0.0
 11
692.6824077842172
 21
332.1217489047265
 31
0.0
  0
LINE
  5
188
330
22
100
AcDbEntity
  8
_2-2_IN_LINE
  6
Continuous
 62
     7
100
AcDbLine
 10
692.6824077842172
 20
332.1217489047265
 30
0.0
 11
692.5851803426292
 21
332.2012987120073
 31
0.0
  0
LINE
  5
189
330
22
100
AcDbEntity
  8
_2-2_IN_LINE
  6
Continuous
 62
     7
100
AcDbLine
 10
692.5851803426292
 20
332.2012987120073
 30
0.0
 11
692.4975266430886
 21
332.2700240645034
 31
0.0
  0
LINE
  5
18A
330
22
100
AcDbEntity
  8
_2-2_IN_LINE
  6
Continuous
 62
     7
100
AcDbLine
 10
692.4975266430886
 20
332.2700240645034
 30
0.0
 11
692.3429135431695
 21
332.384236832302
 31
0.0
  0
LINE
  5
18B
330
22
100
AcDbEntity
  8
_2-2_IN_LINE
  6
Continuous
 62
     7
100
AcDbLine
 10
692.3429135431695
 20
332.384236832302
 30
0.0
 11
692.1839483999781
 21
332.4922095212335
 31
0.0
  0
LINE
  5
18C
330
22
100
AcDbEntity
  8
_2-2_IN_LINE
  6
Continuous
 62
     7
100
AcDbLine
 10
692.1839483999781
 20
332.4922095212335
 30
0.0
 11
692.0207017427526
 21
332.5929847526597
 31
0.0
  0
LINE
  5
18D
330
22
100
AcDbEntity
  8
_2-2_IN_LINE
  6
Continuous
 62
     7
100
AcDbLine
 10
692.0207017427526
 20
332.5929847526597
 30
0.0
 11
691.8532441007199
 21
332.685605147947
 31
0.0
  0
LINE
  5
18E
330
22
100
AcDbEntity
  8
_2-2_IN_LINE
  6
Continuous
 62
     7
100
AcDbLine
 10
691.8532441007199
 20
332.685605147947
 30
0.0
 11
691.6816460031157
 21
332.7691133284568
 31
0.0
  0
LINE
  5
18F
330
22
100
AcDbEntity
  8
_2-2_IN_LINE
  6
Continuous
 62
     7
100
AcDbLine
 10
691.6816460031157
 20
332.7691133284568
 30
0.0
 11
691.5802497419496
 21
332.8129955993793
 31
0.0
  0
LINE
  5
190
330
22
100
AcDbEntity
  8
_2-2_IN_LINE
  6
Continuous
 62
     7
100
AcDbLine
 10
691.5802497419496
 20
332.8129955993793
 30
0.0
 11
691.4663442492098
 21
332.8575243126422
 31
0.0
  0
LINE
  5
191
330
22
100
AcDbEntity
  8
_2-2_IN_LINE
  6
Continuous
 62
     7
100
AcDbLine
 10
691.4663442492098
 20
332.8575243126422
 30
0.0
 11
691.2664557913546
 21
332.9248349410548
 31
0.0
  0
LINE
  5
192
330
22
100
AcDbEntity
  8
_2-2_IN_LINE
  6
Continuous
 62
     7
100
AcDbLine
 10
691.2664557913546
 20
332.9248349410548
 30
0.0
 11
691.062753692496
 21
332.9814384925547
 31
0.0
  0
LINE
  5
193
330
22
100
AcDbEntity
  8
_2-2_IN_LINE
  6
Continuous
 62
     7
100
AcDbLine
 10
691.062753692496
 20
332.9814384925547
 30
0.0
 11
690.8559546156891
 21
333.0288133662842
 31
0.0
  0
LINE
  5
194
330
22
100
AcDbEntity
  8
_2-2_IN_LINE
  6
Continuous
 62
     7
100
AcDbLine
 10
690.8559546156891
 20
333.0288133662842
 30
0.0
 11
690.6467752239803
 21
333.0684379613948
 31
0.0
  0
LINE
  5
195
330
22
100
AcDbEntity
  8
_2-2_IN_LINE
  6
Continuous
 62
     7
100
AcDbLine
 10
690.6467752239803
 20
333.0684379613948
 30
0.0
 11
690.4359321804224
 21
333.1017906770288
 31
0.0
  0
LINE
  5
196
330
22
100
AcDbEntity
  8
_2-2_IN_LINE
  6
Continuous
 62
     7
100
AcDbLine
 10
690.4359321804224
 20
333.1017906770288
 30
0.0
 11
690.3131633323925
 21
333.1188440430631
 31
0.0
  0
LINE
  5
197
330
22
100
AcDbEntity
  8
_2-2_IN_LINE
  6
Continuous
 62
     7
100
AcDbLine
 10
690.3131633323925
 20
333.1188440430631
 30
0.0
 11
690.1647063623101
 21
333.1375610423314
 31
0.0
  0
LINE
  5
198
330
22
100
AcDbEntity
  8
_2-2_IN_LINE
  6
Continuous
 62
     7
100
AcDbLine
 10
690.1647063623101
 20
333.1375610423314
 30
0.0
 11
689.9083860970256
 21
333.1644678034198
 31
0.0
  0
LINE
  5
199
330
22
100
AcDbEntity
  8
_2-2_IN_LINE
  6
Continuous
 62
     7
100
AcDbLine
 10
689.9083860970256
 20
333.1644678034198
 30
0.0
 11
689.651990768442
 21
333.1833260507191
 31
0.0
  0
LINE
  5
19A
330
22
100
AcDbEntity
  8
_2-2_IN_LINE
  6
Continuous
 62
     7
100
AcDbLine
 10
689.651990768442
 20
333.1833260507191
 30
0.0
 11
689.3959629318112
 21
333.1926721419066
 31
0.0
  0
LINE
  5
19B
330
22
100
AcDbEntity
  8
_2-2_IN_LINE
  6
Continuous
 62
     7
100
AcDbLine
 10
689.3959629318112
 20
333.1926721419066
 30
0.0
 11
689.14074514238
 21
333.19104243466
 31
0.0
  0
LINE
  5
19C
330
22
100
AcDbEntity
  8
_2-2_IN_LINE
  6
Continuous
 62
     7
100
AcDbLine
 10
689.14074514238
 20
333.19104243466
 30
0.0
 11
688.8867799553861
 21
333.1769732866568
 31
0.0
  0
LINE
  5
19D
330
22
100
AcDbEntity
  8
_2-2_IN_LINE
  6
Continuous
 62
     7
100
AcDbLine
 10
688.8867799553861
 20
333.1769732866568
 30
0.0
 11
688.7402284791516
 21
333.162536677876
 31
0.0
  0
LINE
  5
19E
330
22
100
AcDbEntity
  8
_2-2_IN_LINE
  6
Continuous
 62
     7
100
AcDbLine
 10
688.7402284791516
 20
333.162536677876
 30
0.0
 11
688.6328842875843
 21
333.1488468917908
 31
0.0
  0
LINE
  5
19F
330
22
100
AcDbEntity
  8
_2-2_IN_LINE
  6
Continuous
 62
     7
100
AcDbLine
 10
688.6328842875843
 20
333.1488468917908
 30
0.0
 11
688.4484342268149
 21
333.1198872605504
 31
0.0
  0
LINE
  5
1A0
330
22
100
AcDbEntity
  8
_2-2_IN_LINE
  6
Continuous
 62
     7
100
AcDbLine
 10
688.4484342268149
 20
333.1198872605504
 30
0.0
 11
688.2644633693746
 21
333.0855717790112
 31
0.0
  0
LINE
  5
1A1
330
22
100
AcDbEntity
  8
_2-2_IN_LINE
  6
Continuous
 62
     7
100
AcDbLine
 10
688.2644633693746
 20
333.0855717790112
 30
0.0
 11
688.0806073335167
 21
333.0475569529838
 31
0.0
  0
LINE
  5
1A2
330
22
100
AcDbEntity
  8
_2-2_IN_LINE
  6
Continuous
 62
     7
100
AcDbLine
 10
688.0806073335167
 20
333.0475569529838
 30
0.0
 11
687.8965017374946
 21
333.0074992882785
 31
0.0
  0
LINE
  5
1A3
330
22
100
AcDbEntity
  8
_2-2_IN_LINE
  6
Continuous
 62
     7
100
AcDbLine
 10
687.8965017374946
 20
333.0074992882785
 30
0.0
 11
687.7117821995681
 21
332.9670552907012
 31
0.0
  0
LINE
  5
1A4
330
22
100
AcDbEntity
  8
_2-2_IN_LINE
  6
Continuous
 62
     7
100
AcDbLine
 10
687.7117821995681
 20
332.9670552907012
 30
0.0
 11
687.6042199740312
 21
332.9440735038159
 31
0.0
  0
LINE
  5
1A5
330
22
100
AcDbEntity
  8
_2-2_IN_LINE
  6
Continuous
 62
     7
100
AcDbLine
 10
687.6042199740312
 20
332.9440735038159
 30
0.0
 11
687.4821087427051
 21
332.9187997823172
 31
0.0
  0
LINE
  5
1A6
330
22
100
AcDbEntity
  8
_2-2_IN_LINE
  6
Continuous
 62
     7
100
AcDbLine
 10
687.4821087427051
 20
332.9187997823172
 30
0.0
 11
687.2713107191418
 21
332.8754502660812
 31
0.0
  0
LINE
  5
1A7
330
22
100
AcDbEntity
  8
_2-2_IN_LINE
  6
Continuous
 62
     7
100
AcDbLine
 10
687.2713107191418
 20
332.8754502660812
 30
0.0
 11
687.0616054953041
 21
332.8293171079329
 31
0.0
  0
LINE
  5
1A8
330
22
100
AcDbEntity
  8
_2-2_IN_LINE
  6
Continuous
 62
     7
100
AcDbLine
 10
687.0616054953041
 20
332.8293171079329
 30
0.0
 11
686.8546485460353
 21
332.7768310662307
 31
0.0
  0
LINE
  5
1A9
330
22
100
AcDbEntity
  8
_2-2_IN_LINE
  6
Continuous
 62
     7
100
AcDbLine
 10
686.8546485460353
 20
332.7768310662307
 30
0.0
 11
686.6520953461793
 21
332.7144228993305
 31
0.0
  0
LINE
  5
1AA
330
22
100
AcDbEntity
  8
_2-2_IN_LINE
  6
Continuous
 62
     7
100
AcDbLine
 10
686.6520953461793
 20
332.7144228993305
 30
0.0
 11
686.4556013705794
 21
332.6385233655972
 31
0.0
  0
LINE
  5
1AB
330
22
100
AcDbEntity
  8
_2-2_IN_LINE
  6
Continuous
 62
     7
100
AcDbLine
 10
686.4556013705794
 20
332.6385233655972
 30
0.0
 11
686.3450635444599
 21
332.5869134249412
 31
0.0
  0
LINE
  5
1AC
330
22
100
AcDbEntity
  8
_2-2_IN_LINE
  6
Continuous
 62
     7
100
AcDbLine
 10
686.3450635444599
 20
332.5869134249412
 30
0.0
 11
686.2457413132812
 21
332.5338279530164
 31
0.0
  0
LINE
  5
1AD
330
22
100
AcDbEntity
  8
_2-2_IN_LINE
  6
Continuous
 62
     7
100
AcDbLine
 10
686.2457413132812
 20
332.5338279530164
 30
0.0
 11
686.0803173980902
 21
332.4305416719179
 31
0.0
  0
LINE
  5
1AE
330
22
100
AcDbEntity
  8
_2-2_IN_LINE
  6
Continuous
 62
     7
100
AcDbLine
 10
686.0803173980902
 20
332.4305416719179
 30
0.0
 11
685.922265826731
 21
332.3139920401857
 31
0.0
  0
LINE
  5
1AF
330
22
100
AcDbEntity
  8
_2-2_IN_LINE
  6
Continuous
 62
     7
100
AcDbLine
 10
685.922265826731
 20
332.3139920401857
 30
0.0
 11
685.7715907803128
 21
332.1860653668708
 31
0.0
  0
LINE
  5
1B0
330
22
100
AcDbEntity
  8
_2-2_IN_LINE
  6
Continuous
 62
     7
100
AcDbLine
 10
685.7715907803128
 20
332.1860653668708
 30
0.0
 11
685.6282964399485
 21
332.0486479610238
 31
0.0
  0
LINE
  5
1B1
330
22
100
AcDbEntity
  8
_2-2_IN_LINE
  6
Continuous
 62
     7
100
AcDbLine
 10
685.6282964399485
 20
332.0486479610238
 30
0.0
 11
685.4923869867422
 21
331.9036261316958
 31
0.0
  0
LINE
  5
1B2
330
22
100
AcDbEntity
  8
_2-2_IN_LINE
  6
Continuous
 62
     7
100
AcDbLine
 10
685.4923869867422
 20
331.9036261316958
 30
0.0
 11
685.4169449067592
 21
331.8167724276966
 31
0.0
  0
LINE
  5
1B3
330
22
100
AcDbEntity
  8
_2-2_IN_LINE
  6
Continuous
 62
     7
100
AcDbLine
 10
685.4169449067592
 20
331.8167724276966
 30
0.0
 11
685.3326498823878
 21
331.7142050397072
 31
0.0
  0
LINE
  5
1B4
330
22
100
AcDbEntity
  8
_2-2_IN_LINE
  6
Continuous
 62
     7
100
AcDbLine
 10
685.3326498823878
 20
331.7142050397072
 30
0.0
 11
685.1944780231167
 21
331.5329200299701
 31
0.0
  0
LINE
  5
1B5
330
22
100
AcDbEntity
  8
_2-2_IN_LINE
  6
Continuous
 62
     7
100
AcDbLine
 10
685.1944780231167
 20
331.5329200299701
 30
0.0
 11
685.0643677560981
 21
331.3466953553509
 31
0.0
  0
LINE
  5
1B6
330
22
100
AcDbEntity
  8
_2-2_IN_LINE
  6
Continuous
 62
     7
100
AcDbLine
 10
685.0643677560981
 20
331.3466953553509
 30
0.0
 11
684.9411478541139
 21
331.1563292942608
 31
0.0
  0
LINE
  5
1B7
330
22
100
AcDbEntity
  8
_2-2_IN_LINE
  6
Continuous
 62
     7
100
AcDbLine
 10
684.9411478541139
 20
331.1563292942608
 30
0.0
 11
684.8236470899417
 21
330.9626201251175
 31
0.0
  0
LINE
  5
1B8
330
22
100
AcDbEntity
  8
_2-2_IN_LINE
  6
Continuous
 62
     7
100
AcDbLine
 10
684.8236470899417
 20
330.9626201251175
 30
0.0
 11
684.7106942363744
 21
330.7663661263339
 31
0.0
  0
LINE
  5
1B9
330
22
100
AcDbEntity
  8
_2-2_IN_LINE
  6
Continuous
 62
     7
100
AcDbLine
 10
684.7106942363744
 20
330.7663661263339
 30
0.0
 11
684.6468039095144
 21
330.6516873293052
 31
0.0
  0
LINE
  5
1BA
330
22
100
AcDbEntity
  8
_2-2_IN_LINE
  6
Continuous
 62
     7
100
AcDbLine
 10
684.6468039095144
 20
330.6516873293052
 30
0.0
 11
684.5795365420087
 21
330.5286207371685
 31
0.0
  0
LINE
  5
1BB
330
22
100
AcDbEntity
  8
_2-2_IN_LINE
  6
Continuous
 62
     7
100
AcDbLine
 10
684.5795365420087
 20
330.5286207371685
 30
0.0
 11
684.4655553008021
 21
330.3154139808
 31
0.0
  0
LINE
  5
1BC
330
22
100
AcDbEntity
  8
_2-2_IN_LINE
  6
Continuous
 62
     7
100
AcDbLine
 10
684.4655553008021
 20
330.3154139808
 30
0.0
 11
684.3534407524373
 21
330.1011169812639
 31
0.0
  0
LINE
  5
1BD
330
22
100
AcDbEntity
  8
_2-2_IN_LINE
  6
Continuous
 62
     7
100
AcDbLine
 10
684.3534407524373
 20
330.1011169812639
 30
0.0
 11
684.2424241431888
 21
329.8859677201906
 31
0.0
  0
LINE
  5
1BE
330
22
100
AcDbEntity
  8
_2-2_IN_LINE
  6
Continuous
 62
     7
100
AcDbLine
 10
684.2424241431888
 20
329.8859677201906
 30
0.0
 11
684.1317367193312
 21
329.6702041792085
 31
0.0
  0
LINE
  5
1BF
330
22
100
AcDbEntity
  8
_2-2_IN_LINE
  6
Continuous
 62
     7
100
AcDbLine
 10
684.1317367193312
 20
329.6702041792085
 30
0.0
 11
684.0206097271344
 21
329.4540643399525
 31
0.0
  0
LINE
  5
1C0
330
22
100
AcDbEntity
  8
_2-2_IN_LINE
  6
Continuous
 62
     7
100
AcDbLine
 10
684.0206097271344
 20
329.4540643399525
 30
0.0
 11
683.9556517325024
 21
329.3286245904531
 31
0.0
  0
LINE
  5
1C1
330
22
100
AcDbEntity
  8
_2-2_IN_LINE
  6
Continuous
 62
     7
100
AcDbLine
 10
683.9556517325024
 20
329.3286245904531
 30
0.0
 11
683.8672382783272
 21
329.1597964074461
 31
0.0
  0
LINE
  5
1C2
330
22
100
AcDbEntity
  8
_2-2_IN_LINE
  6
Continuous
 62
     7
100
AcDbLine
 10
683.8672382783272
 20
329.1597964074461
 30
0.0
 11
683.7107334623976
 21
328.8704006415585
 31
0.0
  0
LINE
  5
1C3
330
22
100
AcDbEntity
  8
_2-2_IN_LINE
  6
Continuous
 62
     7
100
AcDbLine
 10
683.7107334623976
 20
328.8704006415585
 30
0.0
 11
683.5465118691705
 21
328.5856924653084
 31
0.0
  0
LINE
  5
1C4
330
22
100
AcDbEntity
  8
_2-2_IN_LINE
  6
Continuous
 62
     7
100
AcDbLine
 10
683.5465118691705
 20
328.5856924653084
 30
0.0
 11
683.3715878817827
 21
328.3086390372889
 31
0.0
  0
LINE
  5
1C5
330
22
100
AcDbEntity
  8
_2-2_IN_LINE
  6
Continuous
 62
     7
100
AcDbLine
 10
683.3715878817827
 20
328.3086390372889
 30
0.0
 11
683.1829758833841
 21
328.0422075161031
 31
0.0
  0
LINE
  5
1C6
330
22
100
AcDbEntity
  8
_2-2_IN_LINE
  6
Continuous
 62
     7
100
AcDbLine
 10
683.1829758833841
 20
328.0422075161031
 30
0.0
 11
682.9776902571086
 21
327.7893650603463
 31
0.0
  0
LINE
  5
1C7
330
22
100
AcDbEntity
  8
_2-2_IN_LINE
  6
Continuous
 62
     7
100
AcDbLine
 10
682.9776902571086
 20
327.7893650603463
 30
0.0
 11
682.849808249283
 21
327.6501121605659
 31
0.0
  0
LINE
  5
1C8
330
22
100
AcDbEntity
  8
_2-2_IN_LINE
  6
Continuous
 62
     7
100
AcDbLine
 10
682.849808249283
 20
327.6501121605659
 30
0.0
 11
682.8035930769772
 21
327.6030071546555
 31
0.0
  0
LINE
  5
1C9
330
22
100
AcDbEntity
  8
_2-2_IN_LINE
  6
Continuous
 62
     7
100
AcDbLine
 10
682.8035930769772
 20
327.6030071546555
 30
0.0
 11
682.7218938154362
 21
327.5236620596186
 31
0.0
  0
LINE
  5
1CA
330
22
100
AcDbEntity
  8
_2-2_IN_LINE
  6
Continuous
 62
     7
100
AcDbLine
 10
682.7218938154362
 20
327.5236620596186
 30
0.0
 11
682.6376914231071
 21
327.4468619501775
 31
0.0
  0
LINE
  5
1CB
330
22
100
AcDbEntity
  8
_2-2_IN_LINE
  6
Continuous
 62
     7
100
AcDbLine
 10
682.6376914231071
 20
327.4468619501775
 30
0.0
 11
682.5510454476114
 21
327.3728130468524
 31
0.0
  0
LINE
  5
1CC
330
22
100
AcDbEntity
  8
_2-2_IN_LINE
  6
Continuous
 62
     7
100
AcDbLine
 10
682.5510454476114
 20
327.3728130468524
 30
0.0
 11
682.4620154365755
 21
327.3017215701614
 31
0.0
  0
LINE
  5
1CD
330
22
100
AcDbEntity
  8
_2-2_IN_LINE
  6
Continuous
 62
     7
100
AcDbLine
 10
682.4620154365755
 20
327.3017215701614
 30
0.0
 11
682.3706609376256
 21
327.2337937406316
 31
0.0
  0
LINE
  5
1CE
330
22
100
AcDbEntity
  8
_2-2_IN_LINE
  6
Continuous
 62
     7
100
AcDbLine
 10
682.3706609376256
 20
327.2337937406316
 30
0.0
 11
682.3166337127292
 21
327.1959264442424
 31
0.0
  0
LINE
  5
1CF
330
22
100
AcDbEntity
  8
_2-2_IN_LINE
  6
Continuous
 62
     7
100
AcDbLine
 10
682.3166337127292
 20
327.1959264442424
 30
0.0
 11
682.2270323016425
 21
327.1366337538647
 31
0.0
  0
LINE
  5
1D0
330
22
100
AcDbEntity
  8
_2-2_IN_LINE
  6
Continuous
 62
     7
100
AcDbLine
 10
682.2270323016425
 20
327.1366337538647
 30
0.0
 11
682.0688408574722
 21
327.0402204896689
 31
0.0
  0
LINE
  5
1D1
330
22
100
AcDbEntity
  8
_2-2_IN_LINE
  6
Continuous
 62
     7
100
AcDbLine
 10
682.0688408574722
 20
327.0402204896689
 30
0.0
 11
681.9074295704388
 21
326.9488920805978
 31
0.0
  0
LINE
  5
1D2
330
22
100
AcDbEntity
  8
_2-2_IN_LINE
  6
Continuous
 62
     7
100
AcDbLine
 10
681.9074295704388
 20
326.9488920805978
 30
0.0
 11
681.7445096221456
 21
326.8600013721473
 31
0.0
  0
LINE
  5
1D3
330
22
100
AcDbEntity
  8
_2-2_IN_LINE
  6
Continuous
 62
     7
100
AcDbLine
 10
681.7445096221456
 20
326.8600013721473
 30
0.0
 11
681.5817921941913
 21
326.7709012098115
 31
0.0
  0
LINE
  5
1D4
330
22
100
AcDbEntity
  8
_2-2_IN_LINE
  6
Continuous
 62
     7
100
AcDbLine
 10
681.5817921941913
 20
326.7709012098115
 30
0.0
 11
681.4209884681791
 21
326.6789444390864
 31
0.0
  0
LINE
  5
1D5
330
22
100
AcDbEntity
  8
_2-2_IN_LINE
  6
Continuous
 62
     7
100
AcDbLine
 10
681.4209884681791
 20
326.6789444390864
 30
0.0
 11
681.3292734598543
 21
326.6232574975746
 31
0.0
  0
LINE
  5
1D6
330
22
100
AcDbEntity
  8
_2-2_IN_LINE
  6
Continuous
 62
     7
100
AcDbLine
 10
681.3292734598543
 20
326.6232574975746
 30
0.0
 11
681.2368624674569
 21
326.5638927277021
 31
0.0
  0
LINE
  5
1D7
330
22
100
AcDbEntity
  8
_2-2_IN_LINE
  6
Continuous
 62
     7
100
AcDbLine
 10
681.2368624674569
 20
326.5638927277021
 30
0.0
 11
681.0809194653017
 21
326.4563909659344
 31
0.0
  0
LINE
  5
1D8
330
22
100
AcDbEntity
  8
_2-2_IN_LINE
  6
Continuous
 62
     7
100
AcDbLine
 10
681.0809194653017
 20
326.4563909659344
 30
0.0
 11
680.9285969230802
 21
326.3434077759669
 31
0.0
  0
LINE
  5
1D9
330
22
100
AcDbEntity
  8
_2-2_IN_LINE
  6
Continuous
 62
     7
100
AcDbLine
 10
680.9285969230802
 20
326.3434077759669
 30
0.0
 11
680.7791204343437
 21
326.2261477235713
 31
0.0
  0
LINE
  5
1DA
330
22
100
AcDbEntity
  8
_2-2_IN_LINE
  6
Continuous
 62
     7
100
AcDbLine
 10
680.7791204343437
 20
326.2261477235713
 30
0.0
 11
680.6317155926523
 21
326.105815374522
 31
0.0
  0
LINE
  5
1DB
330
22
100
AcDbEntity
  8
_2-2_IN_LINE
  6
Continuous
 62
     7
100
AcDbLine
 10
680.6317155926523
 20
326.105815374522
 30
0.0
 11
680.4856079915555
 21
325.983615294597
 31
0.0
  0
LINE
  5
1DC
330
22
100
AcDbEntity
  8
_2-2_IN_LINE
  6
Continuous
 62
     7
100
AcDbLine
 10
680.4856079915555
 20
325.983615294597
 30
0.0
 11
680.4011548221512
 21
325.9123581155044
 31
0.0
  0
LINE
  5
1DD
330
22
100
AcDbEntity
  8
_2-2_IN_LINE
  6
Continuous
 62
     7
100
AcDbLine
 10
680.4011548221512
 20
325.9123581155044
 30
0.0
 11
680.295312958534
 21
325.822877531605
 31
0.0
  0
LINE
  5
1DE
330
22
100
AcDbEntity
  8
_2-2_IN_LINE
  6
Continuous
 62
     7
100
AcDbLine
 10
680.295312958534
 20
325.822877531605
 30
0.0
 11
680.1137401802236
 21
325.6677944778088
 31
0.0
  0
LINE
  5
1DF
330
22
100
AcDbEntity
  8
_2-2_IN_LINE
  6
Continuous
 62
     7
100
AcDbLine
 10
680.1137401802236
 20
325.6677944778088
 30
0.0
 11
679.9345655276
 21
325.5104053095672
 31
0.0
  0
LINE
  5
1E0
330
22
100
AcDbEntity
  8
_2-2_IN_LINE
  6
Continuous
 62
     7
100
AcDbLine
 10
679.9345655276
 20
325.5104053095672
 30
0.0
 11
679.7592334013745
 21
325.3492151116418
 31
0.0
  0
LINE
  5
1E1
330
22
100
AcDbEntity
  8
_2-2_IN_LINE
  6
Continuous
 62
     7
100
AcDbLine
 10
679.7592334013745
 20
325.3492151116418
 30
0.0
 11
679.5891882022658
 21
325.1827289687916
 31
0.0
  0
LINE
  5
1E2
330
22
100
AcDbEntity
  8
_2-2_IN_LINE
  6
Continuous
 62
     7
100
AcDbLine
 10
679.5891882022658
 20
325.1827289687916
 30
0.0
 11
679.4258743309853
 21
325.0094519657821
 31
0.0
  0
LINE
  5
1E3
330
22
100
AcDbEntity
  8
_2-2_IN_LINE
  6
Continuous
 62
     7
100
AcDbLine
 10
679.4258743309853
 20
325.0094519657821
 30
0.0
 11
679.3348057490482
 21
324.9052506575711
 31
0.0
  0
LINE
  5
1E4
330
22
100
AcDbEntity
  8
_2-2_IN_LINE
  6
Continuous
 62
     7
100
AcDbLine
 10
679.3348057490482
 20
324.9052506575711
 30
0.0
 11
679.2831464764105
 21
324.84316338205
 31
0.0
  0
LINE
  5
1E5
330
22
100
AcDbEntity
  8
_2-2_IN_LINE
  6
Continuous
 62
     7
100
AcDbLine
 10
679.2831464764105
 20
324.84316338205
 30
0.0
 11
679.1968213661049
 21
324.7336906422109
 31
0.0
  0
LINE
  5
1E6
330
22
100
AcDbEntity
  8
_2-2_IN_LINE
  6
Continuous
 62
     7
100
AcDbLine
 10
679.1968213661049
 20
324.7336906422109
 30
0.0
 11
679.1144614939717
 21
324.6211893844523
 31
0.0
  0
LINE
  5
1E7
330
22
100
AcDbEntity
  8
_2-2_IN_LINE
  6
Continuous
 62
     7
100
AcDbLine
 10
679.1144614939717
 20
324.6211893844523
 30
0.0
 11
679.0366408032276
 21
324.5057084517409
 31
0.0
  0
LINE
  5
1E8
330
22
100
AcDbEntity
  8
_2-2_IN_LINE
  6
Continuous
 62
     7
100
AcDbLine
 10
679.0366408032276
 20
324.5057084517409
 30
0.0
 11
678.9639332370813
 21
324.3872966870484
 31
0.0
  0
LINE
  5
1E9
330
22
100
AcDbEntity
  8
_2-2_IN_LINE
  6
Continuous
 62
     7
100
AcDbLine
 10
678.9639332370813
 20
324.3872966870484
 30
0.0
 11
678.8969127387543
 21
324.2660029333436
 31
0.0
  0
LINE
  5
1EA
330
22
100
AcDbEntity
  8
_2-2_IN_LINE
  6
Continuous
 62
     7
100
AcDbLine
 10
678.8969127387543
 20
324.2660029333436
 30
0.0
 11
678.8608728276665
 21
324.1943512755032
 31
0.0
  0
LINE
  5
1EB
330
22
100
AcDbEntity
  8
_2-2_IN_LINE
  6
Continuous
 62
     7
100
AcDbLine
 10
678.8608728276665
 20
324.1943512755032
 30
0.0
 11
678.814220974308
 21
324.0928753844517
 31
0.0
  0
LINE
  5
1EC
330
22
100
AcDbEntity
  8
_2-2_IN_LINE
  6
Continuous
 62
     7
100
AcDbLine
 10
678.814220974308
 20
324.0928753844517
 30
0.0
 11
678.7427342159584
 21
323.9141110054018
 31
0.0
  0
LINE
  5
1ED
330
22
100
AcDbEntity
  8
_2-2_IN_LINE
  6
Continuous
 62
     7
100
AcDbLine
 10
678.7427342159584
 20
323.9141110054018
 30
0.0
 11
678.680782877335
 21
323.7312905872525
 31
0.0
  0
LINE
  5
1EE
330
22
100
AcDbEntity
  8
_2-2_IN_LINE
  6
Continuous
 62
     7
100
AcDbLine
 10
678.680782877335
 20
323.7312905872525
 30
0.0
 11
678.626284989067
 21
323.5452997280621
 31
0.0
  0
LINE
  5
1EF
330
22
100
AcDbEntity
  8
_2-2_IN_LINE
  6
Continuous
 62
     7
100
AcDbLine
 10
678.626284989067
 20
323.5452997280621
 30
0.0
 11
678.5771585817781
 21
323.3570240258885
 31
0.0
  0
LINE
  5
1F0
330
22
100
AcDbEntity
  8
_2-2_IN_LINE
  6
Continuous
 62
     7
100
AcDbLine
 10
678.5771585817781
 20
323.3570240258885
 30
0.0
 11
678.5313216861015
 21
323.1673490787833
 31
0.0
  0
LINE
  5
1F1
330
22
100
AcDbEntity
  8
_2-2_IN_LINE
  6
Continuous
 62
     7
100
AcDbLine
 10
678.5313216861015
 20
323.1673490787833
 30
0.0
 11
678.5054231366314
 21
323.057045447122
 31
0.0
  0
LINE
  5
1F2
330
22
100
AcDbEntity
  8
_2-2_IN_LINE
  6
Continuous
 62
     7
100
AcDbLine
 10
747.2532989992475
 20
323.057045447122
 30
0.0
 11
689.2532989992457
 21
323.057045447122
 31
0.0
  0
LINE
  5
1F3
330
22
100
AcDbEntity
  8
_2-2_IN_LINE
  6
Continuous
 62
     7
100
AcDbLine
 10
893.3470489992464
 20
587.8695454471201
 30
0.0
 11
873.8157989992464
 21
587.8695454471201
 31
0.0
  0
LINE
  5
1F4
330
22
100
AcDbEntity
  8
_2-2_IN_LINE
  6
Continuous
 62
     7
100
AcDbLine
 10
906.6282989992464
 20
587.8695454471201
 30
0.0
 11
906.6282989992464
 21
590.2132954471201
 31
0.0
  0
LINE
  5
1F5
330
22
100
AcDbEntity
  8
_2-2_IN_LINE
  6
Continuous
 62
     7
100
AcDbLine
 10
887.8782989992464
 20
587.8695454471201
 30
0.0
 11
887.8782989992464
 21
590.2132954471201
 31
0.0
  0
LINE
  5
1F6
330
22
100
AcDbEntity
  8
_2-2_IN_LINE
  6
Continuous
 62
     7
100
AcDbLine
 10
889.4407989992464
 20
590.2132954471201
 30
0.0
 11
889.4407989992464
 21
601.9320454471201
 31
0.0
  0
LINE
  5
1F7
330
22
100
AcDbEntity
  8
_2-2_IN_LINE
  6
Continuous
 62
     7
100
AcDbLine
 10
905.0657989992464
 20
590.2132954471201
 30
0.0
 11
905.0657989992464
 21
601.9320454471201
 31
0.0
  0
LINE
  5
1F8
330
22
100
AcDbEntity
  8
_2-2_IN_LINE
  6
Continuous
 62
     7
100
AcDbLine
 10
906.6282989992464
 20
590.2132954471201
 30
0.0
 11
901.1595489992464
 21
590.2132954471201
 31
0.0
  0
LINE
  5
1F9
330
22
100
AcDbEntity
  8
_2-2_IN_LINE
  6
Continuous
 62
     7
100
AcDbLine
 10
893.3470489992464
 20
590.2132954471201
 30
0.0
 11
887.8782989992464
 21
590.2132954471201
 31
0.0
  0
LINE
  5
1FA
330
22
100
AcDbEntity
  8
_2-2_IN_LINE
  6
Continuous
 62
     7
100
AcDbLine
 10
905.0657989992464
 20
601.9320454471201
 30
0.0
 11
901.1595489992464
 21
601.9320454471201
 31
0.0
  0
LINE
  5
1FB
330
22
100
AcDbEntity
  8
_2-2_IN_LINE
  6
Continuous
 62
     7
100
AcDbLine
 10
893.3470489992464
 20
601.9320454471201
 30
0.0
 11
889.4407989992464
 21
601.9320454471201
 31
0.0
  0
LINE
  5
1FC
330
22
100
AcDbEntity
  8
_2-2_IN_LINE
  6
Continuous
 62
     7
100
AcDbLine
 10
929.1221084869446
 20
587.8695454471201
 30
0.0
 11
901.1595489992464
 21
587.8695454471201
 31
0.0
  0
ARC
  5
1FD
330
22
100
AcDbEntity
  8
_2-2_IN_LINE
  6
Continuous
 62
     7
100
AcDbCircle
 10
929.1221084869446
 20
589.4320454471201
 30
0.0
 40
1.5625
100
AcDbArc
 50
270.0
 51
345.0000000000002
  0
ARC
  5
1FE
330
22
100
AcDbEntity
  8
_2-2_IN_LINE
  6
Continuous
 62
     7
100
AcDbCircle
 10
935.1168505805299
 20
581.6195454471201
 30
0.0
 40
1.5625
100
AcDbArc
 50
270.0
 51
345.0000000000001
  0
LINE
  5
1FF
330
22
100
AcDbEntity
  8
_2-2_IN_LINE
  6
Continuous
 62
     7
100
AcDbLine
 10
893.3470489992464
 20
580.0570454471201
 30
0.0
 11
873.8157989992464
 21
580.0570454471201
 31
0.0
  0
LINE
  5
200
330
22
100
AcDbEntity
  8
_2-2_IN_LINE
  6
Continuous
 62
     7
100
AcDbLine
 10
935.1168505805299
 20
580.0570454471201
 30
0.0
 11
901.1595489992464
 21
580.0570454471201
 31
0.0
  0
LINE
  5
201
330
22
100
AcDbEntity
  8
_2-2_IN_LINE
  6
Continuous
 62
     7
100
AcDbLine
 10
873.8157989992464
 20
587.8695454471201
 30
0.0
 11
873.8157989992464
 21
578.0570454471195
 31
0.0
  0
LINE
  5
202
330
22
100
AcDbEntity
  8
_2-2_IN_LINE
  6
Continuous
 62
     7
100
AcDbLine
 10
935.1168505805299
 20
580.0570454471201
 30
0.0
 11
935.1168505805299
 21
578.0570454471195
 31
0.0
  0
LINE
  5
203
330
22
100
AcDbEntity
  8
_2-2_IN_LINE
  6
Continuous
 62
     7
100
AcDbLine
 10
901.1595489992464
 20
603.8382954471195
 30
0.0
 11
893.3470489992464
 21
603.8382954471195
 31
0.0
  0
LINE
  5
204
330
22
100
AcDbEntity
  8
_2-2_IN_LINE
  6
Continuous
 62
     7
100
AcDbLine
 10
747.2532989992475
 20
568.0570454471195
 30
0.0
 11
893.3470489992464
 21
568.0570454471195
 31
0.0
  0
LINE
  5
205
330
22
100
AcDbEntity
  8
_2-2_IN_LINE
  6
Continuous
 62
     7
100
AcDbLine
 10
901.1595489992464
 20
568.0570454471195
 30
0.0
 11
1047.253298999246
 21
568.0570454471195
 31
0.0
  0
LINE
  5
206
330
22
100
AcDbEntity
  8
_2-2_IN_LINE
  6
Continuous
 62
     7
100
AcDbLine
 10
903.5032989992464
 20
460.8695454471219
 30
0.0
 11
916.7845489992464
 21
460.8695454471219
 31
0.0
  0
LINE
  5
207
330
22
100
AcDbEntity
  8
_2-2_IN_LINE
  6
Continuous
 62
     7
100
AcDbLine
 10
916.7845489992464
 20
460.8695454471219
 30
0.0
 11
916.7845489992464
 21
453.0570454471219
 31
0.0
  0
LINE
  5
208
330
22
100
AcDbEntity
  8
_2-2_IN_LINE
  6
Continuous
 62
     7
100
AcDbLine
 10
899.5970489992464
 20
453.0570454471219
 30
0.0
 11
916.7845489992464
 21
453.0570454471219
 31
0.0
  0
ARC
  5
209
330
22
100
AcDbEntity
  8
_2-2_IN_LINE
  6
Continuous
 62
     7
100
AcDbCircle
 10
903.5032989992464
 20
463.2132954471219
 30
0.0
 40
2.34375
100
AcDbArc
 50
180.0
 51
270.0
  0
LINE
  5
20A
330
22
100
AcDbEntity
  8
_2-2_IN_LINE
  6
Continuous
 62
     7
100
AcDbLine
 10
901.1595489992464
 20
463.2132954471219
 30
0.0
 11
901.1595489992464
 21
568.0570454471195
 31
0.0
  0
LINE
  5
20B
330
22
100
AcDbEntity
  8
_2-2_IN_LINE
  6
Continuous
 62
     7
100
AcDbLine
 10
893.3470489992464
 20
459.3070454471219
 30
0.0
 11
893.3470489992464
 21
568.0570454471195
 31
0.0
  0
ARC
  5
20C
330
22
100
AcDbEntity
  8
_2-2_IN_LINE
  6
Continuous
 62
     7
100
AcDbCircle
 10
899.5970489992464
 20
459.3070454471219
 30
0.0
 40
6.25
100
AcDbArc
 50
180.0
 51
270.0
  0
LINE
  5
20D
330
22
100
AcDbEntity
  8
_2-B_DIM
  6
Continuous
 62
     7
100
AcDbLine
 10
935.1168505805299
 20
521.656947291722
 30
0.0
 11
1035.11685058053
 21
521.656947291722
 31
0.0
  0
POINT
  5
20E
330
22
100
AcDbEntity
  8
_2-B_DIM
 62
     1
100
AcDbPoint
 10
1035.11685058053
 20
521.656947291722
 30
0.0
  0
LINE
  5
20F
330
22
100
AcDbEntity
  8
_2-B_DIM
  6
Continuous
 62
     7
100
AcDbLine
 10
1035.11685058053
 20
521.656947291722
 30
0.0
 11
1035.11685058053
 21
559.5425078559927
 31
0.0
  0
LINE
  5
210
330
22
100
AcDbEntity
  8
_2-4_OUT_LINE
  6
Continuous
 62
     2
100
AcDbLine
 10
1035.11685058053
 20
578.0570454471195
 30
0.0
 11
1035.11685058053
 21
573.0570454471195
 31
0.0
  0
LINE
  5
211
330
22
100
AcDbEntity
  8
_2-4_OUT_LINE
  6
Continuous
 62
     2
100
AcDbLine
 10
901.1595489992464
 20
578.0570454471195
 30
0.0
 11
1035.11685058053
 21
578.0570454471195
 31
0.0
  0
TEXT
  5
212
330
22
100
AcDbEntity
  8
_2-B_DIM
 62
     7
100
AcDbText
 10
973.8668505805298
 20
524.1569472917221
 30
0.0
 40
15.0
  1
100
100
AcDbText
  0
LINE
  5
213
330
22
100
AcDbEntity
  8
_2-4_OUT_LINE
  6
Continuous
 62
     2
100
AcDbLine
 10
773.8157989992463
 20
578.0570454471195
 30
0.0
 11
773.8157989992463
 21
573.0570454471195
 31
0.0
  0
LINE
  5
214
330
22
100
AcDbEntity
  8
_2-4_OUT_LINE
  6
Continuous
 62
     2
100
AcDbLine
 10
773.8157989992463
 20
578.0570454471195
 30
0.0
 11
893.3470489992464
 21
578.0570454471195
 31
0.0
  0
POINT
  5
215
330
22
100
AcDbEntity
  8
_2-B_DIM
 62
     1
100
AcDbPoint
 10
873.8157989992464
 20
521.656947291722
 30
0.0
  0
LINE
  5
216
330
22
100
AcDbEntity
  8
_2-B_DIM
  6
Continuous
 62
     7
100
AcDbLine
 10
873.8157989992464
 20
521.656947291722
 30
0.0
 11
873.8157989992464
 21
559.5425078559927
 31
0.0
  0
LINE
  5
217
330
22
100
AcDbEntity
  8
_2-B_DIM
  6
Continuous
 62
     7
100
AcDbLine
 10
873.8157989992464
 20
521.656947291722
 30
0.0
 11
773.8157989992463
 21
521.656947291722
 31
0.0
  0
POINT
  5
218
330
22
100
AcDbEntity
  8
_2-B_DIM
 62
     1
100
AcDbPoint
 10
773.8157989992463
 20
521.656947291722
 30
0.0
  0
LINE
  5
219
330
22
100
AcDbEntity
  8
_2-B_DIM
  6
Continuous
 62
     7
100
AcDbLine
 10
773.8157989992463
 20
521.656947291722
 30
0.0
 11
773.8157989992463
 21
559.5425078559927
 31
0.0
  0
TEXT
  5
21A
330
22
100
AcDbEntity
  8
_2-B_DIM
 62
     7
100
AcDbText
 10
835.9184066571698
 20
524.1569472917221
 30
0.0
 40
15.0
  1
100
100
AcDbText
  0
LINE
  5
21B
330
22
100
AcDbEntity
  8
_2-2_IN_LINE
  6
Continuous
 62
     7
100
AcDbLine
 10
936.6261096841071
 20
581.2151406891486
 30
0.0
 11
959.8953279331864
 21
668.0570454471195
 31
0.0
  0
LINE
  5
21C
330
22
100
AcDbEntity
  8
_2-2_IN_LINE
  6
Continuous
 62
     7
100
AcDbLine
 10
930.6313675905208
 20
589.0276406891486
 30
0.0
 11
951.807232773732
 21
668.0570454471195
 31
0.0
  0
TEXT
  5
21D
330
22
100
AcDbEntity
  8
_2-A_MOJI
 62
     7
100
AcDbText
 10
1021.383676583909
 20
603.7208706086837
 30
0.0
 40
15.0
  1
塩ビシート 増張り
100
AcDbText
  0
ARC
  5
21E
330
22
100
AcDbEntity
  8
_4-4_
  6
Continuous
 62
     2
100
AcDbCircle
 10
759.6248792297569
 20
934.932045447122
 30
0.0
 40
1.875
100
AcDbArc
 50
180.0
 51
270.0
  0
ARC
  5
21F
330
22
100
AcDbEntity
  8
_4-2_
  6
Continuous
 62
     7
100
AcDbCircle
 10
759.6248792297569
 20
934.932045447122
 30
0.0
 40
5.0
100
AcDbArc
 50
180.0
 51
270.0
  0
LINE
  5
220
330
22
100
AcDbEntity
  8
_4-2_
  6
Continuous
 62
     7
100
AcDbLine
 10
787.1266716879245
 20
933.0570454471196
 30
0.0
 11
787.1380584301253
 21
933.1388610387966
 31
0.0
  0
LINE
  5
221
330
22
100
AcDbEntity
  8
_4-2_
  6
Continuous
 62
     7
100
AcDbLine
 10
787.1380584301253
 20
933.1388610387966
 30
0.0
 11
787.1587251674124
 21
933.2795322481844
 31
0.0
  0
LINE
  5
222
330
22
100
AcDbEntity
  8
_4-2_
  6
Continuous
 62
     7
100
AcDbLine
 10
787.1587251674124
 20
933.2795322481844
 30
0.0
 11
787.1822653023309
 21
933.419119692096
 31
0.0
  0
LINE
  5
223
330
22
100
AcDbEntity
  8
_4-2_
  6
Continuous
 62
     7
100
AcDbLine
 10
787.1822653023309
 20
933.419119692096
 30
0.0
 11
787.2104974409705
 21
933.5569374430159
 31
0.0
  0
LINE
  5
224
330
22
100
AcDbEntity
  8
_4-2_
  6
Continuous
 62
     7
100
AcDbLine
 10
787.2104974409705
 20
933.5569374430159
 30
0.0
 11
787.245240189427
 21
933.6922995734246
 31
0.0
  0
LINE
  5
225
330
22
100
AcDbEntity
  8
_4-2_
  6
Continuous
 62
     7
100
AcDbLine
 10
787.245240189427
 20
933.6922995734246
 30
0.0
 11
787.288312153795
 21
933.8245201558132
 31
0.0
  0
LINE
  5
226
330
22
100
AcDbEntity
  8
_4-2_
  6
Continuous
 62
     7
100
AcDbLine
 10
787.288312153795
 20
933.8245201558132
 30
0.0
 11
787.3178269652282
 21
933.8994983451813
 31
0.0
  0
LINE
  5
227
330
22
100
AcDbEntity
  8
_4-2_
  6
Continuous
 62
     7
100
AcDbLine
 10
787.3178269652282
 20
933.8994983451813
 30
0.0
 11
787.3434151285175
 21
933.9570713699256
 31
0.0
  0
LINE
  5
228
330
22
100
AcDbEntity
  8
_4-2_
  6
Continuous
 62
     7
100
AcDbLine
 10
787.3434151285175
 20
933.9570713699256
 30
0.0
 11
787.3924246114439
 21
934.0543928093099
 31
0.0
  0
LINE
  5
229
330
22
100
AcDbEntity
  8
_4-2_
  6
Continuous
 62
     7
100
AcDbLine
 10
787.3924246114439
 20
934.0543928093099
 30
0.0
 11
787.4468664953974
 21
934.1493950611084
 31
0.0
  0
LINE
  5
22A
330
22
100
AcDbEntity
  8
_4-2_
  6
Continuous
 62
     7
100
AcDbLine
 10
787.4468664953974
 20
934.1493950611084
 30
0.0
 11
787.5058571136162
 21
934.2422403834849
 31
0.0
  0
LINE
  5
22B
330
22
100
AcDbEntity
  8
_4-2_
  6
Continuous
 62
     7
100
AcDbLine
 10
787.5058571136162
 20
934.2422403834849
 30
0.0
 11
787.5685127993302
 21
934.3330910345937
 31
0.0
  0
LINE
  5
22C
330
22
100
AcDbEntity
  8
_4-2_
  6
Continuous
 62
     7
100
AcDbLine
 10
787.5685127993302
 20
934.3330910345937
 30
0.0
 11
787.6339498857784
 21
934.4221092725913
 31
0.0
  0
LINE
  5
22D
330
22
100
AcDbEntity
  8
_4-2_
  6
Continuous
 62
     7
100
AcDbLine
 10
787.6339498857784
 20
934.4221092725913
 30
0.0
 11
787.672829623077
 21
934.4729641770914
 31
0.0
  0
LINE
  5
22E
330
22
100
AcDbEntity
  8
_4-2_
  6
Continuous
 62
     7
100
AcDbLine
 10
787.672829623077
 20
934.4729641770914
 30
0.0
 11
787.7192147942878
 21
934.5321414225944
 31
0.0
  0
LINE
  5
22F
330
22
100
AcDbEntity
  8
_4-2_
  6
Continuous
 62
     7
100
AcDbLine
 10
787.7192147942878
 20
934.5321414225944
 30
0.0
 11
787.8006053818526
 21
934.6325906687573
 31
0.0
  0
LINE
  5
230
330
22
100
AcDbEntity
  8
_4-2_
  6
Continuous
 62
     7
100
AcDbLine
 10
787.8006053818526
 20
934.6325906687573
 30
0.0
 11
787.883637768865
 21
934.7312573952537
 31
0.0
  0
LINE
  5
231
330
22
100
AcDbEntity
  8
_4-2_
  6
Continuous
 62
     7
100
AcDbLine
 10
787.883637768865
 20
934.7312573952537
 30
0.0
 11
787.9681366051953
 21
934.8283952036696
 31
0.0
  0
LINE
  5
232
330
22
100
AcDbEntity
  8
_4-2_
  6
Continuous
 62
     7
100
AcDbLine
 10
787.9681366051953
 20
934.8283952036696
 30
0.0
 11
788.0539265407104
 21
934.9242576955976
 31
0.0
  0
LINE
  5
233
330
22
100
AcDbEntity
  8
_4-2_
  6
Continuous
 62
     7
100
AcDbLine
 10
788.0539265407104
 20
934.9242576955976
 30
0.0
 11
788.1408322252775
 21
935.019098472633
 31
0.0
  0
LINE
  5
234
330
22
100
AcDbEntity
  8
_4-2_
  6
Continuous
 62
     7
100
AcDbLine
 10
788.1408322252775
 20
935.019098472633
 30
0.0
 11
788.1916796614745
 21
935.0737379057616
 31
0.0
  0
LINE
  5
235
330
22
100
AcDbEntity
  8
_4-2_
  6
Continuous
 62
     7
100
AcDbLine
 10
788.1916796614745
 20
935.0737379057616
 30
0.0
 11
788.2452015823571
 21
935.1306567647613
 31
0.0
  0
LINE
  5
236
330
22
100
AcDbEntity
  8
_4-2_
  6
Continuous
 62
     7
100
AcDbLine
 10
788.2452015823571
 20
935.1306567647613
 30
0.0
 11
788.338449931299
 21
935.2279703577805
 31
0.0
  0
LINE
  5
237
330
22
100
AcDbEntity
  8
_4-2_
  6
Continuous
 62
     7
100
AcDbLine
 10
788.338449931299
 20
935.2279703577805
 30
0.0
 11
788.4332938147815
 21
935.3238115942808
 31
0.0
  0
LINE
  5
238
330
22
100
AcDbEntity
  8
_4-2_
  6
Continuous
 62
     7
100
AcDbLine
 10
788.4332938147815
 20
935.3238115942808
 30
0.0
 11
788.5301619894699
 21
935.4176788686052
 31
0.0
  0
LINE
  5
239
330
22
100
AcDbEntity
  8
_4-2_
  6
Continuous
 62
     7
100
AcDbLine
 10
788.5301619894699
 20
935.4176788686052
 30
0.0
 11
788.629483212037
 21
935.5090705751058
 31
0.0
  0
LINE
  5
23A
330
22
100
AcDbEntity
  8
_4-2_
  6
Continuous
 62
     7
100
AcDbLine
 10
788.629483212037
 20
935.5090705751058
 30
0.0
 11
788.7316862391514
 21
935.5974851081215
 31
0.0
  0
LINE
  5
23B
330
22
100
AcDbEntity
  8
_4-2_
  6
Continuous
 62
     7
100
AcDbLine
 10
788.7316862391514
 20
935.5974851081215
 30
0.0
 11
788.7924533901422
 21
935.6472037376741
 31
0.0
  0
LINE
  5
23C
330
22
100
AcDbEntity
  8
_4-2_
  6
Continuous
 62
     7
100
AcDbLine
 10
788.7924533901422
 20
935.6472037376741
 30
0.0
 11
788.8472369523559
 21
935.6901570829815
 31
0.0
  0
LINE
  5
23D
330
22
100
AcDbEntity
  8
_4-2_
  6
Continuous
 62
     7
100
AcDbLine
 10
788.8472369523559
 20
935.6901570829815
 30
0.0
 11
788.9438701398058
 21
935.7615400628585
 31
0.0
  0
LINE
  5
23E
330
22
100
AcDbEntity
  8
_4-2_
  6
Continuous
 62
     7
100
AcDbLine
 10
788.9438701398058
 20
935.7615400628585
 30
0.0
 11
789.0432233543005
 21
935.8290229934391
 31
0.0
  0
LINE
  5
23F
330
22
100
AcDbEntity
  8
_4-2_
  6
Continuous
 62
     7
100
AcDbLine
 10
789.0432233543005
 20
935.8290229934391
 30
0.0
 11
789.1452525150669
 21
935.89200751308
 31
0.0
  0
LINE
  5
240
330
22
100
AcDbEntity
  8
_4-2_
  6
Continuous
 62
     7
100
AcDbLine
 10
789.1452525150669
 20
935.89200751308
 30
0.0
 11
789.2499135413356
 21
935.9498952601351
 31
0.0
  0
LINE
  5
241
330
22
100
AcDbEntity
  8
_4-2_
  6
Continuous
 62
     7
100
AcDbLine
 10
789.2499135413356
 20
935.9498952601351
 30
0.0
 11
789.3571623523382
 21
936.0020878729553
 31
0.0
  0
LINE
  5
242
330
22
100
AcDbEntity
  8
_4-2_
  6
Continuous
 62
     7
100
AcDbLine
 10
789.3571623523382
 20
936.0020878729553
 30
0.0
 11
789.4205350155687
 21
936.0295142922817
 31
0.0
  0
LINE
  5
243
330
22
100
AcDbEntity
  8
_4-2_
  6
Continuous
 62
     7
100
AcDbLine
 10
789.4205350155687
 20
936.0295142922817
 30
0.0
 11
789.4917259485304
 21
936.0573447380696
 31
0.0
  0
LINE
  5
244
330
22
100
AcDbEntity
  8
_4-2_
  6
Continuous
 62
     7
100
AcDbLine
 10
789.4917259485304
 20
936.0573447380696
 30
0.0
 11
789.6166562346899
 21
936.0994138808273
 31
0.0
  0
LINE
  5
245
330
22
100
AcDbEntity
  8
_4-2_
  6
Continuous
 62
     7
100
AcDbLine
 10
789.6166562346899
 20
936.0994138808273
 30
0.0
 11
789.7439700464758
 21
936.1347911005147
 31
0.0
  0
LINE
  5
246
330
22
100
AcDbEntity
  8
_4-2_
  6
Continuous
 62
     7
100
AcDbLine
 10
789.7439700464758
 20
936.1347911005147
 30
0.0
 11
789.873219469481
 21
936.1644003965967
 31
0.0
  0
LINE
  5
247
330
22
100
AcDbEntity
  8
_4-2_
  6
Continuous
 62
     7
100
AcDbLine
 10
789.873219469481
 20
936.1644003965967
 30
0.0
 11
790.0039565892995
 21
936.1891657685399
 31
0.0
  0
LINE
  5
248
330
22
100
AcDbEntity
  8
_4-2_
  6
Continuous
 62
     7
100
AcDbLine
 10
790.0039565892995
 20
936.1891657685399
 30
0.0
 11
790.1357334915212
 21
936.2100112158126
 31
0.0
  0
LINE
  5
249
330
22
100
AcDbEntity
  8
_4-2_
  6
Continuous
 62
     7
100
AcDbLine
 10
790.1357334915212
 20
936.2100112158126
 30
0.0
 11
790.2124640215413
 21
936.2206695695844
 31
0.0
  0
LINE
  5
24A
330
22
100
AcDbEntity
  8
_4-2_
  6
Continuous
 62
     7
100
AcDbLine
 10
790.2124640215413
 20
936.2206695695844
 30
0.0
 11
790.3052496278428
 21
936.2323676941263
 31
0.0
  0
LINE
  5
24B
330
22
100
AcDbEntity
  8
_4-2_
  6
Continuous
 62
     7
100
AcDbLine
 10
790.3052496278428
 20
936.2323676941263
 30
0.0
 11
790.4654497936462
 21
936.2491844198075
 31
0.0
  0
LINE
  5
24C
330
22
100
AcDbEntity
  8
_4-2_
  6
Continuous
 62
     7
100
AcDbLine
 10
790.4654497936462
 20
936.2491844198075
 30
0.0
 11
790.6256968740092
 21
936.2609708243692
 31
0.0
  0
LINE
  5
24D
330
22
100
AcDbEntity
  8
_4-2_
  6
Continuous
 62
     7
100
AcDbLine
 10
790.6256968740092
 20
936.2609708243692
 30
0.0
 11
790.7857142719035
 21
936.2668121313594
 31
0.0
  0
LINE
  5
24E
330
22
100
AcDbEntity
  8
_4-2_
  6
Continuous
 62
     7
100
AcDbLine
 10
790.7857142719035
 20
936.2668121313594
 30
0.0
 11
790.9452253902998
 21
936.2657935643305
 31
0.0
  0
LINE
  5
24F
330
22
100
AcDbEntity
  8
_4-2_
  6
Continuous
 62
     7
100
AcDbLine
 10
790.9452253902998
 20
936.2657935643305
 30
0.0
 11
791.1039536321685
 21
936.2570003468297
 31
0.0
  0
LINE
  5
250
330
22
100
AcDbEntity
  8
_4-2_
  6
Continuous
 62
     7
100
AcDbLine
 10
791.1039536321685
 20
936.2570003468297
 30
0.0
 11
791.1955483048154
 21
936.2479774663416
 31
0.0
  0
LINE
  5
251
330
22
100
AcDbEntity
  8
_4-2_
  6
Continuous
 62
     7
100
AcDbLine
 10
791.1955483048154
 20
936.2479774663416
 30
0.0
 11
791.2626384245469
 21
936.2394213500376
 31
0.0
  0
LINE
  5
252
330
22
100
AcDbEntity
  8
_4-2_
  6
Continuous
 62
     7
100
AcDbLine
 10
791.2626384245469
 20
936.2394213500376
 30
0.0
 11
791.3779197125279
 21
936.2213215805127
 31
0.0
  0
LINE
  5
253
330
22
100
AcDbEntity
  8
_4-2_
  6
Continuous
 62
     7
100
AcDbLine
 10
791.3779197125279
 20
936.2213215805127
 30
0.0
 11
791.4929014984273
 21
936.1998744045516
 31
0.0
  0
LINE
  5
254
330
22
100
AcDbEntity
  8
_4-2_
  6
Continuous
 62
     7
100
AcDbLine
 10
791.4929014984273
 20
936.1998744045516
 30
0.0
 11
791.6078115208393
 21
936.1761151382829
 31
0.0
  0
LINE
  5
255
330
22
100
AcDbEntity
  8
_4-2_
  6
Continuous
 62
     7
100
AcDbLine
 10
791.6078115208393
 20
936.1761151382829
 30
0.0
 11
791.7228775183514
 21
936.1510790978424
 31
0.0
  0
LINE
  5
256
330
22
100
AcDbEntity
  8
_4-2_
  6
Continuous
 62
     7
100
AcDbLine
 10
791.7228775183514
 20
936.1510790978424
 30
0.0
 11
791.8383272295567
 21
936.1258015993577
 31
0.0
  0
LINE
  5
257
330
22
100
AcDbEntity
  8
_4-2_
  6
Continuous
 62
     7
100
AcDbLine
 10
791.8383272295567
 20
936.1258015993577
 30
0.0
 11
791.9055536205154
 21
936.111437982552
 31
0.0
  0
LINE
  5
258
330
22
100
AcDbEntity
  8
_4-2_
  6
Continuous
 62
     7
100
AcDbLine
 10
791.9055536205154
 20
936.111437982552
 30
0.0
 11
791.981873140096
 21
936.0956419066178
 31
0.0
  0
LINE
  5
259
330
22
100
AcDbEntity
  8
_4-2_
  6
Continuous
 62
     7
100
AcDbLine
 10
791.981873140096
 20
936.0956419066178
 30
0.0
 11
792.113621904823
 21
936.0685484589703
 31
0.0
  0
LINE
  5
25A
330
22
100
AcDbEntity
  8
_4-2_
  6
Continuous
 62
     7
100
AcDbLine
 10
792.113621904823
 20
936.0685484589703
 30
0.0
 11
792.2446876697223
 21
936.0397152351289
 31
0.0
  0
LINE
  5
25B
330
22
100
AcDbEntity
  8
_4-2_
  6
Continuous
 62
     7
100
AcDbLine
 10
792.2446876697223
 20
936.0397152351289
 30
0.0
 11
792.3740357630149
 21
936.0069114590626
 31
0.0
  0
LINE
  5
25C
330
22
100
AcDbEntity
  8
_4-2_
  6
Continuous
 62
     7
100
AcDbLine
 10
792.3740357630149
 20
936.0069114590626
 30
0.0
 11
792.5006315129234
 21
935.9679063547494
 31
0.0
  0
LINE
  5
25D
330
22
100
AcDbEntity
  8
_4-2_
  6
Continuous
 62
     7
100
AcDbLine
 10
792.5006315129234
 20
935.9679063547494
 30
0.0
 11
792.6234402476734
 21
935.9204691461677
 31
0.0
  0
LINE
  5
25E
330
22
100
AcDbEntity
  8
_4-2_
  6
Continuous
 62
     7
100
AcDbLine
 10
792.6234402476734
 20
935.9204691461677
 30
0.0
 11
792.6925263889984
 21
935.8882129332553
 31
0.0
  0
LINE
  5
25F
330
22
100
AcDbEntity
  8
_4-2_
  6
Continuous
 62
     7
100
AcDbLine
 10
792.6925263889984
 20
935.8882129332553
 30
0.0
 11
792.7546027834863
 21
935.8550345133041
 31
0.0
  0
LINE
  5
260
330
22
100
AcDbEntity
  8
_4-2_
  6
Continuous
 62
     7
100
AcDbLine
 10
792.7546027834863
 20
935.8550345133041
 30
0.0
 11
792.8579927304803
 21
935.7904805876184
 31
0.0
  0
LINE
  5
261
330
22
100
AcDbEntity
  8
_4-2_
  6
Continuous
 62
     7
100
AcDbLine
 10
792.8579927304803
 20
935.7904805876184
 30
0.0
 11
792.9567749625788
 21
935.717637067785
 31
0.0
  0
LINE
  5
262
330
22
100
AcDbEntity
  8
_4-2_
  6
Continuous
 62
     7
100
AcDbLine
 10
792.9567749625788
 20
935.717637067785
 30
0.0
 11
793.0509468665901
 21
935.6376828969636
 31
0.0
  0
LINE
  5
263
330
22
100
AcDbEntity
  8
_4-2_
  6
Continuous
 62
     7
100
AcDbLine
 10
793.0509468665901
 20
935.6376828969636
 30
0.0
 11
793.1405058293193
 21
935.551797018309
 31
0.0
  0
LINE
  5
264
330
22
100
AcDbEntity
  8
_4-2_
  6
Continuous
 62
     7
100
AcDbLine
 10
793.1405058293193
 20
935.551797018309
 30
0.0
 11
793.2254492375715
 21
935.4611583749763
 31
0.0
  0
LINE
  5
265
330
22
100
AcDbEntity
  8
_4-2_
  6
Continuous
 62
     7
100
AcDbLine
 10
793.2254492375715
 20
935.4611583749763
 30
0.0
 11
793.2726005375627
 21
935.4068748099781
 31
0.0
  0
LINE
  5
266
330
22
100
AcDbEntity
  8
_4-2_
  6
Continuous
 62
     7
100
AcDbLine
 10
793.2726005375627
 20
935.4068748099781
 30
0.0
 11
793.3252849277947
 21
935.3427701924855
 31
0.0
  0
LINE
  5
267
330
22
100
AcDbEntity
  8
_4-2_
  6
Continuous
 62
     7
100
AcDbLine
 10
793.3252849277947
 20
935.3427701924855
 30
0.0
 11
793.4116423398358
 21
935.2294670614018
 31
0.0
  0
LINE
  5
268
330
22
100
AcDbEntity
  8
_4-2_
  6
Continuous
 62
     7
100
AcDbLine
 10
793.4116423398358
 20
935.2294670614018
 30
0.0
 11
793.4929612567225
 21
935.1130766397639
 31
0.0
  0
LINE
  5
269
330
22
100
AcDbEntity
  8
_4-2_
  6
Continuous
 62
     7
100
AcDbLine
 10
793.4929612567225
 20
935.1130766397639
 30
0.0
 11
793.5699736954656
 21
934.994097851584
 31
0.0
  0
LINE
  5
26A
330
22
100
AcDbEntity
  8
_4-2_
  6
Continuous
 62
     7
100
AcDbLine
 10
793.5699736954656
 20
934.994097851584
 30
0.0
 11
793.643411673072
 21
934.8730296208691
 31
0.0
  0
LINE
  5
26B
330
22
100
AcDbEntity
  8
_4-2_
  6
Continuous
 62
     7
100
AcDbLine
 10
793.643411673072
 20
934.8730296208691
 30
0.0
 11
793.7140072065529
 21
934.7503708716297
 31
0.0
  0
LINE
  5
26C
330
22
100
AcDbEntity
  8
_4-2_
  6
Continuous
 62
     7
100
AcDbLine
 10
793.7140072065529
 20
934.7503708716297
 30
0.0
 11
793.7539386608388
 21
934.6786966234848
 31
0.0
  0
LINE
  5
26D
330
22
100
AcDbEntity
  8
_4-2_
  6
Continuous
 62
     7
100
AcDbLine
 10
793.7539386608388
 20
934.6786966234848
 30
0.0
 11
793.7959807655284
 21
934.6017800033999
 31
0.0
  0
LINE
  5
26E
330
22
100
AcDbEntity
  8
_4-2_
  6
Continuous
 62
     7
100
AcDbLine
 10
793.7959807655284
 20
934.6017800033999
 30
0.0
 11
793.8672190412852
 21
934.4685257806691
 31
0.0
  0
LINE
  5
26F
330
22
100
AcDbEntity
  8
_4-2_
  6
Continuous
 62
     7
100
AcDbLine
 10
793.8672190412852
 20
934.4685257806691
 30
0.0
 11
793.9372906340135
 21
934.3345901559587
 31
0.0
  0
LINE
  5
270
330
22
100
AcDbEntity
  8
_4-2_
  6
Continuous
 62
     7
100
AcDbLine
 10
793.9372906340135
 20
934.3345901559587
 30
0.0
 11
794.006676014792
 21
934.2001218677868
 31
0.0
  0
LINE
  5
271
330
22
100
AcDbEntity
  8
_4-2_
  6
Continuous
 62
     7
100
AcDbLine
 10
794.006676014792
 20
934.2001218677868
 30
0.0
 11
794.0758556547051
 21
934.0652696546753
 31
0.0
  0
LINE
  5
272
330
22
100
AcDbEntity
  8
_4-2_
  6
Continuous
 62
     7
100
AcDbLine
 10
794.0758556547051
 20
934.0652696546753
 30
0.0
 11
794.1453100248281
 21
933.93018225514
 31
0.0
  0
LINE
  5
273
330
22
100
AcDbEntity
  8
_4-2_
  6
Continuous
 62
     7
100
AcDbLine
 10
794.1453100248281
 20
933.93018225514
 30
0.0
 11
794.1859087714727
 21
933.8517824117028
 31
0.0
  0
LINE
  5
274
330
22
100
AcDbEntity
  8
_4-2_
  6
Continuous
 62
     7
100
AcDbLine
 10
794.1859087714727
 20
933.8517824117028
 30
0.0
 11
794.2411671803324
 21
933.7462647973234
 31
0.0
  0
LINE
  5
275
330
22
100
AcDbEntity
  8
_4-2_
  6
Continuous
 62
     7
100
AcDbLine
 10
794.2411671803324
 20
933.7462647973234
 30
0.0
 11
794.3389826902887
 21
933.5653924436432
 31
0.0
  0
LINE
  5
276
330
22
100
AcDbEntity
  8
_4-2_
  6
Continuous
 62
     7
100
AcDbLine
 10
794.3389826902887
 20
933.5653924436432
 30
0.0
 11
794.441621186055
 21
933.3874498334855
 31
0.0
  0
LINE
  5
277
330
22
100
AcDbEntity
  8
_4-2_
  6
Continuous
 62
     7
100
AcDbLine
 10
794.441621186055
 20
933.3874498334855
 30
0.0
 11
794.5509486781714
 21
933.2142914409747
 31
0.0
  0
LINE
  5
278
330
22
100
AcDbEntity
  8
_4-2_
  6
Continuous
 62
     7
100
AcDbLine
 10
794.5509486781714
 20
933.2142914409747
 30
0.0
 11
794.6688311771719
 21
933.047771740235
 31
0.0
  0
LINE
  5
279
330
22
100
AcDbEntity
  8
_4-2_
  6
Continuous
 62
     7
100
AcDbLine
 10
794.6688311771719
 20
933.047771740235
 30
0.0
 11
794.7971346935924
 21
932.8897452053842
 31
0.0
  0
LINE
  5
27A
330
22
100
AcDbEntity
  8
_4-2_
  6
Continuous
 62
     7
100
AcDbLine
 10
794.7971346935924
 20
932.8897452053842
 30
0.0
 11
794.8770609484847
 21
932.8027121430208
 31
0.0
  0
LINE
  5
27B
330
22
100
AcDbEntity
  8
_4-2_
  6
Continuous
 62
     7
100
AcDbLine
 10
794.8770609484847
 20
932.8027121430208
 30
0.0
 11
794.9059454311748
 21
932.7732715143271
 31
0.0
  0
LINE
  5
27C
330
22
100
AcDbEntity
  8
_4-2_
  6
Continuous
 62
     7
100
AcDbLine
 10
794.9059454311748
 20
932.7732715143271
 30
0.0
 11
794.9570074696361
 21
932.7236808299314
 31
0.0
  0
LINE
  5
27D
330
22
100
AcDbEntity
  8
_4-2_
  6
Continuous
 62
     7
100
AcDbLine
 10
794.9570074696361
 20
932.7236808299314
 30
0.0
 11
795.009633964845
 21
932.6756807615312
 31
0.0
  0
LINE
  5
27E
330
22
100
AcDbEntity
  8
_4-2_
  6
Continuous
 62
     7
100
AcDbLine
 10
795.009633964845
 20
932.6756807615312
 30
0.0
 11
795.063787699528
 21
932.6294001969497
 31
0.0
  0
LINE
  5
27F
330
22
100
AcDbEntity
  8
_4-2_
  6
Continuous
 62
     7
100
AcDbLine
 10
795.063787699528
 20
932.6294001969497
 30
0.0
 11
795.1194314564259
 21
932.5849680240189
 31
0.0
  0
LINE
  5
280
330
22
100
AcDbEntity
  8
_4-2_
  6
Continuous
 62
     7
100
AcDbLine
 10
795.1194314564259
 20
932.5849680240189
 30
0.0
 11
795.1765280182711
 21
932.5425131305658
 31
0.0
  0
LINE
  5
281
330
22
100
AcDbEntity
  8
_4-2_
  6
Continuous
 62
     7
100
AcDbLine
 10
795.1765280182711
 20
932.5425131305658
 30
0.0
 11
795.210295033828
 21
932.5188460703204
 31
0.0
  0
LINE
  5
282
330
22
100
AcDbEntity
  8
_4-2_
  6
Continuous
 62
     7
100
AcDbLine
 10
795.210295033828
 20
932.5188460703204
 30
0.0
 11
795.2662959157602
 21
932.4817881388344
 31
0.0
  0
LINE
  5
283
330
22
100
AcDbEntity
  8
_4-2_
  6
Continuous
 62
     7
100
AcDbLine
 10
795.2662959157602
 20
932.4817881388344
 30
0.0
 11
795.3651655683667
 21
932.4215298487137
 31
0.0
  0
LINE
  5
284
330
22
100
AcDbEntity
  8
_4-2_
  6
Continuous
 62
     7
100
AcDbLine
 10
795.3651655683667
 20
932.4215298487137
 30
0.0
 11
795.4660476227627
 21
932.3644495930444
 31
0.0
  0
LINE
  5
285
330
22
100
AcDbEntity
  8
_4-2_
  6
Continuous
 62
     7
100
AcDbLine
 10
795.4660476227627
 20
932.3644495930444
 30
0.0
 11
795.5678725904454
 21
932.3088929002601
 31
0.0
  0
LINE
  5
286
330
22
100
AcDbEntity
  8
_4-2_
  6
Continuous
 62
     7
100
AcDbLine
 10
795.5678725904454
 20
932.3088929002601
 30
0.0
 11
795.6695709829158
 21
932.2532052988005
 31
0.0
  0
LINE
  5
287
330
22
100
AcDbEntity
  8
_4-2_
  6
Continuous
 62
     7
100
AcDbLine
 10
795.6695709829158
 20
932.2532052988005
 30
0.0
 11
795.7700733116734
 21
932.1957323170979
 31
0.0
  0
LINE
  5
288
330
22
100
AcDbEntity
  8
_4-2_
  6
Continuous
 62
     7
100
AcDbLine
 10
795.7700733116734
 20
932.1957323170979
 30
0.0
 11
795.8273951918749
 21
932.1609279786549
 31
0.0
  0
LINE
  5
289
330
22
100
AcDbEntity
  8
_4-2_
  6
Continuous
 62
     7
100
AcDbLine
 10
795.8273951918749
 20
932.1609279786549
 30
0.0
 11
795.8851520621261
 21
932.1238249974841
 31
0.0
  0
LINE
  5
28A
330
22
100
AcDbEntity
  8
_4-2_
  6
Continuous
 62
     7
100
AcDbLine
 10
795.8851520621261
 20
932.1238249974841
 30
0.0
 11
795.9826164384731
 21
932.0566363963781
 31
0.0
  0
LINE
  5
28B
330
22
100
AcDbEntity
  8
_4-2_
  6
Continuous
 62
     7
100
AcDbLine
 10
795.9826164384731
 20
932.0566363963781
 30
0.0
 11
796.077818027362
 21
931.9860219026487
 31
0.0
  0
LINE
  5
28C
330
22
100
AcDbEntity
  8
_4-2_
  6
Continuous
 62
     7
100
AcDbLine
 10
796.077818027362
 20
931.9860219026487
 30
0.0
 11
796.1712408328208
 21
931.9127343698983
 31
0.0
  0
LINE
  5
28D
330
22
100
AcDbEntity
  8
_4-2_
  6
Continuous
 62
     7
100
AcDbLine
 10
796.1712408328208
 20
931.9127343698983
 30
0.0
 11
796.2633688588789
 21
931.8375266517456
 31
0.0
  0
LINE
  5
28E
330
22
100
AcDbEntity
  8
_4-2_
  6
Continuous
 62
     7
100
AcDbLine
 10
796.2633688588789
 20
931.8375266517456
 30
0.0
 11
796.354686109564
 21
931.761151601793
 31
0.0
  0
LINE
  5
28F
330
22
100
AcDbEntity
  8
_4-2_
  6
Continuous
 62
     7
100
AcDbLine
 10
796.354686109564
 20
931.761151601793
 30
0.0
 11
796.4074693404403
 21
931.7166158648594
 31
0.0
  0
LINE
  5
290
330
22
100
AcDbEntity
  8
_4-2_
  6
Continuous
 62
     7
100
AcDbLine
 10
796.4074693404403
 20
931.7166158648594
 30
0.0
 11
796.4736205052028
 21
931.6606904999208
 31
0.0
  0
LINE
  5
291
330
22
100
AcDbEntity
  8
_4-2_
  6
Continuous
 62
     7
100
AcDbLine
 10
796.4736205052028
 20
931.6606904999208
 30
0.0
 11
796.587103491646
 21
931.5637635912985
 31
0.0
  0
LINE
  5
292
330
22
100
AcDbEntity
  8
_4-2_
  6
Continuous
 62
     7
100
AcDbLine
 10
796.587103491646
 20
931.5637635912985
 30
0.0
 11
796.6990876495366
 21
931.4653953611491
 31
0.0
  0
LINE
  5
293
330
22
100
AcDbEntity
  8
_4-2_
  6
Continuous
 62
     7
100
AcDbLine
 10
796.6990876495366
 20
931.4653953611491
 30
0.0
 11
796.8086702284279
 21
931.364651487445
 31
0.0
  0
LINE
  5
294
330
22
100
AcDbEntity
  8
_4-2_
  6
Continuous
 62
     7
100
AcDbLine
 10
796.8086702284279
 20
931.364651487445
 30
0.0
 11
796.9149484778709
 21
931.2605976481657
 31
0.0
  0
LINE
  5
295
330
22
100
AcDbEntity
  8
_4-2_
  6
Continuous
 62
     7
100
AcDbLine
 10
796.9149484778709
 20
931.2605976481657
 30
0.0
 11
797.0170196474189
 21
931.1522995212841
 31
0.0
  0
LINE
  5
296
330
22
100
AcDbEntity
  8
_4-2_
  6
Continuous
 62
     7
100
AcDbLine
 10
797.0170196474189
 20
931.1522995212841
 30
0.0
 11
797.0739375111316
 21
931.0871737036498
 31
0.0
  0
LINE
  5
297
330
22
100
AcDbEntity
  8
_4-2_
  6
Continuous
 62
     7
100
AcDbLine
 10
797.0739375111316
 20
931.0871737036498
 30
0.0
 11
797.1062245565303
 21
931.0483691564494
 31
0.0
  0
LINE
  5
298
330
22
100
AcDbEntity
  8
_4-2_
  6
Continuous
 62
     7
100
AcDbLine
 10
797.1062245565303
 20
931.0483691564494
 30
0.0
 11
797.1601777504713
 21
930.979948694051
 31
0.0
  0
LINE
  5
299
330
22
100
AcDbEntity
  8
_4-2_
  6
Continuous
 62
     7
100
AcDbLine
 10
797.1601777504713
 20
930.979948694051
 30
0.0
 11
797.2116526705531
 21
930.9096354079521
 31
0.0
  0
LINE
  5
29A
330
22
100
AcDbEntity
  8
_4-2_
  6
Continuous
 62
     7
100
AcDbLine
 10
797.2116526705531
 20
930.9096354079521
 30
0.0
 11
797.26029060227
 21
930.8374598250091
 31
0.0
  0
LINE
  5
29B
330
22
100
AcDbEntity
  8
_4-2_
  6
Continuous
 62
     7
100
AcDbLine
 10
797.26029060227
 20
930.8374598250091
 30
0.0
 11
797.3057328311098
 21
930.7634524720743
 31
0.0
  0
LINE
  5
29C
330
22
100
AcDbEntity
  8
_4-2_
  6
Continuous
 62
     7
100
AcDbLine
 10
797.3057328311098
 20
930.7634524720743
 30
0.0
 11
797.3476206425653
 21
930.6876438760108
 31
0.0
  0
LINE
  5
29D
330
22
100
AcDbEntity
  8
_4-2_
  6
Continuous
 62
     7
100
AcDbLine
 10
797.3476206425653
 20
930.6876438760108
 30
0.0
 11
797.3701455869923
 21
930.6428615898564
 31
0.0
  0
LINE
  5
29E
330
22
100
AcDbEntity
  8
_4-2_
  6
Continuous
 62
     7
100
AcDbLine
 10
797.3701455869923
 20
930.6428615898564
 30
0.0
 11
797.399302995343
 21
930.5794391579526
 31
0.0
  0
LINE
  5
29F
330
22
100
AcDbEntity
  8
_4-2_
  6
Continuous
 62
     7
100
AcDbLine
 10
797.399302995343
 20
930.5794391579526
 30
0.0
 11
797.4439822193118
 21
930.467711421045
 31
0.0
  0
LINE
  5
2A0
330
22
100
AcDbEntity
  8
_4-2_
  6
Continuous
 62
     7
100
AcDbLine
 10
797.4439822193118
 20
930.467711421045
 30
0.0
 11
797.4827018059522
 21
930.3534486597008
 31
0.0
  0
LINE
  5
2A1
330
22
100
AcDbEntity
  8
_4-2_
  6
Continuous
 62
     7
100
AcDbLine
 10
797.4827018059522
 20
930.3534486597008
 30
0.0
 11
797.5167629861198
 21
930.2372043727064
 31
0.0
  0
LINE
  5
2A2
330
22
100
AcDbEntity
  8
_4-2_
  6
Continuous
 62
     7
100
AcDbLine
 10
797.5167629861198
 20
930.2372043727064
 30
0.0
 11
797.5474669906724
 21
930.119532058848
 31
0.0
  0
LINE
  5
2A3
330
22
100
AcDbEntity
  8
_4-2_
  6
Continuous
 62
     7
100
AcDbLine
 10
797.5474669906724
 20
930.119532058848
 30
0.0
 11
797.5761150504718
 21
930.0009852169091
 31
0.0
  0
LINE
  5
2A4
330
22
100
AcDbEntity
  8
_4-2_
  6
Continuous
 62
     7
100
AcDbLine
 10
797.5761150504718
 20
930.0009852169091
 30
0.0
 11
797.5923016438913
 21
929.9320454471196
 31
0.0
  0
LINE
  5
2A5
330
22
100
AcDbEntity
  8
_4-2_
  6
Continuous
 62
     7
100
AcDbLine
 10
754.624879229757
 20
929.9320454471196
 30
0.0
 11
790.8748792297569
 21
929.9320454471196
 31
0.0
  0
LINE
  5
2A6
330
22
100
AcDbEntity
  8
_4-4_
  6
Continuous
 62
     2
100
AcDbLine
 10
790.8748792297569
 20
933.0570454471196
 30
0.0
 11
790.8748792297569
 21
929.9320454471196
 31
0.0
  0
LINE
  5
2A7
330
22
100
AcDbEntity
  8
_4-4_
  6
Continuous
 62
     2
100
AcDbLine
 10
759.6248792297569
 20
933.0570454471196
 30
0.0
 11
790.8748792297569
 21
933.0570454471196
 31
0.0
  0
LINE
  5
2A8
330
22
100
AcDbEntity
  8
_4-2_
  6
Continuous
 62
     7
100
AcDbLine
 10
754.624879229757
 20
1170.557045447119
 30
0.0
 11
754.624879229757
 21
926.8070454471196
 31
0.0
  0
ARC
  5
2A9
330
22
100
AcDbEntity
  8
_4-2_
  6
Continuous
 62
     7
100
AcDbCircle
 10
748.3748792297581
 20
1170.557045447119
 30
0.0
 40
6.25
100
AcDbArc
 50
0.0
 51
90.00000000000003
  0
ARC
  5
2AA
330
22
100
AcDbEntity
  8
_4-4_
  6
Continuous
 62
     2
100
AcDbCircle
 10
748.3748792297581
 20
1170.557045447119
 30
0.0
 40
9.375
100
AcDbArc
 50
0.0
 51
90.00000000000003
  0
LINE
  5
2AB
330
22
100
AcDbEntity
  8
_4-4_
  6
Continuous
 62
     2
100
AcDbLine
 10
757.749879229757
 20
934.932045447122
 30
0.0
 11
757.749879229757
 21
1170.557045447119
 31
0.0
  0
LINE
  5
2AC
330
22
100
AcDbEntity
  8
_4-2_
  6
Continuous
 62
     7
100
AcDbLine
 10
1020.249879229757
 20
935.5570454471195
 30
0.0
 11
1026.499879229757
 21
935.5570454471195
 31
0.0
  0
LINE
  5
2AD
330
22
100
AcDbEntity
  8
_4-2_
  6
Continuous
 62
     7
100
AcDbLine
 10
1026.499879229757
 20
934.3070454471218
 30
0.0
 11
1026.499879229757
 21
935.5570454471195
 31
0.0
  0
LINE
  5
2AE
330
22
100
AcDbEntity
  8
_4-2_
  6
Continuous
 62
     7
100
AcDbLine
 10
1020.249879229757
 20
934.3070454471218
 30
0.0
 11
1020.249879229757
 21
935.5570454471195
 31
0.0
  0
LINE
  5
2AF
330
22
100
AcDbEntity
  8
_4-7_
  6
Continuous
 62
     7
100
AcDbLine
 10
1022.124879229757
 20
934.3070454471218
 30
0.0
 11
1022.124879229757
 21
926.8070454471196
 31
0.0
  0
LINE
  5
2B0
330
22
100
AcDbEntity
  8
_4-7_
  6
Continuous
 62
     7
100
AcDbLine
 10
1024.624879229757
 20
934.3070454471218
 30
0.0
 11
1024.624879229757
 21
926.8070454471196
 31
0.0
  0
LINE
  5
2B1
330
22
100
AcDbEntity
  8
_4-2_
  6
Continuous
 62
     7
100
AcDbLine
 10
1021.187379229756
 20
937.4320454471218
 30
0.0
 11
1025.562379229757
 21
937.4320454471218
 31
0.0
  0
LINE
  5
2B2
330
22
100
AcDbEntity
  8
_4-2_
  6
Continuous
 62
     7
100
AcDbLine
 10
1021.187379229756
 20
935.5570454471195
 30
0.0
 11
1021.187379229756
 21
937.4320454471218
 31
0.0
  0
LINE
  5
2B3
330
22
100
AcDbEntity
  8
_4-2_
  6
Continuous
 62
     7
100
AcDbLine
 10
1025.562379229757
 20
935.5570454471195
 30
0.0
 11
1025.562379229757
 21
937.4320454471218
 31
0.0
  0
LINE
  5
2B4
330
22
100
AcDbEntity
  8
_4-2_
  6
Continuous
 62
     7
100
AcDbLine
 10
1024.624879229757
 20
935.5570454471195
 30
0.0
 11
1024.624879229757
 21
937.4320454471218
 31
0.0
  0
LINE
  5
2B5
330
22
100
AcDbEntity
  8
_4-2_
  6
Continuous
 62
     7
100
AcDbLine
 10
1022.124879229757
 20
935.5570454471195
 30
0.0
 11
1022.124879229757
 21
937.4320454471218
 31
0.0
  0
LINE
  5
2B6
330
22
100
AcDbEntity
  8
_4-2_
  6
Continuous
 62
     7
100
AcDbLine
 10
1030.791582806361
 20
934.3070454471218
 30
0.0
 11
1030.791582806361
 21
934.3070454471218
 31
0.0
  0
LINE
  5
2B7
330
22
100
AcDbEntity
  8
_4-2_
  6
Continuous
 62
     7
100
AcDbLine
 10
1030.791582806361
 20
934.3070454471218
 30
0.0
 11
1030.67890641379
 21
935.3373630954205
 31
0.0
  0
LINE
  5
2B8
330
22
100
AcDbEntity
  8
_4-2_
  6
Continuous
 62
     7
100
AcDbLine
 10
1030.67890641379
 20
935.3373630954205
 30
0.0
 11
1030.344300851248
 21
936.3363750633411
 31
0.0
  0
LINE
  5
2B9
330
22
100
AcDbEntity
  8
_4-2_
  6
Continuous
 62
     7
100
AcDbLine
 10
1030.344300851248
 20
936.3363750633411
 30
0.0
 11
1029.797932939435
 21
937.2737268777637
 31
0.0
  0
LINE
  5
2BA
330
22
100
AcDbEntity
  8
_4-2_
  6
Continuous
 62
     7
100
AcDbLine
 10
1029.797932939435
 20
937.2737268777637
 30
0.0
 11
1029.056403790875
 21
938.1209375781294
 31
0.0
  0
LINE
  5
2BB
330
22
100
AcDbEntity
  8
_4-2_
  6
Continuous
 62
     7
100
AcDbLine
 10
1029.056403790875
 20
938.1209375781294
 30
0.0
 11
1028.142244393516
 21
938.8522650960165
 31
0.0
  0
LINE
  5
2BC
330
22
100
AcDbEntity
  8
_4-2_
  6
Continuous
 62
     7
100
AcDbLine
 10
1028.142244393516
 20
938.8522650960165
 30
0.0
 11
1027.083231018059
 21
939.4454884148645
 31
0.0
  0
LINE
  5
2BD
330
22
100
AcDbEntity
  8
_4-2_
  6
Continuous
 62
     7
100
AcDbLine
 10
1027.083231018059
 20
939.4454884148645
 30
0.0
 11
1025.911541250031
 21
939.8825827443152
 31
0.0
  0
LINE
  5
2BE
330
22
100
AcDbEntity
  8
_4-2_
  6
Continuous
 62
     7
100
AcDbLine
 10
1025.911541250031
 20
939.8825827443152
 30
0.0
 11
1024.66277629013
 21
940.1502671943484
 31
0.0
  0
LINE
  5
2BF
330
22
100
AcDbEntity
  8
_4-2_
  6
Continuous
 62
     7
100
AcDbLine
 10
1024.66277629013
 20
940.1502671943484
 30
0.0
 11
1023.374879229757
 21
940.240408308405
 31
0.0
  0
LINE
  5
2C0
330
22
100
AcDbEntity
  8
_4-2_
  6
Continuous
 62
     7
100
AcDbLine
 10
1023.374879229757
 20
940.240408308405
 30
0.0
 11
1022.086982169384
 21
940.1502671943484
 31
0.0
  0
LINE
  5
2C1
330
22
100
AcDbEntity
  8
_4-2_
  6
Continuous
 62
     7
100
AcDbLine
 10
1022.086982169384
 20
940.1502671943484
 30
0.0
 11
1020.838217209482
 21
939.8825827443152
 31
0.0
  0
LINE
  5
2C2
330
22
100
AcDbEntity
  8
_4-2_
  6
Continuous
 62
     7
100
AcDbLine
 10
1020.838217209482
 20
939.8825827443152
 30
0.0
 11
1019.666527441454
 21
939.4454884148645
 31
0.0
  0
LINE
  5
2C3
330
22
100
AcDbEntity
  8
_4-2_
  6
Continuous
 62
     7
100
AcDbLine
 10
1019.666527441454
 20
939.4454884148645
 30
0.0
 11
1018.607514065998
 21
938.8522650960165
 31
0.0
  0
LINE
  5
2C4
330
22
100
AcDbEntity
  8
_4-2_
  6
Continuous
 62
     7
100
AcDbLine
 10
1018.607514065998
 20
938.8522650960165
 30
0.0
 11
1017.693354668638
 21
938.1209375781294
 31
0.0
  0
LINE
  5
2C5
330
22
100
AcDbEntity
  8
_4-2_
  6
Continuous
 62
     7
100
AcDbLine
 10
1017.693354668638
 20
938.1209375781294
 30
0.0
 11
1016.951825520078
 21
937.2737268777637
 31
0.0
  0
LINE
  5
2C6
330
22
100
AcDbEntity
  8
_4-2_
  6
Continuous
 62
     7
100
AcDbLine
 10
1016.951825520078
 20
937.2737268777637
 30
0.0
 11
1016.405457608265
 21
936.3363750633411
 31
0.0
  0
LINE
  5
2C7
330
22
100
AcDbEntity
  8
_4-2_
  6
Continuous
 62
     7
100
AcDbLine
 10
1016.405457608265
 20
936.3363750633411
 30
0.0
 11
1016.070852045723
 21
935.3373630954205
 31
0.0
  0
LINE
  5
2C8
330
22
100
AcDbEntity
  8
_4-2_
  6
Continuous
 62
     7
100
AcDbLine
 10
1016.070852045723
 20
935.3373630954205
 30
0.0
 11
1015.958175653153
 21
934.3070454471218
 31
0.0
  0
LINE
  5
2C9
330
22
100
AcDbEntity
  8
_4-2_
  6
Continuous
 62
     7
100
AcDbLine
 10
1015.958175653153
 20
934.3070454471218
 30
0.0
 11
1015.958175653153
 21
934.3070454471218
 31
0.0
  0
LINE
  5
2CA
330
22
100
AcDbEntity
  8
_4-2_
  6
RAND5
 62
     7
100
AcDbLine
 10
942.1248792297568
 20
935.8459577709233
 30
0.0
 11
973.3748792297568
 21
935.8459577709233
 31
0.0
  0
ARC
  5
2CB
330
22
100
AcDbEntity
  8
_4-2_
  6
RAND5
 62
     7
100
AcDbCircle
 10
1101.499879229757
 20
934.3070454471218
 30
0.0
 40
1.538912323802078
100
AcDbArc
 50
0.0
 51
95.4369007350799
  0
ARC
  5
2CC
330
22
100
AcDbEntity
  8
_4-2_
  6
RAND5
 62
     7
100
AcDbCircle
 10
1082.330882073929
 20
934.3070454471218
 30
0.0
 40
1.538912323802078
100
AcDbArc
 50
95.17293905336392
 51
180.0
  0
LINE
  5
2CD
330
22
100
AcDbEntity
  8
_4-2_
  6
RAND5
 62
     7
100
AcDbLine
 10
1082.192130335822
 20
935.839689924983
 30
0.0
 11
1101.354068095296
 21
935.8390344331839
 31
0.0
  0
ARC
  5
2CE
330
22
100
AcDbEntity
  8
_4-2_
  6
RAND5
 62
     7
100
AcDbCircle
 10
942.1248792297568
 20
934.3070454471218
 30
0.0
 40
1.538912323802078
100
AcDbArc
 50
90.0
 51
180.0
  0
ARC
  5
2CF
330
22
100
AcDbEntity
  8
_4-2_
  6
RAND5
 62
     7
100
AcDbCircle
 10
973.3748792297568
 20
934.3070454471218
 30
0.0
 40
1.538912323802078
100
AcDbArc
 50
0.0
 51
90.0
  0
LINE
  5
2D0
330
22
100
AcDbEntity
  8
_4-2_
  6
Continuous
 62
     7
100
AcDbLine
 10
1132.749879229757
 20
934.3070454471218
 30
0.0
 11
1132.749879229757
 21
933.0570454471196
 31
0.0
  0
LINE
  5
2D1
330
22
100
AcDbEntity
  8
_4-2_
  6
Continuous
 62
     7
100
AcDbLine
 10
913.9998792297568
 20
934.3070454471218
 30
0.0
 11
913.9998792297568
 21
933.0570454471196
 31
0.0
  0
LINE
  5
2D2
330
22
100
AcDbEntity
  8
_4-2_
  6
Continuous
 62
     7
100
AcDbLine
 10
913.9998792297568
 20
934.3070454471218
 30
0.0
 11
1132.749879229757
 21
934.3070454471218
 31
0.0
  0
LINE
  5
2D3
330
22
100
AcDbEntity
  8
_4-4_
  6
Continuous
 62
     2
100
AcDbLine
 10
882.749879229757
 20
1020.55704544712
 30
0.0
 11
942.1248792297568
 21
1020.55704544712
 31
0.0
  0
LINE
  5
2D4
330
22
100
AcDbEntity
  8
_4-2_
  6
Continuous
 62
     7
100
AcDbLine
 10
942.1248792297568
 20
1020.55704544712
 30
0.0
 11
942.1248792297568
 21
935.8459577709233
 31
0.0
  0
LINE
  5
2D5
330
22
100
AcDbEntity
  8
_4-2_
  6
Continuous
 62
     7
100
AcDbLine
 10
1024.624879229757
 20
933.0570454471196
 30
0.0
 11
1163.999879229757
 21
933.0570454471196
 31
0.0
  0
LINE
  5
2D6
330
22
100
AcDbEntity
  8
_4-2_
  6
Continuous
 62
     7
100
AcDbLine
 10
973.3748792297568
 20
1020.55704544712
 30
0.0
 11
973.3748792297568
 21
935.8459577709233
 31
0.0
  0
LINE
  5
2D7
330
22
100
AcDbEntity
  8
_4-4_
  6
Continuous
 62
     2
100
AcDbLine
 10
660.8748792297581
 20
1163.18204544712
 30
0.0
 11
660.8748792297581
 21
833.0570454471196
 31
0.0
  0
ARC
  5
2D8
330
22
100
AcDbEntity
  8
_4-2_
  6
Continuous
 62
     7
100
AcDbCircle
 10
949.9373792297568
 20
1350.686803694352
 30
0.0
 40
14.72487629446626
100
AcDbArc
 50
237.956380768444
 51
302.043619231556
  0
ARC
  5
2D9
330
22
100
AcDbEntity
  8
_4-3_
  6
Continuous
 62
     3
100
AcDbCircle
 10
965.5623792297568
 20
1325.723885144046
 30
0.0
 40
14.72487629446626
100
AcDbArc
 50
57.95638076844399
 51
122.043619231556
  0
ARC
  5
2DA
330
22
100
AcDbEntity
  8
_4-3_
  6
Continuous
 62
     3
100
AcDbCircle
 10
949.9373792297568
 20
1325.723885144046
 30
0.0
 40
14.72487629446626
100
AcDbArc
 50
57.95638076844396
 51
122.0436192315559
  0
LINE
  5
2DB
330
22
100
AcDbEntity
  8
_4-2_
  6
Continuous
 62
     7
100
AcDbLine
 10
903.0625718836153
 20
1217.861388604604
 30
0.0
 11
992.6274699166036
 21
1217.861388604604
 31
0.0
  0
LINE
  5
2DC
330
22
100
AcDbEntity
  8
_4-2_
  6
Continuous
 62
     7
100
AcDbLine
 10
992.6274699166036
 20
1217.861388604604
 30
0.0
 11
992.6274699166036
 21
1229.266363258591
 31
0.0
  0
LINE
  5
2DD
330
22
100
AcDbEntity
  8
_4-2_
  6
Continuous
 62
     7
100
AcDbLine
 10
992.6274699166036
 20
1229.266363258591
 30
0.0
 11
1032.135461036083
 21
1206.456413950618
 31
0.0
  0
LINE
  5
2DE
330
22
100
AcDbEntity
  8
_4-2_
  6
Continuous
 62
     7
100
AcDbLine
 10
1032.135461036083
 20
1206.456413950618
 30
0.0
 11
1032.135461036083
 21
1217.861388604604
 31
0.0
  0
LINE
  5
2DF
330
22
100
AcDbEntity
  8
_4-2_
  6
Continuous
 62
     7
100
AcDbLine
 10
1032.135461036083
 20
1217.861388604604
 30
0.0
 11
1089.516587710349
 21
1217.861388604604
 31
0.0
  0
LINE
  5
2E0
330
22
100
AcDbEntity
  8
_4-2_
  6
Continuous
 62
     7
100
AcDbLine
 10
903.0625718836153
 20
1195.986388604604
 30
0.0
 11
992.6274699166036
 21
1195.986388604604
 31
0.0
  0
LINE
  5
2E1
330
22
100
AcDbEntity
  8
_4-2_
  6
Continuous
 62
     7
100
AcDbLine
 10
992.6274699166036
 20
1195.986388604604
 30
0.0
 11
992.6274699166036
 21
1207.391363258591
 31
0.0
  0
LINE
  5
2E2
330
22
100
AcDbEntity
  8
_4-2_
  6
Continuous
 62
     7
100
AcDbLine
 10
992.6274699166036
 20
1207.391363258591
 30
0.0
 11
1032.135461036083
 21
1184.581413950618
 31
0.0
  0
LINE
  5
2E3
330
22
100
AcDbEntity
  8
_4-2_
  6
Continuous
 62
     7
100
AcDbLine
 10
1032.135461036083
 20
1184.581413950618
 30
0.0
 11
1032.135461036083
 21
1195.986388604604
 31
0.0
  0
LINE
  5
2E4
330
22
100
AcDbEntity
  8
_4-2_
  6
Continuous
 62
     7
100
AcDbLine
 10
1032.135461036083
 20
1195.986388604604
 30
0.0
 11
1089.516587710349
 21
1195.986388604604
 31
0.0
  0
LINE
  5
2E5
330
22
100
AcDbEntity
  8
_4-3_
  6
Continuous
 62
     3
100
AcDbLine
 10
1041.225227314229
 20
1275.7053444192
 30
0.0
 11
973.3748792297568
 21
1275.7053444192
 31
0.0
  0
ARC
  5
2E6
330
22
100
AcDbEntity
  8
_4-4_
  6
Continuous
 62
     3
100
AcDbCircle
 10
1041.225227314229
 20
1250.7053444192
 30
0.0
 40
25.0
100
AcDbArc
 50
6.311874442415152
 51
90.00000000000005
  0
LINE
  5
2E7
330
22
100
AcDbEntity
  8
_4-4_
  6
Continuous
 62
     3
100
AcDbLine
 10
1041.225227314229
 20
1256.9553444192
 30
0.0
 11
973.3748792297568
 21
1256.9553444192
 31
0.0
  0
ARC
  5
2E8
330
22
100
AcDbEntity
  8
_4-4_
  6
Continuous
 62
     3
100
AcDbCircle
 10
1041.225227314229
 20
1250.7053444192
 30
0.0
 40
6.25
100
AcDbArc
 50
6.311874442415152
 51
90.00000000000005
  0
LINE
  5
2E9
330
22
100
AcDbEntity
  8
_4-4_
  6
Continuous
 62
     2
100
AcDbLine
 10
1091.834585780539
 20
1020.55704544712
 30
0.0
 11
1163.999879229757
 21
1020.55704544712
 31
0.0
  0
LINE
  5
2EA
330
22
100
AcDbEntity
  8
_4-4_
  6
Continuous
 62
     2
100
AcDbLine
 10
973.3748792297568
 20
1020.55704544712
 30
0.0
 11
1072.970233697902
 21
1020.55704544712
 31
0.0
  0
TEXT
  5
2EB
330
22
100
AcDbEntity
  8
_4-A_
 62
     7
100
AcDbText
 10
1237.827237764343
 20
1066.925408856414
 30
0.0
 40
15.0
  1
シーリング材(別途)
100
AcDbText
  0
TEXT
  5
2EC
330
22
100
AcDbEntity
  8
_4-A_
 62
     7
100
AcDbText
 10
1237.827237764343
 20
1041.925408856414
 30
0.0
 40
15.0
  1
アンカープレート
100
AcDbText
  0
LINE
  5
2ED
330
22
100
AcDbEntity
  8
_4-A_
  6
Continuous
 62
     7
100
AcDbLine
 10
1227.827237764343
 20
1049.425408856414
 30
0.0
 11
1191.221909716241
 21
1049.425408856414
 31
0.0
  0
LINE
  5
2EE
330
22
100
AcDbEntity
  8
_4-A_
  6
Continuous
 62
     7
100
AcDbLine
 10
1124.758291613218
 20
934.3070454471218
 30
0.0
 11
1191.221909716241
 21
1049.425408856414
 31
0.0
  0
LINE
  5
2EF
330
22
100
AcDbEntity
  8
_4-A_
  6
Continuous
 62
     7
100
AcDbLine
 10
1227.827237764343
 20
1074.425408856414
 30
0.0
 11
1104.744825450004
 21
1074.425408856414
 31
0.0
  0
LINE
  5
2F0
330
22
100
AcDbEntity
  8
_4-A_
  6
Continuous
 62
     7
100
AcDbLine
 10
1026.37917368601
 20
938.6921184329278
 30
0.0
 11
1104.744825450004
 21
1074.425408856414
 31
0.0
  0
LINE
  5
2F1
330
22
100
AcDbEntity
  8
_4-A_
  6
Continuous
 62
     7
100
AcDbLine
 10
763.4862592898297
 20
1049.425408856414
 30
0.0
 11
794.7569431620832
 21
932.7216278577433
 31
0.0
  0
LINE
  5
2F2
330
22
100
AcDbEntity
  8
_4-A_
  6
Continuous
 62
     7
100
AcDbLine
 10
806.4559118874409
 20
1049.425408856414
 30
0.0
 11
763.4862592898297
 21
1049.425408856414
 31
0.0
  0
TEXT
  5
2F3
330
22
100
AcDbEntity
  8
_4-A_
 62
     7
100
AcDbText
 10
816.4559118874409
 20
1141.925408856414
 30
0.0
 40
15.0
  1
塩ビシート
100
AcDbText
  0
TEXT
  5
2F4
330
22
100
AcDbEntity
  8
_4-A_
 62
     7
100
AcDbText
 10
816.4559118874409
 20
1121.925408856414
 30
0.0
 40
15.0
  1
接着工法
100
AcDbText
  0
TEXT
  5
2F5
330
22
100
AcDbEntity
  8
_4-A_
 62
     7
100
AcDbText
 10
816.4559118874409
 20
1041.925408856414
 30
0.0
 40
15.0
  1
プルーフシーラー
100
AcDbText
  0
LINE
  5
2F6
330
22
100
AcDbEntity
  8
_4-A_
  6
Continuous
 62
     7
100
AcDbLine
 10
755.6532592267148
 20
1114.176038464013
 30
0.0
 11
776.0044927115324
 21
1149.425408856414
 31
0.0
  0
LINE
  5
2F7
330
22
100
AcDbEntity
  8
_4-A_
  6
Continuous
 62
     7
100
AcDbLine
 10
806.4559118874409
 20
1149.425408856414
 30
0.0
 11
776.0044927115324
 21
1149.425408856414
 31
0.0
  0
TEXT
  5
2F8
330
22
100
AcDbEntity
  8
_4-A_
 62
     7
100
AcDbText
 10
783.6148938658571
 20
1271.925408856414
 30
0.0
 40
15.0
  1
Ｋ－１０
100
AcDbText
  0
TEXT
  5
2F9
330
22
100
AcDbEntity
  8
_4-A_
 62
     7
100
AcDbText
 10
776.2444908855217
 20
1251.925408856414
 30
0.0
 40
15.0
  1
（ホルダー内、
100
AcDbText
  0
TEXT
  5
2FA
330
22
100
AcDbEntity
  8
_4-A_
 62
     7
100
AcDbText
 10
776.2444908855217
 20
1231.925408856414
 30
0.0
 40
15.0
  1
ロンシーラントＬ充填）
100
AcDbText
  0
LINE
  5
2FB
330
22
100
AcDbEntity
  8
_4-A_
  6
Continuous
 62
     7
100
AcDbLine
 10
773.6148938658572
 20
1279.425408856414
 30
0.0
 11
747.7587519068707
 21
1279.425408856414
 31
0.0
  0
LINE
  5
2FC
330
22
100
AcDbEntity
  8
_4-A_
  6
Continuous
 62
     7
100
AcDbLine
 10
691.1845228570599
 20
1181.435969743104
 30
0.0
 11
747.7587519068707
 21
1279.425408856414
 31
0.0
  0
LINE
  5
2FD
330
22
100
AcDbEntity
  8
_4-4_
  6
Continuous
 62
     2
100
AcDbLine
 10
882.749879229757
 20
1020.55704544712
 30
0.0
 11
882.749879229757
 21
933.0570454471196
 31
0.0
  0
LINE
  5
2FE
330
22
100
AcDbEntity
  8
_4-4_
  6
Continuous
 62
     2
100
AcDbLine
 10
790.8748792297569
 20
929.9320454471196
 30
0.0
 11
832.749879229757
 21
929.9320454471196
 31
0.0
  0
LINE
  5
2FF
330
22
100
AcDbEntity
  8
_4-4_
  6
Continuous
 62
     2
100
AcDbLine
 10
832.749879229757
 20
933.0570454471196
 30
0.0
 11
832.749879229757
 21
929.9320454471196
 31
0.0
  0
LINE
  5
300
330
22
100
AcDbEntity
  8
_4-2_
  6
Continuous
 62
     7
100
AcDbLine
 10
832.749879229757
 20
929.9320454471196
 30
0.0
 11
1022.124879229757
 21
929.9320454471196
 31
0.0
  0
LINE
  5
301
330
22
100
AcDbEntity
  8
_4-2_
  6
Continuous
 62
     7
100
AcDbLine
 10
882.749879229757
 20
933.0570454471196
 30
0.0
 11
1022.124879229757
 21
933.0570454471196
 31
0.0
  0
LINE
  5
302
330
22
100
AcDbEntity
  8
_4-4_
  6
Continuous
 62
     2
100
AcDbLine
 10
832.749879229757
 20
933.0570454471196
 30
0.0
 11
882.749879229757
 21
933.0570454471196
 31
0.0
  0
LINE
  5
303
330
22
100
AcDbEntity
  8
_4-4_
  6
Continuous
 62
     2
100
AcDbLine
 10
1213.999879229757
 20
933.0570454471196
 30
0.0
 11
1163.999879229757
 21
933.0570454471196
 31
0.0
  0
LINE
  5
304
330
22
100
AcDbEntity
  8
_4-4_
  6
Continuous
 62
     2
100
AcDbLine
 10
1163.999879229757
 20
1020.55704544712
 30
0.0
 11
1163.999879229757
 21
933.0570454471196
 31
0.0
  0
LINE
  5
305
330
22
100
AcDbEntity
  8
_4-4_
  6
Continuous
 62
     2
100
AcDbLine
 10
1213.999879229757
 20
933.0570454471196
 30
0.0
 11
1213.999879229757
 21
929.9320454471196
 31
0.0
  0
LINE
  5
306
330
22
100
AcDbEntity
  8
_4-2_
  6
Continuous
 62
     7
100
AcDbLine
 10
1024.624879229757
 20
929.9320454471196
 30
0.0
 11
1213.999879229757
 21
929.9320454471196
 31
0.0
  0
LINE
  5
307
330
22
100
AcDbEntity
  8
_4-4_
  6
Continuous
 62
     2
100
AcDbLine
 10
1213.999879229757
 20
929.9320454471196
 30
0.0
 11
1410.874879229757
 21
929.9320454471196
 31
0.0
  0
LINE
  5
308
330
22
100
AcDbEntity
  8
_4-2_
  6
Continuous
 62
     7
100
AcDbLine
 10
754.624879229757
 20
926.8070454471196
 30
0.0
 11
1410.874879229757
 21
926.8070454471196
 31
0.0
  0
TEXT
  5
309
330
22
100
AcDbEntity
  8
_4-A_
 62
     7
100
AcDbText
 10
1284.771844123477
 20
966.9254088564141
 30
0.0
 40
15.0
  1
塩ビシート 接着工法
100
AcDbText
  0
LINE
  5
30A
330
22
100
AcDbEntity
  8
_4-A_
  6
Continuous
 62
     7
100
AcDbLine
 10
1274.771844123477
 20
974.4254088564142
 30
0.0
 11
1254.864069078484
 21
974.4254088564142
 31
0.0
  0
LINE
  5
30B
330
22
100
AcDbEntity
  8
_4-A_
  6
Continuous
 62
     7
100
AcDbLine
 10
1229.175813736975
 20
929.9320454471196
 30
0.0
 11
1254.864069078484
 21
974.4254088564142
 31
0.0
  0
LINE
  5
30C
330
22
100
AcDbEntity
  8
_4-A_
  6
Continuous
 62
     7
100
AcDbLine
 10
1274.771844123477
 20
999.4254088564142
 30
0.0
 11
1237.214913676254
 21
999.4254088564142
 31
0.0
  0
LINE
  5
30D
330
22
100
AcDbEntity
  8
_4-A_
  6
Continuous
 62
     7
100
AcDbLine
 10
1198.897121196223
 20
933.0570454471196
 30
0.0
 11
1237.214913676254
 21
999.4254088564142
 31
0.0
  0
LINE
  5
30E
330
22
100
AcDbEntity
  8
_4-B_
  6
Continuous
 62
     7
100
AcDbLine
 10
832.749879229757
 20
883.3451428704918
 30
0.0
 11
882.749879229757
 21
883.3451428704918
 31
0.0
  0
POINT
  5
30F
330
22
100
AcDbEntity
  8
_4-B_
 62
     1
100
AcDbPoint
 10
832.749879229757
 20
883.3451428704918
 30
0.0
  0
POINT
  5
310
330
22
100
AcDbEntity
  8
_4-B_
 62
     1
100
AcDbPoint
 10
882.749879229757
 20
883.3451428704918
 30
0.0
  0
LINE
  5
311
330
22
100
AcDbEntity
  8
_4-B_
  6
Continuous
 62
     7
100
AcDbLine
 10
832.749879229757
 20
883.3451428704918
 30
0.0
 11
832.749879229757
 21
914.5425078559926
 31
0.0
  0
TEXT
  5
312
330
22
100
AcDbEntity
  8
_4-B_
 62
     7
100
AcDbText
 10
846.4998792297569
 20
885.8451428704919
 30
0.0
 40
15.0
  1
100
100
AcDbText
  0
LINE
  5
313
330
22
100
AcDbEntity
  8
_4-B_
  6
Continuous
 62
     7
100
AcDbLine
 10
1163.999879229757
 20
883.3451428704918
 30
0.0
 11
1213.999879229757
 21
883.3451428704918
 31
0.0
  0
POINT
  5
314
330
22
100
AcDbEntity
  8
_4-B_
 62
     1
100
AcDbPoint
 10
1163.999879229757
 20
883.3451428704918
 30
0.0
  0
POINT
  5
315
330
22
100
AcDbEntity
  8
_4-B_
 62
     1
100
AcDbPoint
 10
1213.999879229757
 20
883.3451428704918
 30
0.0
  0
LINE
  5
316
330
22
100
AcDbEntity
  8
_4-B_
  6
Continuous
 62
     7
100
AcDbLine
 10
1163.999879229757
 20
883.3451428704918
 30
0.0
 11
1163.999879229757
 21
914.5425078559926
 31
0.0
  0
LINE
  5
317
330
22
100
AcDbEntity
  8
_4-B_
  6
Continuous
 62
     7
100
AcDbLine
 10
1213.999879229757
 20
883.3451428704918
 30
0.0
 11
1213.999879229757
 21
914.5425078559926
 31
0.0
  0
TEXT
  5
318
330
22
100
AcDbEntity
  8
_4-B_
 62
     7
100
AcDbText
 10
1177.749879229757
 20
885.8451428704919
 30
0.0
 40
15.0
  1
100
100
AcDbText
  0
POINT
  5
319
330
22
100
AcDbEntity
  8
_4-B_
 62
     1
100
AcDbPoint
 10
882.749879229757
 20
850.3650713143908
 30
0.0
  0
POINT
  5
31A
330
22
100
AcDbEntity
  8
_4-B_
 62
     1
100
AcDbPoint
 10
757.749879229757
 20
850.3650713143908
 30
0.0
  0
TEXT
  5
31B
330
22
100
AcDbEntity
  8
_4-B_
 62
     7
100
AcDbText
 10
801.651846626388
 20
853.0391311702922
 30
0.0
 40
15.0
  1
100以上
100
AcDbText
  0
LINE
  5
31C
330
22
100
AcDbEntity
  8
_4-B_
  6
Continuous
 62
     7
100
AcDbLine
 10
757.749879229757
 20
850.3650713143908
 30
0.0
 11
757.749879229757
 21
914.5425078559926
 31
0.0
  0
LINE
  5
31D
330
22
100
AcDbEntity
  8
_4-B_
  6
Continuous
 62
     7
100
AcDbLine
 10
882.749879229757
 20
850.3650713143908
 30
0.0
 11
882.749879229757
 21
914.5425078559926
 31
0.0
  0
LINE
  5
31E
330
22
100
AcDbEntity
  8
_4-B_
  6
Continuous
 62
     7
100
AcDbLine
 10
757.749879229757
 20
850.3650713143908
 30
0.0
 11
882.749879229757
 21
850.3650713143908
 31
0.0
  0
LINE
  5
31F
330
22
100
AcDbEntity
  8
_4-D_
  6
Continuous
 62
     4
100
AcDbLine
 10
1028.929026458082
 20
934.3070454471218
 30
0.0
 11
1030.51998681884
 21
935.8980058078785
 31
0.0
  0
LINE
  5
320
330
22
100
AcDbEntity
  8
_4-D_
  6
Continuous
 62
     4
100
AcDbLine
 10
1026.807706114524
 20
934.3070454471218
 30
0.0
 11
1029.788045708951
 21
937.2873850415478
 31
0.0
  0
LINE
  5
321
330
22
100
AcDbEntity
  8
_4-D_
  6
Continuous
 62
     4
100
AcDbLine
 10
1025.936385770961
 20
935.5570454471173
 30
0.0
 11
1028.763374083382
 21
938.3840337595396
 31
0.0
  0
LINE
  5
322
330
22
100
AcDbEntity
  8
_4-D_
  6
Continuous
 62
     4
100
AcDbLine
 10
1025.562379229755
 20
937.3043592494788
 30
0.0
 11
1027.497397153968
 21
939.2393771736921
 31
0.0
  0
LINE
  5
323
330
22
100
AcDbEntity
  8
_4-D_
  6
Continuous
 62
     4
100
AcDbLine
 10
1023.568745083841
 20
937.4320454471218
 30
0.0
 11
1025.994636313935
 21
939.8579366772153
 31
0.0
  0
LINE
  5
324
330
22
100
AcDbEntity
  8
_4-D_
  6
Continuous
 62
     4
100
AcDbLine
 10
1018.322424740282
 20
934.3070454471218
 30
0.0
 11
1021.187379229755
 21
937.1719999365931
 31
0.0
  0
LINE
  5
325
330
22
100
AcDbEntity
  8
_4-D_
  6
Continuous
 62
     4
100
AcDbLine
 10
1021.447424740281
 20
937.4320454471218
 30
0.0
 11
1024.21738159298
 21
940.2020022998184
 31
0.0
  0
LINE
  5
326
330
22
100
AcDbEntity
  8
_4-D_
  6
Continuous
 62
     4
100
AcDbLine
 10
1016.201104396723
 20
934.3070454471218
 30
0.0
 11
1022.037157438412
 21
940.143098488809
 31
0.0
  0
LINE
  5
327
330
22
100
AcDbEntity
  8
_4-D_
  6
Continuous
 62
     4
100
AcDbLine
 10
1016.754544833504
 20
936.9818062274593
 30
0.0
 11
1018.659731703329
 21
938.8869930972852
 31
0.0
  0
LINE
  5
328
330
22
100
AcDbEntity
  8
_4-E_
  6
Continuous
 62
     4
100
AcDbLine
 10
1094.208511405369
 20
833.0570454471196
 30
0.0
 11
1187.95851140537
 21
926.8070454471196
 31
0.0
  0
LINE
  5
329
330
22
100
AcDbEntity
  8
_4-E_
  6
Continuous
 62
     4
100
AcDbLine
 10
1080.06637578164
 20
833.0570454471196
 30
0.0
 11
1173.816375781641
 21
926.8070454471196
 31
0.0
  0
LINE
  5
32A
330
22
100
AcDbEntity
  8
_4-E_
  6
Continuous
 62
     4
100
AcDbLine
 10
1087.137443593506
 20
833.0570454471196
 30
0.0
 11
1180.887443593507
 21
926.8070454471196
 31
0.0
  0
LINE
  5
32B
330
22
100
AcDbEntity
  8
_4-E_
  6
Continuous
 62
     4
100
AcDbLine
 10
680.0663757816424
 20
833.0570454471196
 30
0.0
 11
773.8163757816403
 21
926.8070454471196
 31
0.0
  0
LINE
  5
32C
330
22
100
AcDbEntity
  8
_4-E_
  6
Continuous
 62
     4
100
AcDbLine
 10
694.2085114053713
 20
833.0570454471196
 30
0.0
 11
787.9585114053701
 21
926.8070454471196
 31
0.0
  0
LINE
  5
32D
330
22
100
AcDbEntity
  8
_4-E_
  6
Continuous
 62
     4
100
AcDbLine
 10
687.1374435935047
 20
833.0570454471196
 30
0.0
 11
780.8874435935057
 21
926.8070454471196
 31
0.0
  0
LINE
  5
32E
330
22
100
AcDbEntity
  8
_4-E_
  6
Continuous
 62
     4
100
AcDbLine
 10
880.0663757816403
 20
833.0570454471196
 30
0.0
 11
973.8163757816403
 21
926.8070454471196
 31
0.0
  0
LINE
  5
32F
330
22
100
AcDbEntity
  8
_4-E_
  6
Continuous
 62
     4
100
AcDbLine
 10
894.2085114053691
 20
833.0570454471196
 30
0.0
 11
987.9585114053702
 21
926.8070454471196
 31
0.0
  0
LINE
  5
330
330
22
100
AcDbEntity
  8
_4-E_
  6
Continuous
 62
     4
100
AcDbLine
 10
887.1374435935058
 20
833.0570454471196
 30
0.0
 11
980.8874435935058
 21
926.8070454471196
 31
0.0
  0
LINE
  5
331
330
22
100
AcDbEntity
  8
_4-E_
  6
Continuous
 62
     4
100
AcDbLine
 10
1294.208511405369
 20
833.0570454471196
 30
0.0
 11
1387.958511405369
 21
926.8070454471196
 31
0.0
  0
LINE
  5
332
330
22
100
AcDbEntity
  8
_4-E_
  6
Continuous
 62
     4
100
AcDbLine
 10
1287.137443593506
 20
833.0570454471196
 30
0.0
 11
1380.887443593506
 21
926.8070454471196
 31
0.0
  0
LINE
  5
333
330
22
100
AcDbEntity
  8
_4-E_
  6
Continuous
 62
     4
100
AcDbLine
 10
1280.06637578164
 20
833.0570454471196
 30
0.0
 11
1373.816375781641
 21
926.8070454471196
 31
0.0
  0
LINE
  5
334
330
22
100
AcDbEntity
  8
_4-E_
  6
Continuous
 62
     4
100
AcDbLine
 10
660.8748792297581
 20
1013.865548895237
 30
0.0
 11
754.624879229757
 21
1107.615548895237
 31
0.0
  0
LINE
  5
335
330
22
100
AcDbEntity
  8
_4-E_
  6
Continuous
 62
     4
100
AcDbLine
 10
660.8748792297581
 20
1006.794481083371
 30
0.0
 11
754.624879229757
 21
1100.544481083371
 31
0.0
  0
LINE
  5
336
330
22
100
AcDbEntity
  8
_4-E_
  6
Continuous
 62
     4
100
AcDbLine
 10
660.8748792297581
 20
999.7234132715064
 30
0.0
 11
754.624879229757
 21
1093.473413271506
 31
0.0
  0
LINE
  5
337
330
22
100
AcDbEntity
  8
_4-E_
  6
Continuous
 62
     4
100
AcDbLine
 10
882.749879229757
 20
984.938970899482
 30
0.0
 11
918.3679537773954
 21
1020.55704544712
 31
0.0
  0
LINE
  5
338
330
22
100
AcDbEntity
  8
_4-E_
  6
Continuous
 62
     4
100
AcDbLine
 10
882.749879229757
 20
970.7968352757532
 30
0.0
 11
932.5100894011256
 21
1020.55704544712
 31
0.0
  0
LINE
  5
339
330
22
100
AcDbEntity
  8
_4-E_
  6
Continuous
 62
     4
100
AcDbLine
 10
882.749879229757
 20
977.8679030876151
 30
0.0
 11
925.4390215892625
 21
1020.55704544712
 31
0.0
  0
LINE
  5
33A
330
22
100
AcDbEntity
  8
_4-E_
  6
Continuous
 62
     4
100
AcDbLine
 10
973.3748792297568
 20
966.6786864224423
 30
0.0
 11
1027.253238254436
 21
1020.55704544712
 31
0.0
  0
LINE
  5
33B
330
22
100
AcDbEntity
  8
_4-E_
  6
Continuous
 62
     4
100
AcDbLine
 10
973.3748792297568
 20
952.5365507987137
 30
0.0
 11
1041.395373878164
 21
1020.55704544712
 31
0.0
  0
LINE
  5
33C
330
22
100
AcDbEntity
  8
_4-E_
  6
Continuous
 62
     4
100
AcDbLine
 10
973.3748792297568
 20
959.6076186105758
 30
0.0
 11
1034.3243060663
 21
1020.55704544712
 31
0.0
  0
LINE
  5
33D
330
22
100
AcDbEntity
  8
_4-E_
  6
Continuous
 62
     4
100
AcDbLine
 10
1064.030658355205
 20
934.3070454471218
 30
0.0
 11
1080.669932269144
 21
950.9463193610624
 31
0.0
  0
LINE
  5
33E
330
22
100
AcDbEntity
  8
_4-E_
  6
Continuous
 62
     4
100
AcDbLine
 10
1097.655497300461
 20
967.9318843923784
 30
0.0
 11
1150.280658355203
 21
1020.55704544712
 31
0.0
  0
LINE
  5
33F
330
22
100
AcDbEntity
  8
_4-E_
  6
Continuous
 62
     4
100
AcDbLine
 10
1049.888522731477
 20
934.3070454471218
 30
0.0
 11
1079.261452339832
 21
963.6799750554772
 31
0.0
  0
LINE
  5
340
330
22
100
AcDbEntity
  8
_4-E_
  6
Continuous
 62
     4
100
AcDbLine
 10
1096.24701737115
 20
980.6655400867954
 30
0.0
 11
1136.138522731474
 21
1020.55704544712
 31
0.0
  0
LINE
  5
341
330
22
100
AcDbEntity
  8
_4-E_
  6
Continuous
 62
     4
100
AcDbLine
 10
1056.959590543342
 20
934.3070454471218
 30
0.0
 11
1079.965692304488
 21
957.3131472082675
 31
0.0
  0
LINE
  5
342
330
22
100
AcDbEntity
  8
_4-E_
  6
Continuous
 62
     4
100
AcDbLine
 10
1096.951257335806
 20
974.2987122395858
 30
0.0
 11
1143.209590543339
 21
1020.55704544712
 31
0.0
  0
LINE
  5
343
330
22
100
AcDbEntity
  8
_4-7_
  6
Continuous
 62
     7
100
AcDbLine
 10
1025.874879229757
 20
911.1820454471196
 30
0.0
 11
1025.874879229757
 21
908.8148176754296
 31
0.0
  0
ARC
  5
344
330
22
100
AcDbEntity
  8
_4-7_
  6
Continuous
 62
     7
100
AcDbCircle
 10
1032.156129229758
 20
918.3695454471195
 30
0.0
 40
7.5625
100
AcDbArc
 50
139.3427376217763
 51
173.3429299403591
  0
LINE
  5
345
330
22
100
AcDbEntity
  8
_4-7_
  6
Continuous
 62
     7
100
AcDbLine
 10
1022.279558838141
 20
896.5854506141161
 30
0.0
 11
1022.279558838141
 21
900.3382954471181
 31
0.0
  0
LINE
  5
346
330
22
100
AcDbEntity
  8
_4-7_
  6
Continuous
 62
     7
100
AcDbLine
 10
1021.970199621372
 20
900.3382954471181
 30
0.0
 11
1021.998583849562
 21
900.4645908008846
 31
0.0
  0
LINE
  5
347
330
22
100
AcDbEntity
  8
_4-7_
  6
Continuous
 62
     7
100
AcDbLine
 10
1021.998583849562
 20
900.4645908008846
 30
0.0
 11
1022.12487918398
 21
900.5570454471195
 31
0.0
  0
LINE
  5
348
330
22
100
AcDbEntity
  8
_4-7_
  6
Continuous
 62
     7
100
AcDbLine
 10
1022.12487918398
 20
900.5570454471195
 30
0.0
 11
1022.251174574713
 21
900.4645908713635
 31
0.0
  0
LINE
  5
349
330
22
100
AcDbEntity
  8
_4-7_
  6
Continuous
 62
     7
100
AcDbLine
 10
1022.251174574713
 20
900.4645908713635
 30
0.0
 11
1022.279558838141
 21
900.3382955118583
 31
0.0
  0
LINE
  5
34A
330
22
100
AcDbEntity
  8
_4-7_
  6
Continuous
 62
     7
100
AcDbLine
 10
1024.470199621372
 20
896.5854506141161
 30
0.0
 11
1024.470199621372
 21
900.3382954471181
 31
0.0
  0
LINE
  5
34B
330
22
100
AcDbEntity
  8
_4-7_
  6
Continuous
 62
     7
100
AcDbLine
 10
1024.470199621372
 20
900.3382955118583
 30
0.0
 11
1024.4985838848
 21
900.4645908713635
 31
0.0
  0
LINE
  5
34C
330
22
100
AcDbEntity
  8
_4-7_
  6
Continuous
 62
     7
100
AcDbLine
 10
1024.4985838848
 20
900.4645908713635
 30
0.0
 11
1024.624879275533
 21
900.5570454471195
 31
0.0
  0
LINE
  5
34D
330
22
100
AcDbEntity
  8
_4-7_
  6
Continuous
 62
     7
100
AcDbLine
 10
1024.624879275533
 20
900.5570454471195
 30
0.0
 11
1024.751174609952
 21
900.4645908008846
 31
0.0
  0
LINE
  5
34E
330
22
100
AcDbEntity
  8
_4-7_
  6
Continuous
 62
     7
100
AcDbLine
 10
1024.751174609952
 20
900.4645908008846
 30
0.0
 11
1024.779558838141
 21
900.3382954471181
 31
0.0
  0
LINE
  5
34F
330
22
100
AcDbEntity
  8
_4-7_
  6
Continuous
 62
     7
100
AcDbLine
 10
1020.874879229757
 20
917.7445454471195
 30
0.0
 11
1020.874879229757
 21
912.5648176754365
 31
0.0
  0
LINE
  5
350
330
22
100
AcDbEntity
  8
_4-7_
  6
Continuous
 62
     7
100
AcDbLine
 10
1020.874879229757
 20
911.1820454471196
 30
0.0
 11
1020.874879229757
 21
908.8148176754296
 31
0.0
  0
LINE
  5
351
330
22
100
AcDbEntity
  8
_4-7_
  6
Continuous
 62
     7
100
AcDbLine
 10
1021.312379229757
 20
903.3695454471196
 30
0.0
 11
1020.874879229757
 21
906.482519700669
 31
0.0
  0
LINE
  5
352
330
22
100
AcDbEntity
  8
_4-7_
  6
Continuous
 62
     7
100
AcDbLine
 10
1020.874879229757
 20
907.4320454471195
 30
0.0
 11
1020.874879229757
 21
906.482519700669
 31
0.0
  0
LINE
  5
353
330
22
100
AcDbEntity
  8
_4-7_
  6
Continuous
 62
     7
100
AcDbLine
 10
1021.312379229756
 20
908.0570454471196
 30
0.0
 11
1020.874879229757
 21
908.8148176754296
 31
0.0
  0
LINE
  5
354
330
22
100
AcDbEntity
  8
_4-7_
  6
Continuous
 62
     7
100
AcDbLine
 10
1021.312379229758
 20
911.8070454471219
 30
0.0
 11
1020.874879229757
 21
912.5648176754365
 31
0.0
  0
ARC
  5
355
330
22
100
AcDbEntity
  8
_4-7_
  6
Continuous
 62
     7
100
AcDbCircle
 10
1025.238915074723
 20
914.0882954471203
 30
0.0
 40
0.09375
100
AcDbArc
 50
149.9999999999975
 51
270.0000000000005
  0
ARC
  5
356
330
22
100
AcDbEntity
  8
_4-7_
  6
Continuous
 62
     7
100
AcDbCircle
 10
1025.238915074723
 20
906.5882954471184
 30
0.0
 40
0.09375
100
AcDbArc
 50
149.9999999999975
 51
270.0000000000005
  0
LINE
  5
357
330
22
100
AcDbEntity
  8
_4-7_
  6
Continuous
 62
     7
100
AcDbLine
 10
1025.437379229757
 20
907.1195454471196
 30
0.0
 11
1025.157725193118
 21
906.6351704471211
 31
0.0
  0
ARC
  5
358
330
22
100
AcDbEntity
  8
_4-7_
  6
Continuous
 62
     7
100
AcDbCircle
 10
1025.238915074723
 20
915.0257954471204
 30
0.0
 40
0.09375
100
AcDbArc
 50
150.0000000000134
 51
270.0000000000005
  0
LINE
  5
359
330
22
100
AcDbEntity
  8
_4-7_
  6
Continuous
 62
     7
100
AcDbLine
 10
1025.437379229757
 20
907.4320454471195
 30
0.0
 11
1025.437379229757
 21
907.1195454471196
 31
0.0
  0
LINE
  5
35A
330
22
100
AcDbEntity
  8
_4-7_
  6
Continuous
 62
     7
100
AcDbLine
 10
1025.437379229757
 20
908.3695454471195
 30
0.0
 11
1025.437379229757
 21
908.0570454471196
 31
0.0
  0
LINE
  5
35B
330
22
100
AcDbEntity
  8
_4-7_
  6
Continuous
 62
     7
100
AcDbLine
 10
1025.437379229757
 20
909.3070454471195
 30
0.0
 11
1025.437379229757
 21
908.9945454471195
 31
0.0
  0
ARC
  5
35C
330
22
100
AcDbEntity
  8
_4-7_
  6
Continuous
 62
     7
100
AcDbCircle
 10
1025.238915074723
 20
908.4632954471203
 30
0.0
 40
0.09375
100
AcDbArc
 50
150.0000000000122
 51
270.0000000000005
  0
LINE
  5
35D
330
22
100
AcDbEntity
  8
_4-7_
  6
Continuous
 62
     7
100
AcDbLine
 10
1025.437379229757
 20
908.9945454471195
 30
0.0
 11
1025.157725193117
 21
908.510170447121
 31
0.0
  0
LINE
  5
35E
330
22
100
AcDbEntity
  8
_4-7_
  6
Continuous
 62
     7
100
AcDbLine
 10
1025.437379229757
 20
910.2445454471196
 30
0.0
 11
1025.437379229757
 21
909.9320454471195
 31
0.0
  0
ARC
  5
35F
330
22
100
AcDbEntity
  8
_4-7_
  6
Continuous
 62
     7
100
AcDbCircle
 10
1025.238915074723
 20
909.4007954471203
 30
0.0
 40
0.09375
100
AcDbArc
 50
150.0000000000117
 51
270.0000000000005
  0
LINE
  5
360
330
22
100
AcDbEntity
  8
_4-7_
  6
Continuous
 62
     7
100
AcDbLine
 10
1025.437379229757
 20
909.9320454471195
 30
0.0
 11
1025.157725193117
 21
909.4476704471187
 31
0.0
  0
LINE
  5
361
330
22
100
AcDbEntity
  8
_4-7_
  6
Continuous
 62
     7
100
AcDbLine
 10
1025.437379229757
 20
917.7445454471195
 30
0.0
 11
1025.437379229757
 21
917.4320454471196
 31
0.0
  0
LINE
  5
362
330
22
100
AcDbEntity
  8
_4-7_
  6
Continuous
 62
     7
100
AcDbLine
 10
1021.499879229758
 20
919.0272818589846
 30
0.0
 11
1021.499879229758
 21
918.3695454471195
 31
0.0
  0
ARC
  5
363
330
22
100
AcDbEntity
  8
_4-7_
  6
Continuous
 62
     7
100
AcDbCircle
 10
1032.156129229758
 20
918.3695454471195
 30
0.0
 40
6.9375
100
AcDbArc
 50
139.3427374897834
 51
174.5596818090366
  0
ARC
  5
364
330
22
100
AcDbEntity
  8
_4-7_
  6
Continuous
 62
     7
100
AcDbCircle
 10
1014.593629229756
 20
918.3695454471195
 30
0.0
 40
6.9375
100
AcDbArc
 50
5.440318190896742
 51
40.65724863799639
  0
LINE
  5
365
330
22
100
AcDbEntity
  8
_4-7_
  6
Continuous
 62
     7
100
AcDbLine
 10
1025.249879229758
 20
919.027281858994
 30
0.0
 11
1025.249879229758
 21
918.3695454471195
 31
0.0
  0
ARC
  5
366
330
22
100
AcDbEntity
  8
_4-7_
  6
Continuous
 62
     7
100
AcDbCircle
 10
1025.051415074723
 20
917.8382954471203
 30
0.0
 40
0.09375
100
AcDbArc
 50
150.0000000000089
 51
270.0000000000005
  0
LINE
  5
367
330
22
100
AcDbEntity
  8
_4-7_
  6
Continuous
 62
     7
100
AcDbLine
 10
1025.249879229758
 20
918.3695454471195
 30
0.0
 11
1024.970225193118
 21
917.885170447121
 31
0.0
  0
LINE
  5
368
330
22
100
AcDbEntity
  8
_4-7_
  6
Continuous
 62
     7
100
AcDbLine
 10
1025.437379229757
 20
917.4320454471196
 30
0.0
 11
1025.157725193118
 21
916.9476704471186
 31
0.0
  0
ARC
  5
369
330
22
100
AcDbEntity
  8
_4-7_
  6
Continuous
 62
     7
100
AcDbCircle
 10
1025.238915074723
 20
916.9007954471203
 30
0.0
 40
0.09375
100
AcDbArc
 50
150.0000000000117
 51
270.0000000000005
  0
LINE
  5
36A
330
22
100
AcDbEntity
  8
_4-7_
  6
Continuous
 62
     7
100
AcDbLine
 10
1025.437379229757
 20
916.8070454471195
 30
0.0
 11
1025.437379229757
 21
916.4945454471196
 31
0.0
  0
LINE
  5
36B
330
22
100
AcDbEntity
  8
_4-7_
  6
Continuous
 62
     7
100
AcDbLine
 10
1025.437379229757
 20
916.4945454471196
 30
0.0
 11
1025.157725193118
 21
916.0101704471211
 31
0.0
  0
ARC
  5
36C
330
22
100
AcDbEntity
  8
_4-7_
  6
Continuous
 62
     7
100
AcDbCircle
 10
1025.238915074723
 20
915.9632954471184
 30
0.0
 40
0.09375
100
AcDbArc
 50
150.0000000000117
 51
270.0000000000005
  0
LINE
  5
36D
330
22
100
AcDbEntity
  8
_4-7_
  6
Continuous
 62
     7
100
AcDbLine
 10
1025.437379229757
 20
915.8695454471196
 30
0.0
 11
1025.437379229757
 21
915.5570454471195
 31
0.0
  0
LINE
  5
36E
330
22
100
AcDbEntity
  8
_4-7_
  6
Continuous
 62
     7
100
AcDbLine
 10
1025.437379229757
 20
915.5570454471195
 30
0.0
 11
1025.157725193118
 21
915.0726704471185
 31
0.0
  0
LINE
  5
36F
330
22
100
AcDbEntity
  8
_4-7_
  6
Continuous
 62
     7
100
AcDbLine
 10
1025.437379229757
 20
914.9320454471196
 30
0.0
 11
1025.437379229757
 21
914.6195454471195
 31
0.0
  0
LINE
  5
370
330
22
100
AcDbEntity
  8
_4-7_
  6
Continuous
 62
     7
100
AcDbLine
 10
1025.437379229757
 20
914.6195454471195
 30
0.0
 11
1025.157725193118
 21
914.135170447121
 31
0.0
  0
ARC
  5
371
330
22
100
AcDbEntity
  8
_4-7_
  6
Continuous
 62
     7
100
AcDbCircle
 10
1024.572493089546
 20
919.2546593069234
 30
0.0
 40
0.0726138598028212
100
AcDbArc
 50
179.9988623867892
 51
353.3440453818318
  0
ARC
  5
372
330
22
100
AcDbEntity
  8
_4-7_
  6
Continuous
 62
     7
100
AcDbCircle
 10
1022.177265369969
 20
919.2546593069234
 30
0.0
 40
0.0726138598028212
100
AcDbArc
 50
186.6559546181764
 51
0.0011376132185318
  0
ARC
  5
373
330
22
100
AcDbEntity
  8
_4-7_
  6
Continuous
 62
     7
100
AcDbCircle
 10
1014.593629229756
 20
918.3695454471195
 30
0.0
 40
7.5625
100
AcDbArc
 50
6.657070059648132
 51
40.65724863799639
  0
LINE
  5
374
330
22
100
AcDbEntity
  8
_4-7_
  6
Continuous
 62
     7
100
AcDbLine
 10
1021.312379229757
 20
903.6820454471195
 30
0.0
 11
1021.312379229757
 21
903.3695454471196
 31
0.0
  0
LINE
  5
375
330
22
100
AcDbEntity
  8
_4-7_
  6
Continuous
 62
     7
100
AcDbLine
 10
1021.312379229757
 20
903.3695454471196
 30
0.0
 11
1021.592033266396
 21
902.8851704471186
 31
0.0
  0
ARC
  5
376
330
22
100
AcDbEntity
  8
_4-7_
  6
Continuous
 62
     7
100
AcDbCircle
 10
1021.510843384791
 20
902.8382954471203
 30
0.0
 40
0.09375
100
AcDbArc
 50
270.0000000000005
 51
29.99999999999775
  0
LINE
  5
377
330
22
100
AcDbEntity
  8
_4-7_
  6
Continuous
 62
     7
100
AcDbLine
 10
1021.499879229758
 20
918.3695454471195
 30
0.0
 11
1021.779533266395
 21
917.885170447121
 31
0.0
  0
ARC
  5
378
330
22
100
AcDbEntity
  8
_4-7_
  6
Continuous
 62
     7
100
AcDbCircle
 10
1021.698343384792
 20
917.8382954471203
 30
0.0
 40
0.09375
100
AcDbArc
 50
270.0000000000005
 51
29.99999999999775
  0
LINE
  5
379
330
22
100
AcDbEntity
  8
_4-7_
  6
Continuous
 62
     7
100
AcDbLine
 10
1025.249879229758
 20
924.9408749648456
 30
0.0
 11
1025.249879229758
 21
922.4512196547745
 31
0.0
  0
LINE
  5
37A
330
22
100
AcDbEntity
  8
_4-7_
  6
Continuous
 62
     7
100
AcDbLine
 10
1025.249879229758
 20
926.8070454471196
 30
0.0
 11
1021.499879229758
 21
926.8070454471196
 31
0.0
  0
LINE
  5
37B
330
22
100
AcDbEntity
  8
_4-7_
  6
Continuous
 62
     7
100
AcDbLine
 10
1021.499879229758
 20
924.9408749648434
 30
0.0
 11
1021.499879229758
 21
922.4512196547745
 31
0.0
  0
ARC
  5
37C
330
22
100
AcDbEntity
  8
_4-7_
  6
Continuous
 62
     7
100
AcDbCircle
 10
1025.437379229757
 20
907.7445454471195
 30
0.0
 40
0.3125
100
AcDbArc
 50
90.00000000000156
 51
270.0000003427454
  0
LINE
  5
37D
330
22
100
AcDbEntity
  8
_4-7_
  6
Continuous
 62
     7
100
AcDbLine
 10
1025.249879229755
 20
902.7445454471195
 30
0.0
 11
1025.249879229755
 21
902.2757954471195
 31
0.0
  0
LINE
  5
37E
330
22
100
AcDbEntity
  8
_4-7_
  6
Continuous
 62
     7
100
AcDbLine
 10
1021.499879229756
 20
902.7445454471195
 30
0.0
 11
1021.499879229756
 21
902.2757954471195
 31
0.0
  0
ARC
  5
37F
330
22
100
AcDbEntity
  8
_4-7_
  6
Continuous
 62
     7
100
AcDbCircle
 10
1026.65612922976
 20
923.0931563540462
 30
0.0
 40
0.3125000000049063
100
AcDbArc
 50
319.343059489491
 51
139.3424176191695
  0
ARC
  5
380
330
22
100
AcDbEntity
  8
_4-7_
  6
Continuous
 62
     7
100
AcDbCircle
 10
1020.093629229757
 20
923.0931563540414
 30
0.0
 40
0.3125000000000112
100
AcDbArc
 50
40.6572423076509
 51
220.6572544452008
  0
LINE
  5
381
330
22
100
AcDbEntity
  8
_4-7_
  6
Continuous
 62
     7
100
AcDbLine
 10
1025.437379229757
 20
908.0570454471196
 30
0.0
 11
1025.874879229757
 21
908.8148176754296
 31
0.0
  0
LINE
  5
382
330
22
100
AcDbEntity
  8
_4-7_
  6
Continuous
 62
     7
100
AcDbLine
 10
1025.437379229755
 20
903.3695454471196
 30
0.0
 11
1025.874879229757
 21
906.482519700669
 31
0.0
  0
LINE
  5
383
330
22
100
AcDbEntity
  8
_4-7_
  6
Continuous
 62
     7
100
AcDbLine
 10
1025.437379229757
 20
906.1820454471218
 30
0.0
 11
1025.437379229757
 21
906.4945454471196
 31
0.0
  0
ARC
  5
384
330
22
100
AcDbEntity
  8
_4-7_
  6
Continuous
 62
     7
100
AcDbCircle
 10
1025.238915074723
 20
903.7757954471203
 30
0.0
 40
0.09375
100
AcDbArc
 50
150.0000000000038
 51
270.0000000000005
  0
LINE
  5
385
330
22
100
AcDbEntity
  8
_4-7_
  6
Continuous
 62
     7
100
AcDbLine
 10
1025.437379229755
 20
906.1820454471195
 30
0.0
 11
1025.157725193117
 21
905.6976704471185
 31
0.0
  0
ARC
  5
386
330
22
100
AcDbEntity
  8
_4-7_
  6
Continuous
 62
     7
100
AcDbCircle
 10
1025.238915074723
 20
905.6507954471204
 30
0.0
 40
0.09375
100
AcDbArc
 50
150.0000000000038
 51
270.0000000000005
  0
ARC
  5
387
330
22
100
AcDbEntity
  8
_4-7_
  6
Continuous
 62
     7
100
AcDbCircle
 10
1025.238915074723
 20
904.7132954471203
 30
0.0
 40
0.09375
100
AcDbArc
 50
150.0000000000038
 51
270.0000000000005
  0
LINE
  5
388
330
22
100
AcDbEntity
  8
_4-7_
  6
Continuous
 62
     7
100
AcDbLine
 10
1025.437379229755
 20
905.2445454471195
 30
0.0
 11
1025.157725193117
 21
904.7601704471187
 31
0.0
  0
LINE
  5
389
330
22
100
AcDbEntity
  8
_4-7_
  6
Continuous
 62
     7
100
AcDbLine
 10
1025.437379229755
 20
905.5570454471196
 30
0.0
 11
1025.437379229755
 21
905.2445454471195
 31
0.0
  0
LINE
  5
38A
330
22
100
AcDbEntity
  8
_4-7_
  6
Continuous
 62
     7
100
AcDbLine
 10
1025.437379229755
 20
904.3070454471195
 30
0.0
 11
1025.157725193117
 21
903.822670447121
 31
0.0
  0
LINE
  5
38B
330
22
100
AcDbEntity
  8
_4-7_
  6
Continuous
 62
     7
100
AcDbLine
 10
1025.437379229755
 20
904.6195454471195
 30
0.0
 11
1025.437379229755
 21
904.3070454471195
 31
0.0
  0
LINE
  5
38C
330
22
100
AcDbEntity
  8
_4-7_
  6
Continuous
 62
     7
100
AcDbLine
 10
1025.437379229755
 20
903.3695454471196
 30
0.0
 11
1025.157725193117
 21
902.8851704471186
 31
0.0
  0
LINE
  5
38D
330
22
100
AcDbEntity
  8
_4-7_
  6
Continuous
 62
     7
100
AcDbLine
 10
1025.437379229755
 20
903.6820454471195
 30
0.0
 11
1025.437379229755
 21
903.3695454471196
 31
0.0
  0
LINE
  5
38E
330
22
100
AcDbEntity
  8
_4-7_
  6
Continuous
 62
     7
100
AcDbLine
 10
1025.874879229757
 20
907.4320454471195
 30
0.0
 11
1025.874879229757
 21
906.482519700669
 31
0.0
  0
LINE
  5
38F
330
22
100
AcDbEntity
  8
_4-7_
  6
Continuous
 62
     7
100
AcDbLine
 10
1025.437379229756
 20
911.8070454471219
 30
0.0
 11
1025.874879229757
 21
912.5648176754365
 31
0.0
  0
LINE
  5
390
330
22
100
AcDbEntity
  8
_4-7_
  6
Continuous
 62
     7
100
AcDbLine
 10
1025.874879229758
 20
917.7445454471195
 30
0.0
 11
1025.874879229757
 21
912.5648176754365
 31
0.0
  0
ARC
  5
391
330
22
100
AcDbEntity
  8
_4-7_
  6
Continuous
 62
     7
100
AcDbCircle
 10
1025.437379229759
 20
911.494545447122
 30
0.0
 40
0.3125000000010925
100
AcDbArc
 50
90.00000000000156
 51
270.0000403493669
  0
LINE
  5
392
330
22
100
AcDbEntity
  8
_4-7_
  6
Continuous
 62
     7
100
AcDbLine
 10
1025.437379229756
 20
913.9945454471195
 30
0.0
 11
1025.437379229756
 21
913.6820454471195
 31
0.0
  0
LINE
  5
393
330
22
100
AcDbEntity
  8
_4-7_
  6
Continuous
 62
     7
100
AcDbLine
 10
1025.437379229756
 20
913.6820454471195
 30
0.0
 11
1025.157725193117
 21
913.197670447121
 31
0.0
  0
ARC
  5
394
330
22
100
AcDbEntity
  8
_4-7_
  6
Continuous
 62
     7
100
AcDbCircle
 10
1025.238915074723
 20
913.1507954471203
 30
0.0
 40
0.09375
100
AcDbArc
 50
150.0000000000038
 51
270.0000000000005
  0
LINE
  5
395
330
22
100
AcDbEntity
  8
_4-7_
  6
Continuous
 62
     7
100
AcDbLine
 10
1025.437379229756
 20
913.0570454471195
 30
0.0
 11
1025.437379229756
 21
912.7445454471196
 31
0.0
  0
LINE
  5
396
330
22
100
AcDbEntity
  8
_4-7_
  6
Continuous
 62
     7
100
AcDbLine
 10
1025.437379229756
 20
912.7445454471196
 30
0.0
 11
1025.157725193117
 21
912.2601704471186
 31
0.0
  0
ARC
  5
397
330
22
100
AcDbEntity
  8
_4-7_
  6
Continuous
 62
     7
100
AcDbCircle
 10
1025.238915074723
 20
912.2132954471203
 30
0.0
 40
0.09375
100
AcDbArc
 50
150.0000000000038
 51
270.0000000000005
  0
LINE
  5
398
330
22
100
AcDbEntity
  8
_4-7_
  6
Continuous
 62
     7
100
AcDbLine
 10
1025.437379229756
 20
912.1195454471195
 30
0.0
 11
1025.437379229756
 21
911.8070454471196
 31
0.0
  0
LINE
  5
399
330
22
100
AcDbEntity
  8
_4-7_
  6
Continuous
 62
     7
100
AcDbLine
 10
1025.437379229756
 20
910.8695454471195
 30
0.0
 11
1025.157725193117
 21
910.3851704471185
 31
0.0
  0
LINE
  5
39A
330
22
100
AcDbEntity
  8
_4-7_
  6
Continuous
 62
     7
100
AcDbLine
 10
1025.437379229756
 20
911.1820454471196
 30
0.0
 11
1025.437379229756
 21
910.8695454471195
 31
0.0
  0
ARC
  5
39B
330
22
100
AcDbEntity
  8
_4-7_
  6
Continuous
 62
     7
100
AcDbCircle
 10
1025.238915074723
 20
910.3382954471204
 30
0.0
 40
0.09375
100
AcDbArc
 50
150.0000000000447
 51
270.0000000000005
  0
LINE
  5
39C
330
22
100
AcDbEntity
  8
_4-7_
  6
Continuous
 62
     7
100
AcDbLine
 10
1025.253131617284
 20
924.9535121810687
 30
0.0
 11
1025.253131617284
 21
926.8070454471196
 31
0.0
  0
LINE
  5
39D
330
22
100
AcDbEntity
  8
_4-7_
  6
Continuous
 62
     7
100
AcDbLine
 10
1021.49662684223
 20
924.9535121810687
 30
0.0
 11
1021.49662684223
 21
926.8070454471196
 31
0.0
  0
LINE
  5
39E
330
22
100
AcDbEntity
  8
_4-7_
  6
Continuous
 62
     7
100
AcDbLine
 10
1023.374879229757
 20
922.5882954471195
 30
0.0
 11
1021.499879229758
 21
922.5882954471195
 31
0.0
  0
LINE
  5
39F
330
22
100
AcDbEntity
  8
_4-7_
  6
Continuous
 62
     7
100
AcDbLine
 10
1025.249879229758
 20
922.5882954471195
 30
0.0
 11
1023.374879229757
 21
922.5882954471195
 31
0.0
  0
LINE
  5
3A0
330
22
100
AcDbEntity
  8
_4-7_
  6
Continuous
 62
     7
100
AcDbLine
 10
1024.470199621372
 20
896.5854506141161
 30
0.0
 11
1024.045519161763
 21
895.5570454471196
 31
0.0
  0
LINE
  5
3A1
330
22
100
AcDbEntity
  8
_4-7_
  6
Continuous
 62
     7
100
AcDbLine
 10
1022.704239297751
 20
895.5570454471196
 30
0.0
 11
1024.045519161763
 21
895.5570454471196
 31
0.0
  0
LINE
  5
3A2
330
22
100
AcDbEntity
  8
_4-7_
  6
Continuous
 62
     7
100
AcDbLine
 10
1022.279558838141
 20
896.5854506141161
 30
0.0
 11
1022.704239297751
 21
895.5570454471196
 31
0.0
  0
LINE
  5
3A3
330
22
100
AcDbEntity
  8
_4-7_
  6
Continuous
 62
     7
100
AcDbLine
 10
1025.075280904619
 20
895.5570454471196
 30
0.0
 11
1026.219437904029
 21
895.8636213911271
 31
0.0
  0
LINE
  5
3A4
330
22
100
AcDbEntity
  8
_4-7_
  6
Continuous
 62
     7
100
AcDbLine
 10
1024.779558838141
 20
896.660695224139
 30
0.0
 11
1025.075280904619
 21
895.5570454471196
 31
0.0
  0
LINE
  5
3A5
330
22
100
AcDbEntity
  8
_4-7_
  6
Continuous
 62
     7
100
AcDbLine
 10
1024.779558838141
 20
896.660695224139
 30
0.0
 11
1024.779558838141
 21
900.3382954471181
 31
0.0
  0
LINE
  5
3A6
330
22
100
AcDbEntity
  8
_4-7_
  6
Continuous
 62
     7
100
AcDbLine
 10
1026.219437904029
 20
895.8636213911271
 30
0.0
 11
1025.343629229758
 21
900.557045447122
 31
0.0
  0
LINE
  5
3A7
330
22
100
AcDbEntity
  8
_4-7_
  6
Continuous
 62
     7
100
AcDbLine
 10
1025.343629229758
 20
902.2757954471195
 30
0.0
 11
1025.343629229758
 21
900.557045447122
 31
0.0
  0
LINE
  5
3A8
330
22
100
AcDbEntity
  8
_4-7_
  6
Continuous
 62
     7
100
AcDbLine
 10
1021.674477554894
 20
895.5570454471196
 30
0.0
 11
1020.530320555484
 21
895.8636213911271
 31
0.0
  0
LINE
  5
3A9
330
22
100
AcDbEntity
  8
_4-7_
  6
Continuous
 62
     7
100
AcDbLine
 10
1021.970199621372
 20
896.6606952241367
 30
0.0
 11
1021.674477554894
 21
895.5570454471196
 31
0.0
  0
LINE
  5
3AA
330
22
100
AcDbEntity
  8
_4-7_
  6
Continuous
 62
     7
100
AcDbLine
 10
1021.970199621372
 20
896.6606952241367
 30
0.0
 11
1021.970199621372
 21
900.3382954471181
 31
0.0
  0
LINE
  5
3AB
330
22
100
AcDbEntity
  8
_4-7_
  6
Continuous
 62
     7
100
AcDbLine
 10
1020.530320555484
 20
895.8636213911271
 30
0.0
 11
1021.406129229756
 21
900.5570454471195
 31
0.0
  0
LINE
  5
3AC
330
22
100
AcDbEntity
  8
_4-7_
  6
Continuous
 62
     7
100
AcDbLine
 10
1021.406129229756
 20
902.2757954471195
 30
0.0
 11
1021.406129229756
 21
900.5570454471195
 31
0.0
  0
LINE
  5
3AD
330
22
100
AcDbEntity
  8
_4-7_
  6
Continuous
 62
     7
100
AcDbLine
 10
1025.238915074723
 20
916.8070454471195
 30
0.0
 11
1025.437379229757
 21
916.8070454471195
 31
0.0
  0
LINE
  5
3AE
330
22
100
AcDbEntity
  8
_4-7_
  6
Continuous
 62
     7
100
AcDbLine
 10
1025.238915074723
 20
915.8695454471196
 30
0.0
 11
1025.437379229757
 21
915.8695454471196
 31
0.0
  0
LINE
  5
3AF
330
22
100
AcDbEntity
  8
_4-7_
  6
Continuous
 62
     7
100
AcDbLine
 10
1025.238915074723
 20
914.9320454471196
 30
0.0
 11
1025.437379229757
 21
914.9320454471196
 31
0.0
  0
LINE
  5
3B0
330
22
100
AcDbEntity
  8
_4-7_
  6
Continuous
 62
     7
100
AcDbLine
 10
1025.437379229757
 20
913.9945454471195
 30
0.0
 11
1025.238915074723
 21
913.9945454471195
 31
0.0
  0
LINE
  5
3B1
330
22
100
AcDbEntity
  8
_4-7_
  6
Continuous
 62
     7
100
AcDbLine
 10
1025.437379229757
 20
913.0570454471195
 30
0.0
 11
1025.238915074723
 21
913.0570454471195
 31
0.0
  0
LINE
  5
3B2
330
22
100
AcDbEntity
  8
_4-7_
  6
Continuous
 62
     7
100
AcDbLine
 10
1025.437379229757
 20
912.1195454471195
 30
0.0
 11
1025.238915074723
 21
912.1195454471195
 31
0.0
  0
LINE
  5
3B3
330
22
100
AcDbEntity
  8
_4-7_
  6
Continuous
 62
     7
100
AcDbLine
 10
1025.437379229756
 20
911.1820454471196
 30
0.0
 11
1025.874879229757
 21
911.1820454471196
 31
0.0
  0
LINE
  5
3B4
330
22
100
AcDbEntity
  8
_4-7_
  6
Continuous
 62
     7
100
AcDbLine
 10
1025.238915074723
 20
910.2445454471196
 30
0.0
 11
1025.437379229757
 21
910.2445454471196
 31
0.0
  0
LINE
  5
3B5
330
22
100
AcDbEntity
  8
_4-7_
  6
Continuous
 62
     7
100
AcDbLine
 10
1025.238915074723
 20
909.3070454471195
 30
0.0
 11
1025.437379229757
 21
909.3070454471195
 31
0.0
  0
LINE
  5
3B6
330
22
100
AcDbEntity
  8
_4-7_
  6
Continuous
 62
     7
100
AcDbLine
 10
1025.238915074723
 20
908.3695454471195
 30
0.0
 11
1025.437379229757
 21
908.3695454471195
 31
0.0
  0
LINE
  5
3B7
330
22
100
AcDbEntity
  8
_4-7_
  6
Continuous
 62
     7
100
AcDbLine
 10
1025.437379229757
 20
907.4320454471195
 30
0.0
 11
1025.874879229757
 21
907.4320454471195
 31
0.0
  0
LINE
  5
3B8
330
22
100
AcDbEntity
  8
_4-7_
  6
Continuous
 62
     7
100
AcDbLine
 10
1025.238915074723
 20
906.4945454471196
 30
0.0
 11
1025.437379229757
 21
906.4945454471196
 31
0.0
  0
LINE
  5
3B9
330
22
100
AcDbEntity
  8
_4-7_
  6
Continuous
 62
     7
100
AcDbLine
 10
1025.437379229757
 20
905.5570454471196
 30
0.0
 11
1025.238915074723
 21
905.5570454471196
 31
0.0
  0
LINE
  5
3BA
330
22
100
AcDbEntity
  8
_4-7_
  6
Continuous
 62
     7
100
AcDbLine
 10
1025.437379229757
 20
904.6195454471195
 30
0.0
 11
1025.238915074723
 21
904.6195454471195
 31
0.0
  0
LINE
  5
3BB
330
22
100
AcDbEntity
  8
_4-7_
  6
Continuous
 62
     7
100
AcDbLine
 10
1025.437379229757
 20
903.6820454471195
 30
0.0
 11
1025.238915074723
 21
903.6820454471195
 31
0.0
  0
ARC
  5
3BC
330
22
100
AcDbEntity
  8
_4-7_
  6
Continuous
 62
     7
100
AcDbCircle
 10
1021.510843384791
 20
914.0882954471203
 30
0.0
 40
0.09375
100
AcDbArc
 50
269.9999999999995
 51
30.00000000000245
  0
ARC
  5
3BD
330
22
100
AcDbEntity
  8
_4-7_
  6
Continuous
 62
     7
100
AcDbCircle
 10
1021.510843384791
 20
906.5882954471184
 30
0.0
 40
0.09375
100
AcDbArc
 50
269.9999999999995
 51
30.00000000000245
  0
LINE
  5
3BE
330
22
100
AcDbEntity
  8
_4-7_
  6
Continuous
 62
     7
100
AcDbLine
 10
1021.312379229756
 20
907.1195454471196
 30
0.0
 11
1021.592033266395
 21
906.6351704471211
 31
0.0
  0
ARC
  5
3BF
330
22
100
AcDbEntity
  8
_4-7_
  6
Continuous
 62
     7
100
AcDbCircle
 10
1021.510843384791
 20
915.0257954471204
 30
0.0
 40
0.09375
100
AcDbArc
 50
269.9999999999995
 51
29.99999999998657
  0
LINE
  5
3C0
330
22
100
AcDbEntity
  8
_4-7_
  6
Continuous
 62
     7
100
AcDbLine
 10
1021.312379229756
 20
907.4320454471195
 30
0.0
 11
1021.312379229756
 21
907.1195454471196
 31
0.0
  0
LINE
  5
3C1
330
22
100
AcDbEntity
  8
_4-7_
  6
Continuous
 62
     7
100
AcDbLine
 10
1021.312379229756
 20
908.3695454471195
 30
0.0
 11
1021.312379229756
 21
908.0570454471196
 31
0.0
  0
LINE
  5
3C2
330
22
100
AcDbEntity
  8
_4-7_
  6
Continuous
 62
     7
100
AcDbLine
 10
1021.312379229756
 20
909.3070454471195
 30
0.0
 11
1021.312379229756
 21
908.9945454471195
 31
0.0
  0
ARC
  5
3C3
330
22
100
AcDbEntity
  8
_4-7_
  6
Continuous
 62
     7
100
AcDbCircle
 10
1021.510843384791
 20
908.4632954471203
 30
0.0
 40
0.09375
100
AcDbArc
 50
269.9999999999996
 51
29.99999999998776
  0
LINE
  5
3C4
330
22
100
AcDbEntity
  8
_4-7_
  6
Continuous
 62
     7
100
AcDbLine
 10
1021.312379229756
 20
908.9945454471195
 30
0.0
 11
1021.592033266396
 21
908.510170447121
 31
0.0
  0
LINE
  5
3C5
330
22
100
AcDbEntity
  8
_4-7_
  6
Continuous
 62
     7
100
AcDbLine
 10
1021.312379229756
 20
910.2445454471196
 30
0.0
 11
1021.312379229756
 21
909.9320454471195
 31
0.0
  0
ARC
  5
3C6
330
22
100
AcDbEntity
  8
_4-7_
  6
Continuous
 62
     7
100
AcDbCircle
 10
1021.510843384791
 20
909.4007954471203
 30
0.0
 40
0.09375
100
AcDbArc
 50
269.9999999999996
 51
29.99999999998827
  0
LINE
  5
3C7
330
22
100
AcDbEntity
  8
_4-7_
  6
Continuous
 62
     7
100
AcDbLine
 10
1021.312379229756
 20
909.9320454471195
 30
0.0
 11
1021.592033266396
 21
909.4476704471187
 31
0.0
  0
LINE
  5
3C8
330
22
100
AcDbEntity
  8
_4-7_
  6
Continuous
 62
     7
100
AcDbLine
 10
1021.312379229756
 20
917.7445454471195
 30
0.0
 11
1021.312379229756
 21
917.4320454471196
 31
0.0
  0
LINE
  5
3C9
330
22
100
AcDbEntity
  8
_4-7_
  6
Continuous
 62
     7
100
AcDbLine
 10
1021.312379229756
 20
917.4320454471196
 30
0.0
 11
1021.592033266395
 21
916.9476704471186
 31
0.0
  0
ARC
  5
3CA
330
22
100
AcDbEntity
  8
_4-7_
  6
Continuous
 62
     7
100
AcDbCircle
 10
1021.510843384791
 20
916.9007954471203
 30
0.0
 40
0.09375
100
AcDbArc
 50
269.9999999999996
 51
29.99999999998827
  0
LINE
  5
3CB
330
22
100
AcDbEntity
  8
_4-7_
  6
Continuous
 62
     7
100
AcDbLine
 10
1021.312379229756
 20
916.8070454471195
 30
0.0
 11
1021.312379229756
 21
916.4945454471196
 31
0.0
  0
LINE
  5
3CC
330
22
100
AcDbEntity
  8
_4-7_
  6
Continuous
 62
     7
100
AcDbLine
 10
1021.312379229756
 20
916.4945454471196
 30
0.0
 11
1021.592033266395
 21
916.0101704471211
 31
0.0
  0
ARC
  5
3CD
330
22
100
AcDbEntity
  8
_4-7_
  6
Continuous
 62
     7
100
AcDbCircle
 10
1021.510843384791
 20
915.9632954471184
 30
0.0
 40
0.09375
100
AcDbArc
 50
269.9999999999996
 51
29.99999999998827
  0
LINE
  5
3CE
330
22
100
AcDbEntity
  8
_4-7_
  6
Continuous
 62
     7
100
AcDbLine
 10
1021.312379229756
 20
915.8695454471196
 30
0.0
 11
1021.312379229756
 21
915.5570454471195
 31
0.0
  0
LINE
  5
3CF
330
22
100
AcDbEntity
  8
_4-7_
  6
Continuous
 62
     7
100
AcDbLine
 10
1021.312379229756
 20
915.5570454471195
 30
0.0
 11
1021.592033266395
 21
915.0726704471185
 31
0.0
  0
LINE
  5
3D0
330
22
100
AcDbEntity
  8
_4-7_
  6
Continuous
 62
     7
100
AcDbLine
 10
1021.312379229756
 20
914.9320454471196
 30
0.0
 11
1021.312379229756
 21
914.6195454471195
 31
0.0
  0
LINE
  5
3D1
330
22
100
AcDbEntity
  8
_4-7_
  6
Continuous
 62
     7
100
AcDbLine
 10
1021.312379229756
 20
914.6195454471195
 30
0.0
 11
1021.592033266395
 21
914.135170447121
 31
0.0
  0
ARC
  5
3D2
330
22
100
AcDbEntity
  8
_4-7_
  6
Continuous
 62
     7
100
AcDbCircle
 10
1021.312379229756
 20
907.7445454471195
 30
0.0
 40
0.3125
100
AcDbArc
 50
269.9999996572547
 51
89.99999999999841
  0
LINE
  5
3D3
330
22
100
AcDbEntity
  8
_4-7_
  6
Continuous
 62
     7
100
AcDbLine
 10
1021.312379229756
 20
906.1820454471218
 30
0.0
 11
1021.312379229756
 21
906.4945454471196
 31
0.0
  0
ARC
  5
3D4
330
22
100
AcDbEntity
  8
_4-7_
  6
Continuous
 62
     7
100
AcDbCircle
 10
1021.510843384791
 20
903.7757954471203
 30
0.0
 40
0.09375
100
AcDbArc
 50
269.9999999999995
 51
29.99999999999615
  0
LINE
  5
3D5
330
22
100
AcDbEntity
  8
_4-7_
  6
Continuous
 62
     7
100
AcDbLine
 10
1021.312379229758
 20
906.1820454471195
 30
0.0
 11
1021.592033266396
 21
905.6976704471185
 31
0.0
  0
ARC
  5
3D6
330
22
100
AcDbEntity
  8
_4-7_
  6
Continuous
 62
     7
100
AcDbCircle
 10
1021.510843384791
 20
905.6507954471204
 30
0.0
 40
0.09375
100
AcDbArc
 50
269.9999999999995
 51
29.99999999999615
  0
ARC
  5
3D7
330
22
100
AcDbEntity
  8
_4-7_
  6
Continuous
 62
     7
100
AcDbCircle
 10
1021.510843384791
 20
904.7132954471203
 30
0.0
 40
0.09375
100
AcDbArc
 50
269.9999999999995
 51
29.99999999999615
  0
LINE
  5
3D8
330
22
100
AcDbEntity
  8
_4-7_
  6
Continuous
 62
     7
100
AcDbLine
 10
1021.312379229758
 20
905.2445454471195
 30
0.0
 11
1021.592033266396
 21
904.7601704471187
 31
0.0
  0
LINE
  5
3D9
330
22
100
AcDbEntity
  8
_4-7_
  6
Continuous
 62
     7
100
AcDbLine
 10
1021.312379229758
 20
905.5570454471196
 30
0.0
 11
1021.312379229758
 21
905.2445454471195
 31
0.0
  0
LINE
  5
3DA
330
22
100
AcDbEntity
  8
_4-7_
  6
Continuous
 62
     7
100
AcDbLine
 10
1021.312379229758
 20
904.3070454471195
 30
0.0
 11
1021.592033266396
 21
903.822670447121
 31
0.0
  0
LINE
  5
3DB
330
22
100
AcDbEntity
  8
_4-7_
  6
Continuous
 62
     7
100
AcDbLine
 10
1021.312379229758
 20
904.6195454471195
 30
0.0
 11
1021.312379229758
 21
904.3070454471195
 31
0.0
  0
ARC
  5
3DC
330
22
100
AcDbEntity
  8
_4-7_
  6
Continuous
 62
     7
100
AcDbCircle
 10
1021.312379229755
 20
911.494545447122
 30
0.0
 40
0.3125000000010925
100
AcDbArc
 50
269.9999596506331
 51
89.99999999999841
  0
LINE
  5
3DD
330
22
100
AcDbEntity
  8
_4-7_
  6
Continuous
 62
     7
100
AcDbLine
 10
1021.312379229757
 20
913.9945454471195
 30
0.0
 11
1021.312379229757
 21
913.6820454471195
 31
0.0
  0
LINE
  5
3DE
330
22
100
AcDbEntity
  8
_4-7_
  6
Continuous
 62
     7
100
AcDbLine
 10
1021.312379229757
 20
913.6820454471195
 30
0.0
 11
1021.592033266396
 21
913.197670447121
 31
0.0
  0
ARC
  5
3DF
330
22
100
AcDbEntity
  8
_4-7_
  6
Continuous
 62
     7
100
AcDbCircle
 10
1021.510843384791
 20
913.1507954471203
 30
0.0
 40
0.09375
100
AcDbArc
 50
269.9999999999995
 51
29.99999999999615
  0
LINE
  5
3E0
330
22
100
AcDbEntity
  8
_4-7_
  6
Continuous
 62
     7
100
AcDbLine
 10
1021.312379229757
 20
913.0570454471195
 30
0.0
 11
1021.312379229757
 21
912.7445454471196
 31
0.0
  0
LINE
  5
3E1
330
22
100
AcDbEntity
  8
_4-7_
  6
Continuous
 62
     7
100
AcDbLine
 10
1021.312379229757
 20
912.7445454471196
 30
0.0
 11
1021.592033266396
 21
912.2601704471186
 31
0.0
  0
ARC
  5
3E2
330
22
100
AcDbEntity
  8
_4-7_
  6
Continuous
 62
     7
100
AcDbCircle
 10
1021.510843384791
 20
912.2132954471203
 30
0.0
 40
0.09375
100
AcDbArc
 50
269.9999999999995
 51
29.99999999999615
  0
LINE
  5
3E3
330
22
100
AcDbEntity
  8
_4-7_
  6
Continuous
 62
     7
100
AcDbLine
 10
1021.312379229757
 20
912.1195454471195
 30
0.0
 11
1021.312379229757
 21
911.8070454471196
 31
0.0
  0
LINE
  5
3E4
330
22
100
AcDbEntity
  8
_4-7_
  6
Continuous
 62
     7
100
AcDbLine
 10
1021.312379229757
 20
910.8695454471195
 30
0.0
 11
1021.592033266396
 21
910.3851704471185
 31
0.0
  0
LINE
  5
3E5
330
22
100
AcDbEntity
  8
_4-7_
  6
Continuous
 62
     7
100
AcDbLine
 10
1021.312379229757
 20
911.1820454471196
 30
0.0
 11
1021.312379229757
 21
910.8695454471195
 31
0.0
  0
ARC
  5
3E6
330
22
100
AcDbEntity
  8
_4-7_
  6
Continuous
 62
     7
100
AcDbCircle
 10
1021.510843384791
 20
910.3382954471204
 30
0.0
 40
0.09375
100
AcDbArc
 50
269.9999999999996
 51
29.99999999995529
  0
LINE
  5
3E7
330
22
100
AcDbEntity
  8
_4-7_
  6
Continuous
 62
     7
100
AcDbLine
 10
1021.510843384791
 20
916.8070454471195
 30
0.0
 11
1021.312379229756
 21
916.8070454471195
 31
0.0
  0
LINE
  5
3E8
330
22
100
AcDbEntity
  8
_4-7_
  6
Continuous
 62
     7
100
AcDbLine
 10
1021.510843384791
 20
915.8695454471196
 30
0.0
 11
1021.312379229756
 21
915.8695454471196
 31
0.0
  0
LINE
  5
3E9
330
22
100
AcDbEntity
  8
_4-7_
  6
Continuous
 62
     7
100
AcDbLine
 10
1021.510843384791
 20
914.9320454471196
 30
0.0
 11
1021.312379229756
 21
914.9320454471196
 31
0.0
  0
LINE
  5
3EA
330
22
100
AcDbEntity
  8
_4-7_
  6
Continuous
 62
     7
100
AcDbLine
 10
1021.312379229756
 20
913.9945454471195
 30
0.0
 11
1021.510843384791
 21
913.9945454471195
 31
0.0
  0
LINE
  5
3EB
330
22
100
AcDbEntity
  8
_4-7_
  6
Continuous
 62
     7
100
AcDbLine
 10
1021.312379229756
 20
913.0570454471195
 30
0.0
 11
1021.510843384791
 21
913.0570454471195
 31
0.0
  0
LINE
  5
3EC
330
22
100
AcDbEntity
  8
_4-7_
  6
Continuous
 62
     7
100
AcDbLine
 10
1021.312379229756
 20
912.1195454471195
 30
0.0
 11
1021.510843384791
 21
912.1195454471195
 31
0.0
  0
LINE
  5
3ED
330
22
100
AcDbEntity
  8
_4-7_
  6
Continuous
 62
     7
100
AcDbLine
 10
1021.510843384791
 20
910.2445454471196
 30
0.0
 11
1021.312379229756
 21
910.2445454471196
 31
0.0
  0
LINE
  5
3EE
330
22
100
AcDbEntity
  8
_4-7_
  6
Continuous
 62
     7
100
AcDbLine
 10
1021.510843384791
 20
909.3070454471195
 30
0.0
 11
1021.312379229756
 21
909.3070454471195
 31
0.0
  0
LINE
  5
3EF
330
22
100
AcDbEntity
  8
_4-7_
  6
Continuous
 62
     7
100
AcDbLine
 10
1021.510843384791
 20
908.3695454471195
 30
0.0
 11
1021.312379229756
 21
908.3695454471195
 31
0.0
  0
LINE
  5
3F0
330
22
100
AcDbEntity
  8
_4-7_
  6
Continuous
 62
     7
100
AcDbLine
 10
1021.510843384791
 20
906.4945454471196
 30
0.0
 11
1021.312379229756
 21
906.4945454471196
 31
0.0
  0
LINE
  5
3F1
330
22
100
AcDbEntity
  8
_4-7_
  6
Continuous
 62
     7
100
AcDbLine
 10
1021.312379229756
 20
905.5570454471196
 30
0.0
 11
1021.510843384791
 21
905.5570454471196
 31
0.0
  0
LINE
  5
3F2
330
22
100
AcDbEntity
  8
_4-7_
  6
Continuous
 62
     7
100
AcDbLine
 10
1021.312379229756
 20
904.6195454471195
 30
0.0
 11
1021.510843384791
 21
904.6195454471195
 31
0.0
  0
LINE
  5
3F3
330
22
100
AcDbEntity
  8
_4-7_
  6
Continuous
 62
     7
100
AcDbLine
 10
1021.312379229756
 20
903.6820454471195
 30
0.0
 11
1021.510843384791
 21
903.6820454471195
 31
0.0
  0
LINE
  5
3F4
330
22
100
AcDbEntity
  8
_4-7_
  6
Continuous
 62
     7
100
AcDbLine
 10
1021.312379229755
 20
911.1820454471196
 30
0.0
 11
1020.874879229757
 21
911.1820454471196
 31
0.0
  0
LINE
  5
3F5
330
22
100
AcDbEntity
  8
_4-7_
  6
Continuous
 62
     7
100
AcDbLine
 10
1021.312379229756
 20
907.4320454471195
 30
0.0
 11
1020.874879229757
 21
907.4320454471195
 31
0.0
  0
ARC
  5
3F6
330
22
100
AcDbEntity
  8
_4-7_
  6
Continuous
 62
     7
100
AcDbCircle
 10
1031.999879229757
 20
919.1820454471193
 30
0.0
 40
7.500000000000001
100
AcDbArc
 50
154.1580672368453
 51
179.3848179113974
  0
ARC
  5
3F7
330
22
100
AcDbEntity
  8
_4-7_
  6
Continuous
 62
     7
100
AcDbCircle
 10
1014.749879229756
 20
919.1820454471193
 30
0.0
 40
7.500000000000001
100
AcDbArc
 50
0.6151820885999047
 51
25.84193276316603
  0
LINE
  5
3F8
330
22
100
AcDbEntity
  8
_4-7_
  6
Continuous
 62
     7
100
AcDbLine
 10
1021.698343384792
 20
917.7445454471195
 30
0.0
 11
1020.874879229757
 21
917.7445454471195
 31
0.0
  0
LINE
  5
3F9
330
22
100
AcDbEntity
  8
_4-7_
  6
Continuous
 62
     7
100
AcDbLine
 10
1025.051415074723
 20
917.7445454471195
 30
0.0
 11
1025.874879229758
 21
917.7445454471195
 31
0.0
  0
ARC
  5
3FA
330
22
100
AcDbEntity
  8
_4-7_
  6
Continuous
 62
     7
100
AcDbCircle
 10
1025.238915074723
 20
902.8382954471203
 30
0.0
 40
0.09375
100
AcDbArc
 50
150.0000000000038
 51
276.7161678203814
  0
LINE
  5
3FB
330
22
100
AcDbEntity
  8
_4-7_
  6
Continuous
 62
     7
100
AcDbLine
 10
1025.343629229758
 20
902.2757954471195
 30
0.0
 11
1025.249879229755
 21
902.2757954471195
 31
0.0
  0
LINE
  5
3FC
330
22
100
AcDbEntity
  8
_4-7_
  6
Continuous
 62
     7
100
AcDbLine
 10
1021.499879229756
 20
902.2757954471195
 30
0.0
 11
1021.406129229756
 21
902.2757954471195
 31
0.0
  0
LINE
  5
3FD
330
22
100
AcDbEntity
  8
_4-3_
  6
Continuous
 62
     3
100
AcDbLine
 10
942.1248792297568
 20
1338.2053444192
 30
0.0
 11
942.1248792297568
 21
1217.861388604604
 31
0.0
  0
LINE
  5
3FE
330
22
100
AcDbEntity
  8
_4-3_
  6
Continuous
 62
     3
100
AcDbLine
 10
942.1248792297568
 20
1195.986388604604
 30
0.0
 11
942.1248792297568
 21
1020.55704544712
 31
0.0
  0
LINE
  5
3FF
330
22
100
AcDbEntity
  8
_4-3_
  6
Continuous
 62
     3
100
AcDbLine
 10
973.3748792297568
 20
1338.2053444192
 30
0.0
 11
973.3748792297568
 21
1217.861388604604
 31
0.0
  0
LINE
  5
400
330
22
100
AcDbEntity
  8
_4-3_
  6
Continuous
 62
     3
100
AcDbLine
 10
973.3748792297568
 20
1195.986388604604
 30
0.0
 11
973.3748792297568
 21
1020.55704544712
 31
0.0
  0
LINE
  5
401
330
22
100
AcDbEntity
  8
_4-4_
  6
Continuous
 62
     3
100
AcDbLine
 10
1047.437341013478
 20
1251.392471327133
 30
0.0
 11
1051.146241124815
 21
1217.861388604604
 31
0.0
  0
LINE
  5
402
330
22
100
AcDbEntity
  8
_4-4_
  6
Continuous
 62
     3
100
AcDbLine
 10
1053.5658525226
 20
1195.986388604604
 30
0.0
 11
1082.454928666686
 21
934.8086882389795
 31
0.0
  0
LINE
  5
403
330
22
100
AcDbEntity
  8
_4-4_
  6
Continuous
 62
     3
100
AcDbLine
 10
1066.073682111224
 20
1253.453852050934
 30
0.0
 11
1070.010593207452
 21
1217.861388604604
 31
0.0
  0
LINE
  5
404
330
22
100
AcDbEntity
  8
_4-4_
  6
Continuous
 62
     3
100
AcDbLine
 10
1072.430204605237
 20
1195.986388604604
 30
0.0
 11
1101.091269764432
 21
936.8700689627782
 31
0.0
  0
TEXT
  5
405
330
22
100
AcDbEntity
  8
_4-A_
 62
     7
100
AcDbText
 10
1284.771844123477
 20
991.9254088564141
 30
0.0
 40
15.0
  1
塩ビシート 増張り
100
AcDbText
  0
TEXT
  5
406
330
22
100
AcDbEntity
  8
_2-B_DIM
 62
     7
100
AcDbText
 10
1057.482612381045
 20
381.9164394476709
 30
0.0
 40
15.0
  1
40以上
100
AcDbText
  0
LINE
  5
407
330
22
100
AcDbEntity
  8
_4-7_
  6
Continuous
 62
     7
100
AcDbLine
 10
691.671759310924
 20
1174.24736721405
 30
0.0
 11
691.671759310924
 21
1176.80704544712
 31
0.0
  0
LINE
  5
408
330
22
100
AcDbEntity
  8
_4-7_
  6
Continuous
 62
     7
100
AcDbLine
 10
691.671759310924
 20
1176.80704544712
 30
0.0
 11
689.796759310924
 21
1176.80704544712
 31
0.0
  0
LINE
  5
409
330
22
100
AcDbEntity
  8
_4-7_
  6
Continuous
 62
     7
100
AcDbLine
 10
691.671759310924
 20
1174.24736721405
 30
0.0
 11
692.140509310924
 21
1173.732016638924
 31
0.0
  0
LINE
  5
40A
330
22
100
AcDbEntity
  8
_4-7_
  6
Continuous
 62
     7
100
AcDbLine
 10
692.140509310924
 20
1173.732016638924
 30
0.0
 11
692.140509310924
 21
1172.420388059476
 31
0.0
  0
LINE
  5
40B
330
22
100
AcDbEntity
  8
_4-7_
  6
Continuous
 62
     7
100
AcDbLine
 10
692.140509310924
 20
1172.420388059476
 30
0.0
 11
691.7978722796727
 21
1169.846892238696
 31
0.0
  0
LINE
  5
40C
330
22
100
AcDbEntity
  8
_4-7_
  6
Continuous
 62
     7
100
AcDbLine
 10
691.7978722796727
 20
1169.846892238696
 30
0.0
 11
691.6466699359226
 21
1169.59213317087
 31
0.0
  0
LINE
  5
40D
330
22
100
AcDbEntity
  8
_4-7_
  6
Continuous
 62
     7
100
AcDbLine
 10
691.6466699359226
 20
1169.59213317087
 30
0.0
 11
691.671759310924
 21
1169.59213317087
 31
0.0
  0
LINE
  5
40E
330
22
100
AcDbEntity
  8
_4-7_
  6
Continuous
 62
     7
100
AcDbLine
 10
691.671759310924
 20
1169.59213317087
 30
0.0
 11
691.671759310924
 21
1168.458361241746
 31
0.0
  0
LINE
  5
40F
330
22
100
AcDbEntity
  8
_4-7_
  6
Continuous
 62
     7
100
AcDbLine
 10
691.671759310924
 20
1168.458361241746
 30
0.0
 11
691.4011264605699
 21
1167.943010364871
 31
0.0
  0
LINE
  5
410
330
22
100
AcDbEntity
  8
_4-7_
  6
Continuous
 62
     7
100
AcDbLine
 10
691.4823163421726
 20
1167.788405101807
 30
0.0
 11
692.0936343109235
 21
1167.788405101807
 31
0.0
  0
LINE
  5
411
330
22
100
AcDbEntity
  8
_4-7_
  6
Continuous
 62
     7
100
AcDbLine
 10
692.0936343109235
 20
1167.788405101807
 30
0.0
 11
692.0936343109235
 21
1165.142535980633
 31
0.0
  0
LINE
  5
412
330
22
100
AcDbEntity
  8
_4-7_
  6
Continuous
 62
     7
100
AcDbLine
 10
692.0936343109235
 20
1165.142535980633
 30
0.0
 11
691.7802158734239
 21
1164.541694577495
 31
0.0
  0
LINE
  5
413
330
22
100
AcDbEntity
  8
_4-7_
  6
Continuous
 62
     7
100
AcDbLine
 10
691.7802158734239
 20
1164.541694577495
 30
0.0
 11
691.7772280609246
 21
1164.541694577495
 31
0.0
  0
LINE
  5
414
330
22
100
AcDbEntity
  8
_4-7_
  6
Continuous
 62
     7
100
AcDbLine
 10
691.777225452621
 20
1164.541694798609
 30
0.0
 11
691.7772280609246
 21
1164.541694577495
 31
0.0
  0
LINE
  5
415
330
22
100
AcDbEntity
  8
_4-7_
  6
Continuous
 62
     7
100
AcDbLine
 10
691.777225452621
 20
1164.541694798609
 30
0.0
 11
691.7772280609246
 21
1164.541694577495
 31
0.0
  0
LINE
  5
416
330
22
100
AcDbEntity
  8
_4-7_
  6
Continuous
 62
     7
100
AcDbLine
 10
691.7568585296737
 20
1163.871738437558
 30
0.0
 11
692.0936343109235
 21
1163.871738437558
 31
0.0
  0
LINE
  5
417
330
22
100
AcDbEntity
  8
_4-7_
  6
Continuous
 62
     7
100
AcDbLine
 10
692.0936343109235
 20
1163.871738437558
 30
0.0
 11
692.0936343109235
 21
1160.248467727075
 31
0.0
  0
LINE
  5
418
330
22
100
AcDbEntity
  8
_4-7_
  6
Continuous
 62
     7
100
AcDbLine
 10
692.0936343109235
 20
1160.248467727075
 30
0.0
 11
691.7772298190095
 21
1159.645873120971
 31
0.0
  0
LINE
  5
419
330
22
100
AcDbEntity
  8
_4-7_
  6
Continuous
 62
     7
100
AcDbLine
 10
691.7772280609246
 20
1159.645861247182
 30
0.0
 11
691.7749832919493
 21
1159.944268370458
 31
0.0
  0
LINE
  5
41A
330
22
100
AcDbEntity
  8
_4-7_
  6
Continuous
 62
     7
100
AcDbLine
 10
691.7749832919493
 20
1159.944268370458
 30
0.0
 11
691.5745582871852
 21
1159.955071773308
 31
0.0
  0
LINE
  5
41B
330
22
100
AcDbEntity
  8
_4-7_
  6
Continuous
 62
     7
100
AcDbLine
 10
691.475394512082
 20
1160.109677036371
 30
0.0
 11
691.7568585296737
 21
1160.625027913245
 31
0.0
  0
LINE
  5
41C
330
22
100
AcDbEntity
  8
_4-7_
  6
Continuous
 62
     7
100
AcDbLine
 10
691.7568585296737
 20
1160.625027913245
 30
0.0
 11
691.75685862475
 21
1160.923435081367
 31
0.0
  0
LINE
  5
41D
330
22
100
AcDbEntity
  8
_4-7_
  6
Continuous
 62
     7
100
AcDbLine
 10
691.75685862475
 20
1160.923435081367
 30
0.0
 11
691.5393383734238
 21
1160.934238439371
 31
0.0
  0
LINE
  5
41E
330
22
100
AcDbEntity
  8
_4-7_
  6
Continuous
 62
     7
100
AcDbLine
 10
691.4395947798482
 20
1161.088843702433
 30
0.0
 11
691.7568585296737
 21
1161.604194579308
 31
0.0
  0
LINE
  5
41F
330
22
100
AcDbEntity
  8
_4-7_
  6
Continuous
 62
     7
100
AcDbLine
 10
691.7568585296737
 20
1161.604194579308
 30
0.0
 11
691.7568585296737
 21
1161.902601805
 31
0.0
  0
LINE
  5
420
330
22
100
AcDbEntity
  8
_4-7_
  6
Continuous
 62
     7
100
AcDbLine
 10
691.7568585296737
 20
1161.902601805
 30
0.0
 11
691.5393383734238
 21
1161.913405105433
 31
0.0
  0
LINE
  5
421
330
22
100
AcDbEntity
  8
_4-7_
  6
Continuous
 62
     7
100
AcDbLine
 10
691.4395947798482
 20
1162.068010368495
 30
0.0
 11
691.7568585296737
 21
1162.583361245371
 31
0.0
  0
LINE
  5
422
330
22
100
AcDbEntity
  8
_4-7_
  6
Continuous
 62
     7
100
AcDbLine
 10
691.7568585296737
 20
1162.583361245371
 30
0.0
 11
691.7568585296737
 21
1162.881768471063
 31
0.0
  0
LINE
  5
423
330
22
100
AcDbEntity
  8
_4-7_
  6
Continuous
 62
     7
100
AcDbLine
 10
691.7568585296737
 20
1162.881768471063
 30
0.0
 11
691.5393383734238
 21
1162.892571771495
 31
0.0
  0
LINE
  5
424
330
22
100
AcDbEntity
  8
_4-7_
  6
Continuous
 62
     7
100
AcDbLine
 10
691.4395947798482
 20
1163.047177034558
 30
0.0
 11
691.75685862475
 21
1163.562527911433
 31
0.0
  0
LINE
  5
425
330
22
100
AcDbEntity
  8
_4-7_
  6
Continuous
 62
     7
100
AcDbLine
 10
691.75685862475
 20
1163.562527911433
 30
0.0
 11
691.7568585296737
 21
1163.871738437558
 31
0.0
  0
LINE
  5
426
330
22
100
AcDbEntity
  8
_4-7_
  6
Continuous
 62
     7
100
AcDbLine
 10
691.777225452621
 20
1164.541694798609
 30
0.0
 11
691.7749222018425
 21
1164.840101966731
 31
0.0
  0
LINE
  5
427
330
22
100
AcDbEntity
  8
_4-7_
  6
Continuous
 62
     7
100
AcDbLine
 10
691.7749222018425
 20
1164.840101966731
 30
0.0
 11
691.5765191546745
 21
1164.85090510362
 31
0.0
  0
LINE
  5
428
330
22
100
AcDbEntity
  8
_4-7_
  6
Continuous
 62
     7
100
AcDbLine
 10
691.4752115669728
 20
1165.005510366682
 30
0.0
 11
691.75685862475
 21
1165.520861243558
 31
0.0
  0
LINE
  5
429
330
22
100
AcDbEntity
  8
_4-7_
  6
Continuous
 62
     7
100
AcDbLine
 10
691.75685862475
 20
1165.520861243558
 30
0.0
 11
691.75685862475
 21
1165.819268411679
 31
0.0
  0
LINE
  5
42A
330
22
100
AcDbEntity
  8
_4-7_
  6
Continuous
 62
     7
100
AcDbLine
 10
691.75685862475
 20
1165.819268411679
 30
0.0
 11
691.5393383734238
 21
1165.830071769683
 31
0.0
  0
LINE
  5
42B
330
22
100
AcDbEntity
  8
_4-7_
  6
Continuous
 62
     7
100
AcDbLine
 10
691.4395947798482
 20
1165.984677032745
 30
0.0
 11
691.7568585296737
 21
1166.50002790962
 31
0.0
  0
LINE
  5
42C
330
22
100
AcDbEntity
  8
_4-7_
  6
Continuous
 62
     7
100
AcDbLine
 10
691.7568585296737
 20
1166.50002790962
 30
0.0
 11
691.75685862475
 21
1166.798435077741
 31
0.0
  0
LINE
  5
42D
330
22
100
AcDbEntity
  8
_4-7_
  6
Continuous
 62
     7
100
AcDbLine
 10
691.75685862475
 20
1166.798435077741
 30
0.0
 11
691.5387845656198
 21
1166.80938317397
 31
0.0
  0
LINE
  5
42E
330
22
100
AcDbEntity
  8
_4-7_
  6
Continuous
 62
     7
100
AcDbLine
 10
691.4395947798482
 20
1166.963843698809
 30
0.0
 11
691.75685862475
 21
1167.479194575682
 31
0.0
  0
LINE
  5
42F
330
22
100
AcDbEntity
  8
_4-7_
  6
Continuous
 62
     7
100
AcDbLine
 10
691.75685862475
 20
1167.479194575682
 30
0.0
 11
691.7568585262337
 21
1167.788405101807
 31
0.0
  0
LINE
  5
430
330
22
100
AcDbEntity
  8
_4-7_
  6
Continuous
 62
     7
100
AcDbLine
 10
691.7568585296737
 20
1158.975905107246
 30
0.0
 11
692.0936343109235
 21
1158.975905107246
 31
0.0
  0
LINE
  5
431
330
22
100
AcDbEntity
  8
_4-7_
  6
Continuous
 62
     7
100
AcDbLine
 10
692.0936343109235
 20
1158.975905107246
 30
0.0
 11
692.0936343109235
 21
1156.945754022972
 31
0.0
  0
LINE
  5
432
330
22
100
AcDbEntity
  8
_4-7_
  6
Continuous
 62
     7
100
AcDbLine
 10
692.0936343109235
 20
1156.945754022972
 30
0.0
 11
691.7775182171737
 21
1154.75002791687
 31
0.0
  0
LINE
  5
433
330
22
100
AcDbEntity
  8
_4-7_
  6
Continuous
 62
     7
100
AcDbLine
 10
691.7775182171737
 20
1154.75002791687
 30
0.0
 11
691.7770591436339
 21
1155.048434844459
 31
0.0
  0
LINE
  5
434
330
22
100
AcDbEntity
  8
_4-7_
  6
Continuous
 62
     7
100
AcDbLine
 10
691.7770591436339
 20
1155.048434844459
 30
0.0
 11
691.5841288421745
 21
1155.059238442995
 31
0.0
  0
LINE
  5
435
330
22
100
AcDbEntity
  8
_4-7_
  6
Continuous
 62
     7
100
AcDbLine
 10
691.7775182171737
 20
1154.75002791687
 30
0.0
 11
691.506595210568
 21
1154.234677039996
 31
0.0
  0
LINE
  5
436
330
22
100
AcDbEntity
  8
_4-7_
  6
Continuous
 62
     7
100
AcDbLine
 10
691.4937809891817
 20
1155.213843706057
 30
0.0
 11
691.7754074475953
 21
1155.729194582932
 31
0.0
  0
LINE
  5
437
330
22
100
AcDbEntity
  8
_4-7_
  6
Continuous
 62
     7
100
AcDbLine
 10
691.7754074475953
 20
1155.729194582932
 30
0.0
 11
691.7741043824309
 21
1156.02760151052
 31
0.0
  0
LINE
  5
438
330
22
100
AcDbEntity
  8
_4-7_
  6
Continuous
 62
     7
100
AcDbLine
 10
691.7741043824309
 20
1156.02760151052
 30
0.0
 11
691.5726500921721
 21
1156.038405109057
 31
0.0
  0
LINE
  5
439
330
22
100
AcDbEntity
  8
_4-7_
  6
Continuous
 62
     7
100
AcDbLine
 10
691.479834157286
 20
1156.19301037212
 30
0.0
 11
691.7697515693646
 21
1156.708361008461
 31
0.0
  0
LINE
  5
43A
330
22
100
AcDbEntity
  8
_4-7_
  6
Continuous
 62
     7
100
AcDbLine
 10
691.7697515693646
 20
1156.708361008461
 30
0.0
 11
691.7672122939314
 21
1157.006768176584
 31
0.0
  0
LINE
  5
43B
330
22
100
AcDbEntity
  8
_4-7_
  6
Continuous
 62
     7
100
AcDbLine
 10
691.7672122939314
 20
1157.006768176584
 30
0.0
 11
691.5580539468884
 21
1157.01757177512
 31
0.0
  0
LINE
  5
43C
330
22
100
AcDbEntity
  8
_4-7_
  6
Continuous
 62
     7
100
AcDbLine
 10
691.4597698117825
 20
1157.172177038182
 30
0.0
 11
691.7598964519095
 21
1157.687527674525
 31
0.0
  0
LINE
  5
43D
330
22
100
AcDbEntity
  8
_4-7_
  6
Continuous
 62
     7
100
AcDbLine
 10
691.7598964519095
 20
1157.687527674525
 30
0.0
 11
691.7568585296737
 21
1157.98593514075
 31
0.0
  0
LINE
  5
43E
330
22
100
AcDbEntity
  8
_4-7_
  6
Continuous
 62
     7
100
AcDbLine
 10
691.7568585296737
 20
1157.98593514075
 30
0.0
 11
691.5393383734238
 21
1157.996738441183
 31
0.0
  0
LINE
  5
43F
330
22
100
AcDbEntity
  8
_4-7_
  6
Continuous
 62
     7
100
AcDbLine
 10
691.4395947798482
 20
1158.151343704244
 30
0.0
 11
691.75685862475
 21
1158.66669458112
 31
0.0
  0
LINE
  5
440
330
22
100
AcDbEntity
  8
_4-7_
  6
Continuous
 62
     7
100
AcDbLine
 10
691.75685862475
 20
1158.66669458112
 30
0.0
 11
691.7568585296737
 21
1158.975905107246
 31
0.0
  0
LINE
  5
441
330
22
100
AcDbEntity
  8
_4-7_
  6
Continuous
 62
     7
100
AcDbLine
 10
691.5877850921754
 20
1154.080071776933
 30
0.0
 11
691.671759310924
 21
1154.080071776933
 31
0.0
  0
LINE
  5
442
330
22
100
AcDbEntity
  8
_4-7_
  6
Continuous
 62
     7
100
AcDbLine
 10
691.671759310924
 20
1154.080071776933
 30
0.0
 11
691.671759310924
 21
1153.590488443901
 31
0.0
  0
LINE
  5
443
330
22
100
AcDbEntity
  8
_4-7_
  6
Continuous
 62
     7
100
AcDbLine
 10
691.671759310924
 20
1153.590488443901
 30
0.0
 11
691.5780093109255
 21
1153.590488443901
 31
0.0
  0
LINE
  5
444
330
22
100
AcDbEntity
  8
_4-7_
  6
Continuous
 62
     7
100
AcDbLine
 10
691.5780093109255
 20
1153.590488443901
 30
0.0
 11
691.5780093109255
 21
1152.585554233995
 31
0.0
  0
LINE
  5
445
330
22
100
AcDbEntity
  8
_4-7_
  6
Continuous
 62
     7
100
AcDbLine
 10
691.5780093109255
 20
1152.585554233995
 30
0.0
 11
691.5739675541736
 21
1152.585554233995
 31
0.0
  0
LINE
  5
446
330
22
100
AcDbEntity
  8
_4-7_
  6
Continuous
 62
     7
100
AcDbLine
 10
691.5425455609249
 20
1152.379413883245
 30
0.0
 11
691.5425454693388
 21
1148.660387887733
 31
0.0
  0
LINE
  5
447
330
22
100
AcDbEntity
  8
_4-7_
  6
Continuous
 62
     7
100
AcDbLine
 10
691.5425454693388
 20
1148.660387887733
 30
0.0
 11
691.267272123424
 21
1148.253249872633
 31
0.0
  0
LINE
  5
448
330
22
100
AcDbEntity
  8
_4-7_
  6
Continuous
 62
     7
100
AcDbLine
 10
691.267272123424
 20
1148.253249872633
 30
0.0
 11
690.6405093109254
 21
1147.432045465245
 31
0.0
  0
LINE
  5
449
330
22
100
AcDbEntity
  8
_4-7_
  6
Continuous
 62
     7
100
AcDbLine
 10
690.6405093109254
 20
1147.432045465245
 30
0.0
 11
690.5471477612413
 21
1147.432045465245
 31
0.0
  0
LINE
  5
44A
330
22
100
AcDbEntity
  8
_4-7_
  6
Continuous
 62
     7
100
AcDbLine
 10
690.5471477612413
 20
1147.432045465245
 30
0.0
 11
691.2253315795612
 21
1148.660387887733
 31
0.0
  0
LINE
  5
44B
330
22
100
AcDbEntity
  8
_4-7_
  6
Continuous
 62
     7
100
AcDbLine
 10
691.2253315795612
 20
1148.660387887733
 30
0.0
 11
691.225331654674
 21
1151.142571778746
 31
0.0
  0
LINE
  5
44C
330
22
100
AcDbEntity
  8
_4-7_
  6
Continuous
 62
     7
100
AcDbLine
 10
690.8607294671729
 20
1151.142571778746
 30
0.0
 11
690.8607296380673
 21
1148.66038798317
 31
0.0
  0
LINE
  5
44D
330
22
100
AcDbEntity
  8
_4-7_
  6
Continuous
 62
     7
100
AcDbLine
 10
690.8607296380673
 20
1148.66038798317
 30
0.0
 11
690.1825456597987
 21
1147.432045465245
 31
0.0
  0
LINE
  5
44E
330
22
100
AcDbEntity
  8
_4-7_
  6
Continuous
 62
     7
100
AcDbLine
 10
690.1825456597987
 20
1147.432045465245
 30
0.0
 11
689.796759310924
 21
1147.432045465245
 31
0.0
  0
LINE
  5
44F
330
22
100
AcDbEntity
  8
_4-7_
  6
Continuous
 62
     7
100
AcDbLine
 10
691.4078218766007
 20
1167.955759997786
 30
0.0
 11
691.4078218766007
 21
1167.955759997786
 31
0.0
  0
LINE
  5
450
330
22
100
AcDbEntity
  8
_4-7_
  6
Continuous
 62
     7
100
AcDbLine
 10
691.4078218766007
 20
1167.955759997786
 30
0.0
 11
691.399573048254
 21
1167.939347900676
 31
0.0
  0
LINE
  5
451
330
22
100
AcDbEntity
  8
_4-7_
  6
Continuous
 62
     7
100
AcDbLine
 10
691.399573048254
 20
1167.939347900676
 30
0.0
 11
691.3940417623966
 21
1167.921610344445
 31
0.0
  0
LINE
  5
452
330
22
100
AcDbEntity
  8
_4-7_
  6
Continuous
 62
     7
100
AcDbLine
 10
691.3940417623966
 20
1167.921610344445
 30
0.0
 11
691.3913960843512
 21
1167.903086275765
 31
0.0
  0
LINE
  5
453
330
22
100
AcDbEntity
  8
_4-7_
  6
Continuous
 62
     7
100
AcDbLine
 10
691.3913960843512
 20
1167.903086275765
 30
0.0
 11
691.3917164017056
 21
1167.884338539088
 31
0.0
  0
LINE
  5
454
330
22
100
AcDbEntity
  8
_4-7_
  6
Continuous
 62
     7
100
AcDbLine
 10
691.3917164017056
 20
1167.884338539088
 30
0.0
 11
691.3949929817795
 21
1167.865936774907
 31
0.0
  0
LINE
  5
455
330
22
100
AcDbEntity
  8
_4-7_
  6
Continuous
 62
     7
100
AcDbLine
 10
691.3949929817795
 20
1167.865936774907
 30
0.0
 11
691.4011262673453
 21
1167.848440111514
 31
0.0
  0
LINE
  5
456
330
22
100
AcDbEntity
  8
_4-7_
  6
Continuous
 62
     7
100
AcDbLine
 10
691.4011262673453
 20
1167.848440111514
 30
0.0
 11
691.4099299016243
 21
1167.832380176173
 31
0.0
  0
LINE
  5
457
330
22
100
AcDbEntity
  8
_4-7_
  6
Continuous
 62
     7
100
AcDbLine
 10
691.4099299016243
 20
1167.832380176173
 30
0.0
 11
691.4211363906447
 21
1167.818244941893
 31
0.0
  0
LINE
  5
458
330
22
100
AcDbEntity
  8
_4-7_
  6
Continuous
 62
     7
100
AcDbLine
 10
691.4211363906447
 20
1167.818244941893
 30
0.0
 11
691.4344052309076
 21
1167.806463900615
 31
0.0
  0
LINE
  5
459
330
22
100
AcDbEntity
  8
_4-7_
  6
Continuous
 62
     7
100
AcDbLine
 10
691.4344052309076
 20
1167.806463900615
 30
0.0
 11
691.4493332554161
 21
1167.797395013315
 31
0.0
  0
LINE
  5
45A
330
22
100
AcDbEntity
  8
_4-7_
  6
Continuous
 62
     7
100
AcDbLine
 10
691.4493332554161
 20
1167.797395013315
 30
0.0
 11
691.4654668836996
 21
1167.791313833546
 31
0.0
  0
LINE
  5
45B
330
22
100
AcDbEntity
  8
_4-7_
  6
Continuous
 62
     7
100
AcDbLine
 10
691.4654668836996
 20
1167.791313833546
 30
0.0
 11
691.4823159036265
 21
1167.788405134877
 31
0.0
  0
LINE
  5
45C
330
22
100
AcDbEntity
  8
_4-7_
  6
Continuous
 62
     7
100
AcDbLine
 10
691.4823159036265
 20
1167.788405134877
 30
0.0
 11
691.4823163421738
 21
1167.788405101807
 31
0.0
  0
LINE
  5
45D
330
22
100
AcDbEntity
  8
_4-7_
  6
Continuous
 62
     7
100
AcDbLine
 10
691.4395947798483
 20
1166.963843698808
 30
0.0
 11
691.4395947798483
 21
1166.963843698808
 31
0.0
  0
LINE
  5
45E
330
22
100
AcDbEntity
  8
_4-7_
  6
Continuous
 62
     7
100
AcDbLine
 10
691.4395947798483
 20
1166.963843698808
 30
0.0
 11
691.4391753388565
 21
1166.938869852565
 31
0.0
  0
LINE
  5
45F
330
22
100
AcDbEntity
  8
_4-7_
  6
Continuous
 62
     7
100
AcDbLine
 10
691.4391753388565
 20
1166.938869852565
 30
0.0
 11
691.4427067879589
 21
1166.914195339076
 31
0.0
  0
LINE
  5
460
330
22
100
AcDbEntity
  8
_4-7_
  6
Continuous
 62
     7
100
AcDbLine
 10
691.4427067879589
 20
1166.914195339076
 30
0.0
 11
691.4500818258619
 21
1166.890569880948
 31
0.0
  0
LINE
  5
461
330
22
100
AcDbEntity
  8
_4-7_
  6
Continuous
 62
     7
100
AcDbLine
 10
691.4500818258619
 20
1166.890569880948
 30
0.0
 11
691.4610763657706
 21
1166.868711325769
 31
0.0
  0
LINE
  5
462
330
22
100
AcDbEntity
  8
_4-7_
  6
Continuous
 62
     7
100
AcDbLine
 10
691.4610763657706
 20
1166.868711325769
 30
0.0
 11
691.4753563441534
 21
1166.84928383468
 31
0.0
  0
LINE
  5
463
330
22
100
AcDbEntity
  8
_4-7_
  6
Continuous
 62
     7
100
AcDbLine
 10
691.4753563441534
 20
1166.84928383468
 30
0.0
 11
691.4924878710933
 21
1166.832877702165
 31
0.0
  0
LINE
  5
464
330
22
100
AcDbEntity
  8
_4-7_
  6
Continuous
 62
     7
100
AcDbLine
 10
691.4924878710933
 20
1166.832877702165
 30
0.0
 11
691.511950413813
 21
1166.819991420259
 31
0.0
  0
LINE
  5
465
330
22
100
AcDbEntity
  8
_4-7_
  6
Continuous
 62
     7
100
AcDbLine
 10
691.511950413813
 20
1166.819991420259
 30
0.0
 11
691.5331526128004
 21
1166.811016532117
 31
0.0
  0
LINE
  5
466
330
22
100
AcDbEntity
  8
_4-7_
  6
Continuous
 62
     7
100
AcDbLine
 10
691.5331526128004
 20
1166.811016532117
 30
0.0
 11
691.5393383734238
 21
1166.809238435746
 31
0.0
  0
LINE
  5
467
330
22
100
AcDbEntity
  8
_4-7_
  6
Continuous
 62
     7
100
AcDbLine
 10
691.4395947798483
 20
1165.984677032744
 30
0.0
 11
691.4395947798483
 21
1165.984677032744
 31
0.0
  0
LINE
  5
468
330
22
100
AcDbEntity
  8
_4-7_
  6
Continuous
 62
     7
100
AcDbLine
 10
691.4395947798483
 20
1165.984677032744
 30
0.0
 11
691.4391753388565
 21
1165.959703186502
 31
0.0
  0
LINE
  5
469
330
22
100
AcDbEntity
  8
_4-7_
  6
Continuous
 62
     7
100
AcDbLine
 10
691.4391753388565
 20
1165.959703186502
 30
0.0
 11
691.4427067879589
 21
1165.935028673013
 31
0.0
  0
LINE
  5
46A
330
22
100
AcDbEntity
  8
_4-7_
  6
Continuous
 62
     7
100
AcDbLine
 10
691.4427067879589
 20
1165.935028673013
 30
0.0
 11
691.4500818258619
 21
1165.911403214884
 31
0.0
  0
LINE
  5
46B
330
22
100
AcDbEntity
  8
_4-7_
  6
Continuous
 62
     7
100
AcDbLine
 10
691.4500818258619
 20
1165.911403214884
 30
0.0
 11
691.4610763657706
 21
1165.889544659706
 31
0.0
  0
LINE
  5
46C
330
22
100
AcDbEntity
  8
_4-7_
  6
Continuous
 62
     7
100
AcDbLine
 10
691.4610763657706
 20
1165.889544659706
 30
0.0
 11
691.4753563441534
 21
1165.870117168616
 31
0.0
  0
LINE
  5
46D
330
22
100
AcDbEntity
  8
_4-7_
  6
Continuous
 62
     7
100
AcDbLine
 10
691.4753563441534
 20
1165.870117168616
 30
0.0
 11
691.4924878710933
 21
1165.853711036101
 31
0.0
  0
LINE
  5
46E
330
22
100
AcDbEntity
  8
_4-7_
  6
Continuous
 62
     7
100
AcDbLine
 10
691.4924878710933
 20
1165.853711036101
 30
0.0
 11
691.511950413813
 21
1165.840824754195
 31
0.0
  0
LINE
  5
46F
330
22
100
AcDbEntity
  8
_4-7_
  6
Continuous
 62
     7
100
AcDbLine
 10
691.511950413813
 20
1165.840824754195
 30
0.0
 11
691.5331526128004
 21
1165.831849866053
 31
0.0
  0
LINE
  5
470
330
22
100
AcDbEntity
  8
_4-7_
  6
Continuous
 62
     7
100
AcDbLine
 10
691.5331526128004
 20
1165.831849866053
 30
0.0
 11
691.5393383734238
 21
1165.830071769682
 31
0.0
  0
LINE
  5
471
330
22
100
AcDbEntity
  8
_4-7_
  6
Continuous
 62
     7
100
AcDbLine
 10
691.4752115669752
 20
1165.005510366682
 30
0.0
 11
691.4752115669752
 21
1165.005510366682
 31
0.0
  0
LINE
  5
472
330
22
100
AcDbEntity
  8
_4-7_
  6
Continuous
 62
     7
100
AcDbLine
 10
691.4752115669752
 20
1165.005510366682
 30
0.0
 11
691.4747921259833
 21
1164.980536520439
 31
0.0
  0
LINE
  5
473
330
22
100
AcDbEntity
  8
_4-7_
  6
Continuous
 62
     7
100
AcDbLine
 10
691.4747921259833
 20
1164.980536520439
 30
0.0
 11
691.4783235750856
 21
1164.95586200695
 31
0.0
  0
LINE
  5
474
330
22
100
AcDbEntity
  8
_4-7_
  6
Continuous
 62
     7
100
AcDbLine
 10
691.4783235750856
 20
1164.95586200695
 30
0.0
 11
691.4856986129887
 21
1164.932236548822
 31
0.0
  0
LINE
  5
475
330
22
100
AcDbEntity
  8
_4-7_
  6
Continuous
 62
     7
100
AcDbLine
 10
691.4856986129887
 20
1164.932236548822
 30
0.0
 11
691.4966931528974
 21
1164.910377993644
 31
0.0
  0
LINE
  5
476
330
22
100
AcDbEntity
  8
_4-7_
  6
Continuous
 62
     7
100
AcDbLine
 10
691.4966931528974
 20
1164.910377993644
 30
0.0
 11
691.5109731312803
 21
1164.890950502554
 31
0.0
  0
LINE
  5
477
330
22
100
AcDbEntity
  8
_4-7_
  6
Continuous
 62
     7
100
AcDbLine
 10
691.5109731312803
 20
1164.890950502554
 30
0.0
 11
691.52810465822
 21
1164.874544370039
 31
0.0
  0
LINE
  5
478
330
22
100
AcDbEntity
  8
_4-7_
  6
Continuous
 62
     7
100
AcDbLine
 10
691.52810465822
 20
1164.874544370039
 30
0.0
 11
691.5475672009399
 21
1164.861658088133
 31
0.0
  0
LINE
  5
479
330
22
100
AcDbEntity
  8
_4-7_
  6
Continuous
 62
     7
100
AcDbLine
 10
691.5475672009399
 20
1164.861658088133
 30
0.0
 11
691.5687693999274
 21
1164.852683199991
 31
0.0
  0
LINE
  5
47A
330
22
100
AcDbEntity
  8
_4-7_
  6
Continuous
 62
     7
100
AcDbLine
 10
691.5687693999274
 20
1164.852683199991
 30
0.0
 11
691.5749551605505
 21
1164.85090510362
 31
0.0
  0
LINE
  5
47B
330
22
100
AcDbEntity
  8
_4-7_
  6
Continuous
 62
     7
100
AcDbLine
 10
691.4395947798483
 20
1163.047177034558
 30
0.0
 11
691.4395947798483
 21
1163.047177034558
 31
0.0
  0
LINE
  5
47C
330
22
100
AcDbEntity
  8
_4-7_
  6
Continuous
 62
     7
100
AcDbLine
 10
691.4395947798483
 20
1163.047177034558
 30
0.0
 11
691.4391753388565
 21
1163.022203188315
 31
0.0
  0
LINE
  5
47D
330
22
100
AcDbEntity
  8
_4-7_
  6
Continuous
 62
     7
100
AcDbLine
 10
691.4391753388565
 20
1163.022203188315
 30
0.0
 11
691.4427067879589
 21
1162.997528674826
 31
0.0
  0
LINE
  5
47E
330
22
100
AcDbEntity
  8
_4-7_
  6
Continuous
 62
     7
100
AcDbLine
 10
691.4427067879589
 20
1162.997528674826
 30
0.0
 11
691.4500818258619
 21
1162.973903216697
 31
0.0
  0
LINE
  5
47F
330
22
100
AcDbEntity
  8
_4-7_
  6
Continuous
 62
     7
100
AcDbLine
 10
691.4500818258619
 20
1162.973903216697
 30
0.0
 11
691.4610763657706
 21
1162.952044661519
 31
0.0
  0
LINE
  5
480
330
22
100
AcDbEntity
  8
_4-7_
  6
Continuous
 62
     7
100
AcDbLine
 10
691.4610763657706
 20
1162.952044661519
 30
0.0
 11
691.4753563441534
 21
1162.932617170429
 31
0.0
  0
LINE
  5
481
330
22
100
AcDbEntity
  8
_4-7_
  6
Continuous
 62
     7
100
AcDbLine
 10
691.4753563441534
 20
1162.932617170429
 30
0.0
 11
691.4924878710933
 21
1162.916211037914
 31
0.0
  0
LINE
  5
482
330
22
100
AcDbEntity
  8
_4-7_
  6
Continuous
 62
     7
100
AcDbLine
 10
691.4924878710933
 20
1162.916211037914
 30
0.0
 11
691.511950413813
 21
1162.903324756008
 31
0.0
  0
LINE
  5
483
330
22
100
AcDbEntity
  8
_4-7_
  6
Continuous
 62
     7
100
AcDbLine
 10
691.511950413813
 20
1162.903324756008
 30
0.0
 11
691.5331526128004
 21
1162.894349867866
 31
0.0
  0
LINE
  5
484
330
22
100
AcDbEntity
  8
_4-7_
  6
Continuous
 62
     7
100
AcDbLine
 10
691.5331526128004
 20
1162.894349867866
 30
0.0
 11
691.5393383734238
 21
1162.892571771495
 31
0.0
  0
LINE
  5
485
330
22
100
AcDbEntity
  8
_4-7_
  6
Continuous
 62
     7
100
AcDbLine
 10
691.4395947798483
 20
1162.068010368495
 30
0.0
 11
691.4395947798483
 21
1162.068010368495
 31
0.0
  0
LINE
  5
486
330
22
100
AcDbEntity
  8
_4-7_
  6
Continuous
 62
     7
100
AcDbLine
 10
691.4395947798483
 20
1162.068010368495
 30
0.0
 11
691.4391753388565
 21
1162.043036522252
 31
0.0
  0
LINE
  5
487
330
22
100
AcDbEntity
  8
_4-7_
  6
Continuous
 62
     7
100
AcDbLine
 10
691.4391753388565
 20
1162.043036522252
 30
0.0
 11
691.4427067879589
 21
1162.018362008763
 31
0.0
  0
LINE
  5
488
330
22
100
AcDbEntity
  8
_4-7_
  6
Continuous
 62
     7
100
AcDbLine
 10
691.4427067879589
 20
1162.018362008763
 30
0.0
 11
691.4500818258619
 21
1161.994736550635
 31
0.0
  0
LINE
  5
489
330
22
100
AcDbEntity
  8
_4-7_
  6
Continuous
 62
     7
100
AcDbLine
 10
691.4500818258619
 20
1161.994736550635
 30
0.0
 11
691.4610763657706
 21
1161.972877995457
 31
0.0
  0
LINE
  5
48A
330
22
100
AcDbEntity
  8
_4-7_
  6
Continuous
 62
     7
100
AcDbLine
 10
691.4610763657706
 20
1161.972877995457
 30
0.0
 11
691.4753563441534
 21
1161.953450504367
 31
0.0
  0
LINE
  5
48B
330
22
100
AcDbEntity
  8
_4-7_
  6
Continuous
 62
     7
100
AcDbLine
 10
691.4753563441534
 20
1161.953450504367
 30
0.0
 11
691.4924878710933
 21
1161.937044371852
 31
0.0
  0
LINE
  5
48C
330
22
100
AcDbEntity
  8
_4-7_
  6
Continuous
 62
     7
100
AcDbLine
 10
691.4924878710933
 20
1161.937044371852
 30
0.0
 11
691.511950413813
 21
1161.924158089946
 31
0.0
  0
LINE
  5
48D
330
22
100
AcDbEntity
  8
_4-7_
  6
Continuous
 62
     7
100
AcDbLine
 10
691.511950413813
 20
1161.924158089946
 30
0.0
 11
691.5331526128004
 21
1161.915183201803
 31
0.0
  0
LINE
  5
48E
330
22
100
AcDbEntity
  8
_4-7_
  6
Continuous
 62
     7
100
AcDbLine
 10
691.5331526128004
 20
1161.915183201803
 30
0.0
 11
691.5393383734238
 21
1161.913405105432
 31
0.0
  0
LINE
  5
48F
330
22
100
AcDbEntity
  8
_4-7_
  6
Continuous
 62
     7
100
AcDbLine
 10
691.4395947798483
 20
1161.088843702433
 30
0.0
 11
691.4395947798483
 21
1161.088843702433
 31
0.0
  0
LINE
  5
490
330
22
100
AcDbEntity
  8
_4-7_
  6
Continuous
 62
     7
100
AcDbLine
 10
691.4395947798483
 20
1161.088843702433
 30
0.0
 11
691.4391753388565
 21
1161.06386985619
 31
0.0
  0
LINE
  5
491
330
22
100
AcDbEntity
  8
_4-7_
  6
Continuous
 62
     7
100
AcDbLine
 10
691.4391753388565
 20
1161.06386985619
 30
0.0
 11
691.4427067879589
 21
1161.039195342701
 31
0.0
  0
LINE
  5
492
330
22
100
AcDbEntity
  8
_4-7_
  6
Continuous
 62
     7
100
AcDbLine
 10
691.4427067879589
 20
1161.039195342701
 30
0.0
 11
691.4500818258619
 21
1161.015569884572
 31
0.0
  0
LINE
  5
493
330
22
100
AcDbEntity
  8
_4-7_
  6
Continuous
 62
     7
100
AcDbLine
 10
691.4500818258619
 20
1161.015569884572
 30
0.0
 11
691.4610763657706
 21
1160.993711329394
 31
0.0
  0
LINE
  5
494
330
22
100
AcDbEntity
  8
_4-7_
  6
Continuous
 62
     7
100
AcDbLine
 10
691.4610763657706
 20
1160.993711329394
 30
0.0
 11
691.4753563441534
 21
1160.974283838305
 31
0.0
  0
LINE
  5
495
330
22
100
AcDbEntity
  8
_4-7_
  6
Continuous
 62
     7
100
AcDbLine
 10
691.4753563441534
 20
1160.974283838305
 30
0.0
 11
691.4924878710933
 21
1160.957877705789
 31
0.0
  0
LINE
  5
496
330
22
100
AcDbEntity
  8
_4-7_
  6
Continuous
 62
     7
100
AcDbLine
 10
691.4924878710933
 20
1160.957877705789
 30
0.0
 11
691.511950413813
 21
1160.944991423883
 31
0.0
  0
LINE
  5
497
330
22
100
AcDbEntity
  8
_4-7_
  6
Continuous
 62
     7
100
AcDbLine
 10
691.511950413813
 20
1160.944991423883
 30
0.0
 11
691.5331526128004
 21
1160.936016535741
 31
0.0
  0
LINE
  5
498
330
22
100
AcDbEntity
  8
_4-7_
  6
Continuous
 62
     7
100
AcDbLine
 10
691.5331526128004
 20
1160.936016535741
 30
0.0
 11
691.5393383734238
 21
1160.93423843937
 31
0.0
  0
LINE
  5
499
330
22
100
AcDbEntity
  8
_4-7_
  6
Continuous
 62
     7
100
AcDbLine
 10
691.4753945120799
 20
1160.109677036371
 30
0.0
 11
691.4753945120799
 21
1160.109677036371
 31
0.0
  0
LINE
  5
49A
330
22
100
AcDbEntity
  8
_4-7_
  6
Continuous
 62
     7
100
AcDbLine
 10
691.4753945120799
 20
1160.109677036371
 30
0.0
 11
691.4749750710881
 21
1160.084703190128
 31
0.0
  0
LINE
  5
49B
330
22
100
AcDbEntity
  8
_4-7_
  6
Continuous
 62
     7
100
AcDbLine
 10
691.4749750710881
 20
1160.084703190128
 30
0.0
 11
691.4785065201905
 21
1160.060028676638
 31
0.0
  0
LINE
  5
49C
330
22
100
AcDbEntity
  8
_4-7_
  6
Continuous
 62
     7
100
AcDbLine
 10
691.4785065201905
 20
1160.060028676638
 30
0.0
 11
691.4858815580934
 21
1160.03640321851
 31
0.0
  0
LINE
  5
49D
330
22
100
AcDbEntity
  8
_4-7_
  6
Continuous
 62
     7
100
AcDbLine
 10
691.4858815580934
 20
1160.03640321851
 30
0.0
 11
691.4968760980022
 21
1160.014544663332
 31
0.0
  0
LINE
  5
49E
330
22
100
AcDbEntity
  8
_4-7_
  6
Continuous
 62
     7
100
AcDbLine
 10
691.4968760980022
 20
1160.014544663332
 30
0.0
 11
691.5111560763851
 21
1159.995117172242
 31
0.0
  0
LINE
  5
49F
330
22
100
AcDbEntity
  8
_4-7_
  6
Continuous
 62
     7
100
AcDbLine
 10
691.5111560763851
 20
1159.995117172242
 30
0.0
 11
691.5282876033249
 21
1159.978711039727
 31
0.0
  0
LINE
  5
4A0
330
22
100
AcDbEntity
  8
_4-7_
  6
Continuous
 62
     7
100
AcDbLine
 10
691.5282876033249
 20
1159.978711039727
 30
0.0
 11
691.5477501460448
 21
1159.965824757821
 31
0.0
  0
LINE
  5
4A1
330
22
100
AcDbEntity
  8
_4-7_
  6
Continuous
 62
     7
100
AcDbLine
 10
691.5477501460448
 20
1159.965824757821
 30
0.0
 11
691.5689523450322
 21
1159.956849869679
 31
0.0
  0
LINE
  5
4A2
330
22
100
AcDbEntity
  8
_4-7_
  6
Continuous
 62
     7
100
AcDbLine
 10
691.5689523450322
 20
1159.956849869679
 30
0.0
 11
691.5751381056554
 21
1159.955071773308
 31
0.0
  0
LINE
  5
4A3
330
22
100
AcDbEntity
  8
_4-7_
  6
Continuous
 62
     7
100
AcDbLine
 10
691.4395947798483
 20
1158.151343704246
 30
0.0
 11
691.4395947798483
 21
1158.151343704246
 31
0.0
  0
LINE
  5
4A4
330
22
100
AcDbEntity
  8
_4-7_
  6
Continuous
 62
     7
100
AcDbLine
 10
691.4395947798483
 20
1158.151343704246
 30
0.0
 11
691.4391753388565
 21
1158.126369858003
 31
0.0
  0
LINE
  5
4A5
330
22
100
AcDbEntity
  8
_4-7_
  6
Continuous
 62
     7
100
AcDbLine
 10
691.4391753388565
 20
1158.126369858003
 30
0.0
 11
691.4427067879589
 21
1158.101695344514
 31
0.0
  0
LINE
  5
4A6
330
22
100
AcDbEntity
  8
_4-7_
  6
Continuous
 62
     7
100
AcDbLine
 10
691.4427067879589
 20
1158.101695344514
 30
0.0
 11
691.4500818258619
 21
1158.078069886385
 31
0.0
  0
LINE
  5
4A7
330
22
100
AcDbEntity
  8
_4-7_
  6
Continuous
 62
     7
100
AcDbLine
 10
691.4500818258619
 20
1158.078069886385
 30
0.0
 11
691.4610763657706
 21
1158.056211331207
 31
0.0
  0
LINE
  5
4A8
330
22
100
AcDbEntity
  8
_4-7_
  6
Continuous
 62
     7
100
AcDbLine
 10
691.4610763657706
 20
1158.056211331207
 30
0.0
 11
691.4753563441534
 21
1158.036783840117
 31
0.0
  0
LINE
  5
4A9
330
22
100
AcDbEntity
  8
_4-7_
  6
Continuous
 62
     7
100
AcDbLine
 10
691.4753563441534
 20
1158.036783840117
 30
0.0
 11
691.4924878710933
 21
1158.020377707602
 31
0.0
  0
LINE
  5
4AA
330
22
100
AcDbEntity
  8
_4-7_
  6
Continuous
 62
     7
100
AcDbLine
 10
691.4924878710933
 20
1158.020377707602
 30
0.0
 11
691.511950413813
 21
1158.007491425697
 31
0.0
  0
LINE
  5
4AB
330
22
100
AcDbEntity
  8
_4-7_
  6
Continuous
 62
     7
100
AcDbLine
 10
691.511950413813
 20
1158.007491425697
 30
0.0
 11
691.5331526128004
 21
1157.998516537554
 31
0.0
  0
LINE
  5
4AC
330
22
100
AcDbEntity
  8
_4-7_
  6
Continuous
 62
     7
100
AcDbLine
 10
691.5331526128004
 20
1157.998516537554
 30
0.0
 11
691.5393383734238
 21
1157.996738441183
 31
0.0
  0
LINE
  5
4AD
330
22
100
AcDbEntity
  8
_4-7_
  6
Continuous
 62
     7
100
AcDbLine
 10
691.4597698117803
 20
1157.172177038182
 30
0.0
 11
691.4597698117803
 21
1157.172177038182
 31
0.0
  0
LINE
  5
4AE
330
22
100
AcDbEntity
  8
_4-7_
  6
Continuous
 62
     7
100
AcDbLine
 10
691.4597698117803
 20
1157.172177038182
 30
0.0
 11
691.4593503707886
 21
1157.147203191939
 31
0.0
  0
LINE
  5
4AF
330
22
100
AcDbEntity
  8
_4-7_
  6
Continuous
 62
     7
100
AcDbLine
 10
691.4593503707886
 20
1157.147203191939
 30
0.0
 11
691.462881819891
 21
1157.12252867845
 31
0.0
  0
LINE
  5
4B0
330
22
100
AcDbEntity
  8
_4-7_
  6
Continuous
 62
     7
100
AcDbLine
 10
691.462881819891
 20
1157.12252867845
 30
0.0
 11
691.4702568577941
 21
1157.098903220322
 31
0.0
  0
LINE
  5
4B1
330
22
100
AcDbEntity
  8
_4-7_
  6
Continuous
 62
     7
100
AcDbLine
 10
691.4702568577941
 20
1157.098903220322
 30
0.0
 11
691.4812513977025
 21
1157.077044665143
 31
0.0
  0
LINE
  5
4B2
330
22
100
AcDbEntity
  8
_4-7_
  6
Continuous
 62
     7
100
AcDbLine
 10
691.4812513977025
 20
1157.077044665143
 30
0.0
 11
691.4955313760855
 21
1157.057617174054
 31
0.0
  0
LINE
  5
4B3
330
22
100
AcDbEntity
  8
_4-7_
  6
Continuous
 62
     7
100
AcDbLine
 10
691.4955313760855
 20
1157.057617174054
 30
0.0
 11
691.5126629030252
 21
1157.041211041538
 31
0.0
  0
LINE
  5
4B4
330
22
100
AcDbEntity
  8
_4-7_
  6
Continuous
 62
     7
100
AcDbLine
 10
691.5126629030252
 20
1157.041211041538
 30
0.0
 11
691.5321254457449
 21
1157.028324759633
 31
0.0
  0
LINE
  5
4B5
330
22
100
AcDbEntity
  8
_4-7_
  6
Continuous
 62
     7
100
AcDbLine
 10
691.5321254457449
 20
1157.028324759633
 30
0.0
 11
691.5533276447324
 21
1157.01934987149
 31
0.0
  0
LINE
  5
4B6
330
22
100
AcDbEntity
  8
_4-7_
  6
Continuous
 62
     7
100
AcDbLine
 10
691.5533276447324
 20
1157.01934987149
 30
0.0
 11
691.5595134053557
 21
1157.017571775119
 31
0.0
  0
LINE
  5
4B7
330
22
100
AcDbEntity
  8
_4-7_
  6
Continuous
 62
     7
100
AcDbLine
 10
691.4798341572885
 20
1156.19301037212
 30
0.0
 11
691.4798341572885
 21
1156.19301037212
 31
0.0
  0
LINE
  5
4B8
330
22
100
AcDbEntity
  8
_4-7_
  6
Continuous
 62
     7
100
AcDbLine
 10
691.4798341572885
 20
1156.19301037212
 30
0.0
 11
691.4794147162966
 21
1156.168036525877
 31
0.0
  0
LINE
  5
4B9
330
22
100
AcDbEntity
  8
_4-7_
  6
Continuous
 62
     7
100
AcDbLine
 10
691.4794147162966
 20
1156.168036525877
 30
0.0
 11
691.4829461653993
 21
1156.143362012388
 31
0.0
  0
LINE
  5
4BA
330
22
100
AcDbEntity
  8
_4-7_
  6
Continuous
 62
     7
100
AcDbLine
 10
691.4829461653993
 20
1156.143362012388
 30
0.0
 11
691.4903212033022
 21
1156.119736554259
 31
0.0
  0
LINE
  5
4BB
330
22
100
AcDbEntity
  8
_4-7_
  6
Continuous
 62
     7
100
AcDbLine
 10
691.4903212033022
 20
1156.119736554259
 30
0.0
 11
691.5013157432108
 21
1156.097877999081
 31
0.0
  0
LINE
  5
4BC
330
22
100
AcDbEntity
  8
_4-7_
  6
Continuous
 62
     7
100
AcDbLine
 10
691.5013157432108
 20
1156.097877999081
 30
0.0
 11
691.5155957215937
 21
1156.078450507991
 31
0.0
  0
LINE
  5
4BD
330
22
100
AcDbEntity
  8
_4-7_
  6
Continuous
 62
     7
100
AcDbLine
 10
691.5155957215937
 20
1156.078450507991
 30
0.0
 11
691.5327272485336
 21
1156.062044375476
 31
0.0
  0
LINE
  5
4BE
330
22
100
AcDbEntity
  8
_4-7_
  6
Continuous
 62
     7
100
AcDbLine
 10
691.5327272485336
 20
1156.062044375476
 30
0.0
 11
691.5521897912532
 21
1156.049158093571
 31
0.0
  0
LINE
  5
4BF
330
22
100
AcDbEntity
  8
_4-7_
  6
Continuous
 62
     7
100
AcDbLine
 10
691.5521897912532
 20
1156.049158093571
 30
0.0
 11
691.5733919902407
 21
1156.040183205428
 31
0.0
  0
LINE
  5
4C0
330
22
100
AcDbEntity
  8
_4-7_
  6
Continuous
 62
     7
100
AcDbLine
 10
691.5733919902407
 20
1156.040183205428
 30
0.0
 11
691.5795777508638
 21
1156.038405109057
 31
0.0
  0
LINE
  5
4C1
330
22
100
AcDbEntity
  8
_4-7_
  6
Continuous
 62
     7
100
AcDbLine
 10
691.4937809891796
 20
1155.213843706059
 30
0.0
 11
691.4937809891796
 21
1155.213843706059
 31
0.0
  0
LINE
  5
4C2
330
22
100
AcDbEntity
  8
_4-7_
  6
Continuous
 62
     7
100
AcDbLine
 10
691.4937809891796
 20
1155.213843706059
 30
0.0
 11
691.4933615481878
 21
1155.188869859816
 31
0.0
  0
LINE
  5
4C3
330
22
100
AcDbEntity
  8
_4-7_
  6
Continuous
 62
     7
100
AcDbLine
 10
691.4933615481878
 20
1155.188869859816
 30
0.0
 11
691.4968929972904
 21
1155.164195346327
 31
0.0
  0
LINE
  5
4C4
330
22
100
AcDbEntity
  8
_4-7_
  6
Continuous
 62
     7
100
AcDbLine
 10
691.4968929972904
 20
1155.164195346327
 30
0.0
 11
691.5042680351933
 21
1155.140569888198
 31
0.0
  0
LINE
  5
4C5
330
22
100
AcDbEntity
  8
_4-7_
  6
Continuous
 62
     7
100
AcDbLine
 10
691.5042680351933
 20
1155.140569888198
 30
0.0
 11
691.515262575102
 21
1155.11871133302
 31
0.0
  0
LINE
  5
4C6
330
22
100
AcDbEntity
  8
_4-7_
  6
Continuous
 62
     7
100
AcDbLine
 10
691.515262575102
 20
1155.11871133302
 30
0.0
 11
691.5295425534848
 21
1155.09928384193
 31
0.0
  0
LINE
  5
4C7
330
22
100
AcDbEntity
  8
_4-7_
  6
Continuous
 62
     7
100
AcDbLine
 10
691.5295425534848
 20
1155.09928384193
 30
0.0
 11
691.5466740804248
 21
1155.082877709415
 31
0.0
  0
LINE
  5
4C8
330
22
100
AcDbEntity
  8
_4-7_
  6
Continuous
 62
     7
100
AcDbLine
 10
691.5466740804248
 20
1155.082877709415
 30
0.0
 11
691.5661366231444
 21
1155.069991427509
 31
0.0
  0
LINE
  5
4C9
330
22
100
AcDbEntity
  8
_4-7_
  6
Continuous
 62
     7
100
AcDbLine
 10
691.5661366231444
 20
1155.069991427509
 30
0.0
 11
691.587338822132
 21
1155.061016539367
 31
0.0
  0
LINE
  5
4CA
330
22
100
AcDbEntity
  8
_4-7_
  6
Continuous
 62
     7
100
AcDbLine
 10
691.587338822132
 20
1155.061016539367
 30
0.0
 11
691.5935245827553
 21
1155.059238442996
 31
0.0
  0
LINE
  5
4CB
330
22
100
AcDbEntity
  8
_4-7_
  6
Continuous
 62
     7
100
AcDbLine
 10
691.5147201010145
 20
1154.250132240601
 30
0.0
 11
691.5147201010145
 21
1154.250132240601
 31
0.0
  0
LINE
  5
4CC
330
22
100
AcDbEntity
  8
_4-7_
  6
Continuous
 62
     7
100
AcDbLine
 10
691.5147201010145
 20
1154.250132240601
 30
0.0
 11
691.5061812561709
 21
1154.233702239365
 31
0.0
  0
LINE
  5
4CD
330
22
100
AcDbEntity
  8
_4-7_
  6
Continuous
 62
     7
100
AcDbLine
 10
691.5061812561709
 20
1154.233702239365
 30
0.0
 11
691.500367187703
 21
1154.215891683544
 31
0.0
  0
LINE
  5
4CE
330
22
100
AcDbEntity
  8
_4-7_
  6
Continuous
 62
     7
100
AcDbLine
 10
691.500367187703
 20
1154.215891683544
 30
0.0
 11
691.4974545531396
 21
1154.197241737864
 31
0.0
  0
LINE
  5
4CF
330
22
100
AcDbEntity
  8
_4-7_
  6
Continuous
 62
     7
100
AcDbLine
 10
691.4974545531396
 20
1154.197241737864
 30
0.0
 11
691.497531851408
 21
1154.178319071487
 31
0.0
  0
LINE
  5
4D0
330
22
100
AcDbEntity
  8
_4-7_
  6
Continuous
 62
     7
100
AcDbLine
 10
691.497531851408
 20
1154.178319071487
 30
0.0
 11
691.5005967338389
 21
1154.159698640055
 31
0.0
  0
LINE
  5
4D1
330
22
100
AcDbEntity
  8
_4-7_
  6
Continuous
 62
     7
100
AcDbLine
 10
691.5005967338389
 20
1154.159698640055
 30
0.0
 11
691.5065560755313
 21
1154.141946215955
 31
0.0
  0
LINE
  5
4D2
330
22
100
AcDbEntity
  8
_4-7_
  6
Continuous
 62
     7
100
AcDbLine
 10
691.5065560755313
 20
1154.141946215955
 30
0.0
 11
691.5152288049029
 21
1154.125601197611
 31
0.0
  0
LINE
  5
4D3
330
22
100
AcDbEntity
  8
_4-7_
  6
Continuous
 62
     7
100
AcDbLine
 10
691.5152288049029
 20
1154.125601197611
 30
0.0
 11
691.5263514054608
 21
1154.111160220133
 31
0.0
  0
LINE
  5
4D4
330
22
100
AcDbEntity
  8
_4-7_
  6
Continuous
 62
     7
100
AcDbLine
 10
691.5263514054608
 20
1154.111160220133
 30
0.0
 11
691.539585922615
 21
1154.099062065315
 31
0.0
  0
LINE
  5
4D5
330
22
100
AcDbEntity
  8
_4-7_
  6
Continuous
 62
     7
100
AcDbLine
 10
691.539585922615
 20
1154.099062065315
 30
0.0
 11
691.5545302322588
 21
1154.08967432947
 31
0.0
  0
LINE
  5
4D6
330
22
100
AcDbEntity
  8
_4-7_
  6
Continuous
 62
     7
100
AcDbLine
 10
691.5545302322588
 20
1154.08967432947
 30
0.0
 11
691.570730259106
 21
1154.083282254199
 31
0.0
  0
LINE
  5
4D7
330
22
100
AcDbEntity
  8
_4-7_
  6
Continuous
 62
     7
100
AcDbLine
 10
691.570730259106
 20
1154.083282254199
 30
0.0
 11
691.5876937735383
 21
1154.080080059476
 31
0.0
  0
LINE
  5
4D8
330
22
100
AcDbEntity
  8
_4-7_
  6
Continuous
 62
     7
100
AcDbLine
 10
691.5876937735383
 20
1154.080080059476
 30
0.0
 11
691.5877850921734
 21
1154.080071776933
 31
0.0
  0
LINE
  5
4D9
330
22
100
AcDbEntity
  8
_4-7_
  6
Continuous
 62
     7
100
AcDbLine
 10
691.7772280609238
 20
1159.645861247182
 30
0.0
 11
691.7772280609238
 21
1159.645861247182
 31
0.0
  0
LINE
  5
4DA
330
22
100
AcDbEntity
  8
_4-7_
  6
Continuous
 62
     7
100
AcDbLine
 10
691.7772280609238
 20
1159.645861247182
 30
0.0
 11
691.7245244166776
 21
1159.638198774278
 31
0.0
  0
LINE
  5
4DB
330
22
100
AcDbEntity
  8
_4-7_
  6
Continuous
 62
     7
100
AcDbLine
 10
691.7245244166776
 20
1159.638198774278
 30
0.0
 11
691.6738317157665
 21
1159.620590982586
 31
0.0
  0
LINE
  5
4DC
330
22
100
AcDbEntity
  8
_4-7_
  6
Continuous
 62
     7
100
AcDbLine
 10
691.6738317157665
 20
1159.620590982586
 30
0.0
 11
691.6266902302547
 21
1159.593572875948
 31
0.0
  0
LINE
  5
4DD
330
22
100
AcDbEntity
  8
_4-7_
  6
Continuous
 62
     7
100
AcDbLine
 10
691.6266902302547
 20
1159.593572875948
 30
0.0
 11
691.5845323303264
 21
1159.557965385861
 31
0.0
  0
LINE
  5
4DE
330
22
100
AcDbEntity
  8
_4-7_
  6
Continuous
 62
     7
100
AcDbLine
 10
691.5845323303264
 20
1159.557965385861
 30
0.0
 11
691.5486389624367
 21
1159.514850427894
 31
0.0
  0
LINE
  5
4DF
330
22
100
AcDbEntity
  8
_4-7_
  6
Continuous
 62
     7
100
AcDbLine
 10
691.5486389624367
 20
1159.514850427894
 30
0.0
 11
691.5201007284064
 21
1159.465538028228
 31
0.0
  0
LINE
  5
4E0
330
22
100
AcDbEntity
  8
_4-7_
  6
Continuous
 62
     7
100
AcDbLine
 10
691.5201007284064
 20
1159.465538028228
 30
0.0
 11
691.4997847480356
 21
1159.411526519173
 31
0.0
  0
LINE
  5
4E1
330
22
100
AcDbEntity
  8
_4-7_
  6
Continuous
 62
     7
100
AcDbLine
 10
691.4997847480356
 20
1159.411526519173
 30
0.0
 11
691.4883083121075
 21
1159.3544570131
 31
0.0
  0
LINE
  5
4E2
330
22
100
AcDbEntity
  8
_4-7_
  6
Continuous
 62
     7
100
AcDbLine
 10
691.4883083121075
 20
1159.3544570131
 30
0.0
 11
691.4860201263202
 21
1159.296063538074
 31
0.0
  0
LINE
  5
4E3
330
22
100
AcDbEntity
  8
_4-7_
  6
Continuous
 62
     7
100
AcDbLine
 10
691.4860201263202
 20
1159.296063538074
 30
0.0
 11
691.4929897160412
 21
1159.238120350283
 31
0.0
  0
LINE
  5
4E4
330
22
100
AcDbEntity
  8
_4-7_
  6
Continuous
 62
     7
100
AcDbLine
 10
691.4929897160412
 20
1159.238120350283
 30
0.0
 11
691.5090053138135
 21
1159.18238802417
 31
0.0
  0
LINE
  5
4E5
330
22
100
AcDbEntity
  8
_4-7_
  6
Continuous
 62
     7
100
AcDbLine
 10
691.5090053138135
 20
1159.18238802417
 30
0.0
 11
691.5335802938029
 21
1159.130559958259
 31
0.0
  0
LINE
  5
4E6
330
22
100
AcDbEntity
  8
_4-7_
  6
Continuous
 62
     7
100
AcDbLine
 10
691.5335802938029
 20
1159.130559958259
 30
0.0
 11
691.5659679576783
 21
1159.08421092211
 31
0.0
  0
LINE
  5
4E7
330
22
100
AcDbEntity
  8
_4-7_
  6
Continuous
 62
     7
100
AcDbLine
 10
691.5659679576783
 20
1159.08421092211
 30
0.0
 11
691.6051842226615
 21
1159.044749207728
 31
0.0
  0
LINE
  5
4E8
330
22
100
AcDbEntity
  8
_4-7_
  6
Continuous
 62
     7
100
AcDbLine
 10
691.6051842226615
 20
1159.044749207728
 30
0.0
 11
691.6500375223855
 21
1159.01337383934
 31
0.0
  0
LINE
  5
4E9
330
22
100
AcDbEntity
  8
_4-7_
  6
Continuous
 62
     7
100
AcDbLine
 10
691.6500375223855
 20
1159.01337383934
 30
0.0
 11
691.6991650120351
 21
1158.991038141637
 31
0.0
  0
LINE
  5
4EA
330
22
100
AcDbEntity
  8
_4-7_
  6
Continuous
 62
     7
100
AcDbLine
 10
691.6991650120351
 20
1158.991038141637
 30
0.0
 11
691.7510739776968
 21
1158.978420773489
 31
0.0
  0
LINE
  5
4EB
330
22
100
AcDbEntity
  8
_4-7_
  6
Continuous
 62
     7
100
AcDbLine
 10
691.7510739776968
 20
1158.978420773489
 30
0.0
 11
691.7772280609238
 21
1158.975905107245
 31
0.0
  0
LINE
  5
4EC
330
22
100
AcDbEntity
  8
_4-7_
  6
Continuous
 62
     7
100
AcDbLine
 10
691.7772280609238
 20
1164.541694577496
 30
0.0
 11
691.7772280609238
 21
1164.541694577496
 31
0.0
  0
LINE
  5
4ED
330
22
100
AcDbEntity
  8
_4-7_
  6
Continuous
 62
     7
100
AcDbLine
 10
691.7772280609238
 20
1164.541694577496
 30
0.0
 11
691.7245244166776
 21
1164.534032104591
 31
0.0
  0
LINE
  5
4EE
330
22
100
AcDbEntity
  8
_4-7_
  6
Continuous
 62
     7
100
AcDbLine
 10
691.7245244166776
 20
1164.534032104591
 30
0.0
 11
691.6738317157665
 21
1164.516424312899
 31
0.0
  0
LINE
  5
4EF
330
22
100
AcDbEntity
  8
_4-7_
  6
Continuous
 62
     7
100
AcDbLine
 10
691.6738317157665
 20
1164.516424312899
 30
0.0
 11
691.6266902302547
 21
1164.48940620626
 31
0.0
  0
LINE
  5
4F0
330
22
100
AcDbEntity
  8
_4-7_
  6
Continuous
 62
     7
100
AcDbLine
 10
691.6266902302547
 20
1164.48940620626
 30
0.0
 11
691.5845323303264
 21
1164.453798716174
 31
0.0
  0
LINE
  5
4F1
330
22
100
AcDbEntity
  8
_4-7_
  6
Continuous
 62
     7
100
AcDbLine
 10
691.5845323303264
 20
1164.453798716174
 30
0.0
 11
691.5486389624367
 21
1164.410683758207
 31
0.0
  0
LINE
  5
4F2
330
22
100
AcDbEntity
  8
_4-7_
  6
Continuous
 62
     7
100
AcDbLine
 10
691.5486389624367
 20
1164.410683758207
 30
0.0
 11
691.5201007284064
 21
1164.361371358541
 31
0.0
  0
LINE
  5
4F3
330
22
100
AcDbEntity
  8
_4-7_
  6
Continuous
 62
     7
100
AcDbLine
 10
691.5201007284064
 20
1164.361371358541
 30
0.0
 11
691.4997847480356
 21
1164.307359849486
 31
0.0
  0
LINE
  5
4F4
330
22
100
AcDbEntity
  8
_4-7_
  6
Continuous
 62
     7
100
AcDbLine
 10
691.4997847480356
 20
1164.307359849486
 30
0.0
 11
691.4883083121075
 21
1164.250290343414
 31
0.0
  0
LINE
  5
4F5
330
22
100
AcDbEntity
  8
_4-7_
  6
Continuous
 62
     7
100
AcDbLine
 10
691.4883083121075
 20
1164.250290343414
 30
0.0
 11
691.4860201263202
 21
1164.191896868387
 31
0.0
  0
LINE
  5
4F6
330
22
100
AcDbEntity
  8
_4-7_
  6
Continuous
 62
     7
100
AcDbLine
 10
691.4860201263202
 20
1164.191896868387
 30
0.0
 11
691.4929897160412
 21
1164.133953680597
 31
0.0
  0
LINE
  5
4F7
330
22
100
AcDbEntity
  8
_4-7_
  6
Continuous
 62
     7
100
AcDbLine
 10
691.4929897160412
 20
1164.133953680597
 30
0.0
 11
691.5090053138135
 21
1164.078221354483
 31
0.0
  0
LINE
  5
4F8
330
22
100
AcDbEntity
  8
_4-7_
  6
Continuous
 62
     7
100
AcDbLine
 10
691.5090053138135
 20
1164.078221354483
 30
0.0
 11
691.5335802938029
 21
1164.026393288572
 31
0.0
  0
LINE
  5
4F9
330
22
100
AcDbEntity
  8
_4-7_
  6
Continuous
 62
     7
100
AcDbLine
 10
691.5335802938029
 20
1164.026393288572
 30
0.0
 11
691.5659679576783
 21
1163.980044252422
 31
0.0
  0
LINE
  5
4FA
330
22
100
AcDbEntity
  8
_4-7_
  6
Continuous
 62
     7
100
AcDbLine
 10
691.5659679576783
 20
1163.980044252422
 30
0.0
 11
691.6051842226615
 21
1163.940582538042
 31
0.0
  0
LINE
  5
4FB
330
22
100
AcDbEntity
  8
_4-7_
  6
Continuous
 62
     7
100
AcDbLine
 10
691.6051842226615
 20
1163.940582538042
 30
0.0
 11
691.6500375223855
 21
1163.909207169653
 31
0.0
  0
LINE
  5
4FC
330
22
100
AcDbEntity
  8
_4-7_
  6
Continuous
 62
     7
100
AcDbLine
 10
691.6500375223855
 20
1163.909207169653
 30
0.0
 11
691.6991650120351
 21
1163.88687147195
 31
0.0
  0
LINE
  5
4FD
330
22
100
AcDbEntity
  8
_4-7_
  6
Continuous
 62
     7
100
AcDbLine
 10
691.6991650120351
 20
1163.88687147195
 30
0.0
 11
691.7510739776968
 21
1163.874254103802
 31
0.0
  0
LINE
  5
4FE
330
22
100
AcDbEntity
  8
_4-7_
  6
Continuous
 62
     7
100
AcDbLine
 10
691.7510739776968
 20
1163.874254103802
 30
0.0
 11
691.7772280609238
 21
1163.871738437558
 31
0.0
  0
LINE
  5
4FF
330
22
100
AcDbEntity
  8
_4-7_
  6
Continuous
 62
     7
100
AcDbLine
 10
691.5739675541744
 20
1152.585554233995
 30
0.0
 11
691.5739675541744
 21
1152.585554233995
 31
0.0
  0
LINE
  5
500
330
22
100
AcDbEntity
  8
_4-7_
  6
Continuous
 62
     7
100
AcDbLine
 10
691.5739675541744
 20
1152.585554233995
 30
0.0
 11
691.5513517954858
 21
1152.502064029765
 31
0.0
  0
LINE
  5
501
330
22
100
AcDbEntity
  8
_4-7_
  6
Continuous
 62
     7
100
AcDbLine
 10
691.5513517954858
 20
1152.502064029765
 30
0.0
 11
691.5422665605226
 21
1152.415524622131
 31
0.0
  0
LINE
  5
502
330
22
100
AcDbEntity
  8
_4-7_
  6
Continuous
 62
     7
100
AcDbLine
 10
691.5422665605226
 20
1152.415524622131
 30
0.0
 11
691.5425454709945
 21
1152.379413883245
 31
0.0
  0
LINE
  5
503
330
22
100
AcDbEntity
  8
_4-7_
  6
Continuous
 62
     7
100
AcDbLine
 10
691.2253316546736
 20
1151.142571778745
 30
0.0
 11
691.2253316546736
 21
1151.142571778745
 31
0.0
  0
LINE
  5
504
330
22
100
AcDbEntity
  8
_4-7_
  6
Continuous
 62
     7
100
AcDbLine
 10
691.2253316546736
 20
1151.142571778745
 30
0.0
 11
691.2215561687093
 21
1151.177278388231
 31
0.0
  0
LINE
  5
505
330
22
100
AcDbEntity
  8
_4-7_
  6
Continuous
 62
     7
100
AcDbLine
 10
691.2215561687093
 20
1151.177278388231
 30
0.0
 11
691.2123562724906
 21
1151.210736942846
 31
0.0
  0
LINE
  5
506
330
22
100
AcDbEntity
  8
_4-7_
  6
Continuous
 62
     7
100
AcDbLine
 10
691.2123562724906
 20
1151.210736942846
 30
0.0
 11
691.1980115002092
 21
1151.24193082134
 31
0.0
  0
LINE
  5
507
330
22
100
AcDbEntity
  8
_4-7_
  6
Continuous
 62
     7
100
AcDbLine
 10
691.1980115002092
 20
1151.24193082134
 30
0.0
 11
691.1789577105117
 21
1151.269912213498
 31
0.0
  0
LINE
  5
508
330
22
100
AcDbEntity
  8
_4-7_
  6
Continuous
 62
     7
100
AcDbLine
 10
691.1789577105117
 20
1151.269912213498
 30
0.0
 11
691.1557738431561
 21
1151.29383091888
 31
0.0
  0
LINE
  5
509
330
22
100
AcDbEntity
  8
_4-7_
  6
Continuous
 62
     7
100
AcDbLine
 10
691.1557738431561
 20
1151.29383091888
 30
0.0
 11
691.129164328221
 21
1151.312960179726
 31
0.0
  0
LINE
  5
50A
330
22
100
AcDbEntity
  8
_4-7_
  6
Continuous
 62
     7
100
AcDbLine
 10
691.129164328221
 20
1151.312960179726
 30
0.0
 11
691.0999376823524
 21
1151.326718763125
 31
0.0
  0
LINE
  5
50B
330
22
100
AcDbEntity
  8
_4-7_
  6
Continuous
 62
     7
100
AcDbLine
 10
691.0999376823524
 20
1151.326718763125
 30
0.0
 11
691.0689819423953
 21
1151.334688621482
 31
0.0
  0
LINE
  5
50C
330
22
100
AcDbEntity
  8
_4-7_
  6
Continuous
 62
     7
100
AcDbLine
 10
691.0689819423953
 20
1151.334688621482
 30
0.0
 11
691.0372376828444
 21
1151.336627594684
 31
0.0
  0
LINE
  5
50D
330
22
100
AcDbEntity
  8
_4-7_
  6
Continuous
 62
     7
100
AcDbLine
 10
691.0372376828444
 20
1151.336627594684
 30
0.0
 11
691.0056694369623
 21
1151.332476768013
 31
0.0
  0
LINE
  5
50E
330
22
100
AcDbEntity
  8
_4-7_
  6
Continuous
 62
     7
100
AcDbLine
 10
691.0056694369623
 20
1151.332476768013
 30
0.0
 11
690.9752363899264
 21
1151.322362262235
 31
0.0
  0
LINE
  5
50F
330
22
100
AcDbEntity
  8
_4-7_
  6
Continuous
 62
     7
100
AcDbLine
 10
690.9752363899264
 20
1151.322362262235
 30
0.0
 11
690.9468632344709
 21
1151.306591401491
 31
0.0
  0
LINE
  5
510
330
22
100
AcDbEntity
  8
_4-7_
  6
Continuous
 62
     7
100
AcDbLine
 10
690.9468632344709
 20
1151.306591401491
 30
0.0
 11
690.9214120745665
 21
1151.285643375403
 31
0.0
  0
LINE
  5
511
330
22
100
AcDbEntity
  8
_4-7_
  6
Continuous
 62
     7
100
AcDbLine
 10
690.9214120745665
 20
1151.285643375403
 30
0.0
 11
690.899656230828
 21
1151.260154679145
 31
0.0
  0
LINE
  5
512
330
22
100
AcDbEntity
  8
_4-7_
  6
Continuous
 62
     7
100
AcDbLine
 10
690.899656230828
 20
1151.260154679145
 30
0.0
 11
690.8822567435588
 21
1151.230899773854
 31
0.0
  0
LINE
  5
513
330
22
100
AcDbEntity
  8
_4-7_
  6
Continuous
 62
     7
100
AcDbLine
 10
690.8822567435588
 20
1151.230899773854
 30
0.0
 11
690.8697422873745
 21
1151.198767555024
 31
0.0
  0
LINE
  5
514
330
22
100
AcDbEntity
  8
_4-7_
  6
Continuous
 62
     7
100
AcDbLine
 10
690.8697422873745
 20
1151.198767555024
 30
0.0
 11
690.862493107694
 21
1151.164734343864
 31
0.0
  0
LINE
  5
515
330
22
100
AcDbEntity
  8
_4-7_
  6
Continuous
 62
     7
100
AcDbLine
 10
690.862493107694
 20
1151.164734343864
 30
0.0
 11
690.8607294671736
 21
1151.129834222274
 31
0.0
  0
LINE
  5
516
330
22
100
AcDbEntity
  8
_4-7_
  6
Continuous
 62
     7
100
AcDbLine
 10
690.8607294671736
 20
1151.129834222274
 30
0.0
 11
690.8607294671736
 21
1151.129834222274
 31
0.0
  0
LINE
  5
517
330
22
100
AcDbEntity
  8
_4-7_
  6
Continuous
 62
     7
100
AcDbLine
 10
687.921759310924
 20
1174.24736721405
 30
0.0
 11
687.921759310924
 21
1176.80704544712
 31
0.0
  0
LINE
  5
518
330
22
100
AcDbEntity
  8
_4-7_
  6
Continuous
 62
     7
100
AcDbLine
 10
687.921759310924
 20
1176.80704544712
 30
0.0
 11
689.796759310924
 21
1176.80704544712
 31
0.0
  0
LINE
  5
519
330
22
100
AcDbEntity
  8
_4-7_
  6
Continuous
 62
     7
100
AcDbLine
 10
687.921759310924
 20
1174.24736721405
 30
0.0
 11
687.453009310924
 21
1173.732016638924
 31
0.0
  0
LINE
  5
51A
330
22
100
AcDbEntity
  8
_4-7_
  6
Continuous
 62
     7
100
AcDbLine
 10
687.453009310924
 20
1173.732016638924
 30
0.0
 11
687.453009310924
 21
1172.420388059476
 31
0.0
  0
LINE
  5
51B
330
22
100
AcDbEntity
  8
_4-7_
  6
Continuous
 62
     7
100
AcDbLine
 10
687.453009310924
 20
1172.420388059476
 30
0.0
 11
687.7956463421754
 21
1169.846892238696
 31
0.0
  0
LINE
  5
51C
330
22
100
AcDbEntity
  8
_4-7_
  6
Continuous
 62
     7
100
AcDbLine
 10
687.7956463421754
 20
1169.846892238696
 30
0.0
 11
687.9468486859252
 21
1169.59213317087
 31
0.0
  0
LINE
  5
51D
330
22
100
AcDbEntity
  8
_4-7_
  6
Continuous
 62
     7
100
AcDbLine
 10
687.9468486859252
 20
1169.59213317087
 30
0.0
 11
687.921759310924
 21
1169.59213317087
 31
0.0
  0
LINE
  5
51E
330
22
100
AcDbEntity
  8
_4-7_
  6
Continuous
 62
     7
100
AcDbLine
 10
687.921759310924
 20
1169.59213317087
 30
0.0
 11
687.921759310924
 21
1168.458361241746
 31
0.0
  0
LINE
  5
51F
330
22
100
AcDbEntity
  8
_4-7_
  6
Continuous
 62
     7
100
AcDbLine
 10
687.921759310924
 20
1168.458361241746
 30
0.0
 11
688.1923921612781
 21
1167.943010364871
 31
0.0
  0
LINE
  5
520
330
22
100
AcDbEntity
  8
_4-7_
  6
Continuous
 62
     7
100
AcDbLine
 10
688.1112022796754
 20
1167.788405101807
 30
0.0
 11
687.4998843109246
 21
1167.788405101807
 31
0.0
  0
LINE
  5
521
330
22
100
AcDbEntity
  8
_4-7_
  6
Continuous
 62
     7
100
AcDbLine
 10
687.4998843109246
 20
1167.788405101807
 30
0.0
 11
687.4998843109246
 21
1165.142535980633
 31
0.0
  0
LINE
  5
522
330
22
100
AcDbEntity
  8
_4-7_
  6
Continuous
 62
     7
100
AcDbLine
 10
687.4998843109246
 20
1165.142535980633
 30
0.0
 11
687.8133027484238
 21
1164.541694577495
 31
0.0
  0
LINE
  5
523
330
22
100
AcDbEntity
  8
_4-7_
  6
Continuous
 62
     7
100
AcDbLine
 10
687.8133027484238
 20
1164.541694577495
 30
0.0
 11
687.8162905609236
 21
1164.541694577495
 31
0.0
  0
LINE
  5
524
330
22
100
AcDbEntity
  8
_4-7_
  6
Continuous
 62
     7
100
AcDbLine
 10
687.816293169227
 20
1164.541694798609
 30
0.0
 11
687.8162905609236
 21
1164.541694577495
 31
0.0
  0
LINE
  5
525
330
22
100
AcDbEntity
  8
_4-7_
  6
Continuous
 62
     7
100
AcDbLine
 10
687.816293169227
 20
1164.541694798609
 30
0.0
 11
687.8162905609236
 21
1164.541694577495
 31
0.0
  0
LINE
  5
526
330
22
100
AcDbEntity
  8
_4-7_
  6
Continuous
 62
     7
100
AcDbLine
 10
687.8366600921719
 20
1163.871738437558
 30
0.0
 11
687.4998843109246
 21
1163.871738437558
 31
0.0
  0
LINE
  5
527
330
22
100
AcDbEntity
  8
_4-7_
  6
Continuous
 62
     7
100
AcDbLine
 10
687.4998843109246
 20
1163.871738437558
 30
0.0
 11
687.4998843109246
 21
1160.248467727075
 31
0.0
  0
LINE
  5
528
330
22
100
AcDbEntity
  8
_4-7_
  6
Continuous
 62
     7
100
AcDbLine
 10
687.4998843109246
 20
1160.248467727075
 30
0.0
 11
687.8162888028384
 21
1159.645873120971
 31
0.0
  0
LINE
  5
529
330
22
100
AcDbEntity
  8
_4-7_
  6
Continuous
 62
     7
100
AcDbLine
 10
687.8162905609236
 20
1159.645861247182
 30
0.0
 11
687.8185353298966
 21
1159.944268370458
 31
0.0
  0
LINE
  5
52A
330
22
100
AcDbEntity
  8
_4-7_
  6
Continuous
 62
     7
100
AcDbLine
 10
687.8185353298966
 20
1159.944268370458
 30
0.0
 11
688.0189603346628
 21
1159.955071773308
 31
0.0
  0
LINE
  5
52B
330
22
100
AcDbEntity
  8
_4-7_
  6
Continuous
 62
     7
100
AcDbLine
 10
688.1181241097659
 20
1160.109677036371
 30
0.0
 11
687.8366600921719
 21
1160.625027913245
 31
0.0
  0
LINE
  5
52C
330
22
100
AcDbEntity
  8
_4-7_
  6
Continuous
 62
     7
100
AcDbLine
 10
687.8366600921719
 20
1160.625027913245
 30
0.0
 11
687.836659997098
 21
1160.923435081367
 31
0.0
  0
LINE
  5
52D
330
22
100
AcDbEntity
  8
_4-7_
  6
Continuous
 62
     7
100
AcDbLine
 10
687.836659997098
 20
1160.923435081367
 30
0.0
 11
688.0541802484242
 21
1160.934238439371
 31
0.0
  0
LINE
  5
52E
330
22
100
AcDbEntity
  8
_4-7_
  6
Continuous
 62
     7
100
AcDbLine
 10
688.1539238419976
 20
1161.088843702433
 30
0.0
 11
687.8366600921719
 21
1161.604194579308
 31
0.0
  0
LINE
  5
52F
330
22
100
AcDbEntity
  8
_4-7_
  6
Continuous
 62
     7
100
AcDbLine
 10
687.8366600921719
 20
1161.604194579308
 30
0.0
 11
687.8366600921719
 21
1161.902601805
 31
0.0
  0
LINE
  5
530
330
22
100
AcDbEntity
  8
_4-7_
  6
Continuous
 62
     7
100
AcDbLine
 10
687.8366600921719
 20
1161.902601805
 30
0.0
 11
688.0541802484242
 21
1161.913405105433
 31
0.0
  0
LINE
  5
531
330
22
100
AcDbEntity
  8
_4-7_
  6
Continuous
 62
     7
100
AcDbLine
 10
688.1539238419976
 20
1162.068010368495
 30
0.0
 11
687.8366600921719
 21
1162.583361245371
 31
0.0
  0
LINE
  5
532
330
22
100
AcDbEntity
  8
_4-7_
  6
Continuous
 62
     7
100
AcDbLine
 10
687.8366600921719
 20
1162.583361245371
 30
0.0
 11
687.8366600921719
 21
1162.881768471063
 31
0.0
  0
LINE
  5
533
330
22
100
AcDbEntity
  8
_4-7_
  6
Continuous
 62
     7
100
AcDbLine
 10
687.8366600921719
 20
1162.881768471063
 30
0.0
 11
688.0541802484242
 21
1162.892571771495
 31
0.0
  0
LINE
  5
534
330
22
100
AcDbEntity
  8
_4-7_
  6
Continuous
 62
     7
100
AcDbLine
 10
688.1539238419976
 20
1163.047177034558
 30
0.0
 11
687.836659997098
 21
1163.562527911433
 31
0.0
  0
LINE
  5
535
330
22
100
AcDbEntity
  8
_4-7_
  6
Continuous
 62
     7
100
AcDbLine
 10
687.836659997098
 20
1163.562527911433
 30
0.0
 11
687.8366600921719
 21
1163.871738437558
 31
0.0
  0
LINE
  5
536
330
22
100
AcDbEntity
  8
_4-7_
  6
Continuous
 62
     7
100
AcDbLine
 10
687.816293169227
 20
1164.541694798609
 30
0.0
 11
687.8185964200055
 21
1164.840101966731
 31
0.0
  0
LINE
  5
537
330
22
100
AcDbEntity
  8
_4-7_
  6
Continuous
 62
     7
100
AcDbLine
 10
687.8185964200055
 20
1164.840101966731
 30
0.0
 11
688.0169994671734
 21
1164.85090510362
 31
0.0
  0
LINE
  5
538
330
22
100
AcDbEntity
  8
_4-7_
  6
Continuous
 62
     7
100
AcDbLine
 10
688.1183070548752
 20
1165.005510366682
 30
0.0
 11
687.836659997098
 21
1165.520861243558
 31
0.0
  0
LINE
  5
539
330
22
100
AcDbEntity
  8
_4-7_
  6
Continuous
 62
     7
100
AcDbLine
 10
687.836659997098
 20
1165.520861243558
 30
0.0
 11
687.836659997098
 21
1165.819268411679
 31
0.0
  0
LINE
  5
53A
330
22
100
AcDbEntity
  8
_4-7_
  6
Continuous
 62
     7
100
AcDbLine
 10
687.836659997098
 20
1165.819268411679
 30
0.0
 11
688.0541802484242
 21
1165.830071769683
 31
0.0
  0
LINE
  5
53B
330
22
100
AcDbEntity
  8
_4-7_
  6
Continuous
 62
     7
100
AcDbLine
 10
688.1539238419976
 20
1165.984677032745
 30
0.0
 11
687.8366600921719
 21
1166.50002790962
 31
0.0
  0
LINE
  5
53C
330
22
100
AcDbEntity
  8
_4-7_
  6
Continuous
 62
     7
100
AcDbLine
 10
687.8366600921719
 20
1166.50002790962
 30
0.0
 11
687.836659997098
 21
1166.798435077741
 31
0.0
  0
LINE
  5
53D
330
22
100
AcDbEntity
  8
_4-7_
  6
Continuous
 62
     7
100
AcDbLine
 10
687.836659997098
 20
1166.798435077741
 30
0.0
 11
688.0547340562282
 21
1166.80938317397
 31
0.0
  0
LINE
  5
53E
330
22
100
AcDbEntity
  8
_4-7_
  6
Continuous
 62
     7
100
AcDbLine
 10
688.1539238419976
 20
1166.963843698809
 30
0.0
 11
687.836659997098
 21
1167.479194575682
 31
0.0
  0
LINE
  5
53F
330
22
100
AcDbEntity
  8
_4-7_
  6
Continuous
 62
     7
100
AcDbLine
 10
687.836659997098
 20
1167.479194575682
 30
0.0
 11
687.8366600956143
 21
1167.788405101807
 31
0.0
  0
LINE
  5
540
330
22
100
AcDbEntity
  8
_4-7_
  6
Continuous
 62
     7
100
AcDbLine
 10
687.8366600921719
 20
1158.975905107246
 30
0.0
 11
687.4998843109246
 21
1158.975905107246
 31
0.0
  0
LINE
  5
541
330
22
100
AcDbEntity
  8
_4-7_
  6
Continuous
 62
     7
100
AcDbLine
 10
687.4998843109246
 20
1158.975905107246
 30
0.0
 11
687.4998843109246
 21
1156.945754022972
 31
0.0
  0
LINE
  5
542
330
22
100
AcDbEntity
  8
_4-7_
  6
Continuous
 62
     7
100
AcDbLine
 10
687.4998843109246
 20
1156.945754022972
 30
0.0
 11
687.8160004046742
 21
1154.75002791687
 31
0.0
  0
LINE
  5
543
330
22
100
AcDbEntity
  8
_4-7_
  6
Continuous
 62
     7
100
AcDbLine
 10
687.8160004046742
 20
1154.75002791687
 30
0.0
 11
687.8164594782139
 21
1155.048434844459
 31
0.0
  0
LINE
  5
544
330
22
100
AcDbEntity
  8
_4-7_
  6
Continuous
 62
     7
100
AcDbLine
 10
687.8164594782139
 20
1155.048434844459
 30
0.0
 11
688.0093897796735
 21
1155.059238442995
 31
0.0
  0
LINE
  5
545
330
22
100
AcDbEntity
  8
_4-7_
  6
Continuous
 62
     7
100
AcDbLine
 10
687.8160004046742
 20
1154.75002791687
 30
0.0
 11
688.08692341128
 21
1154.234677039996
 31
0.0
  0
LINE
  5
546
330
22
100
AcDbEntity
  8
_4-7_
  6
Continuous
 62
     7
100
AcDbLine
 10
688.0997376326661
 20
1155.213843706057
 30
0.0
 11
687.8181111742526
 21
1155.729194582932
 31
0.0
  0
LINE
  5
547
330
22
100
AcDbEntity
  8
_4-7_
  6
Continuous
 62
     7
100
AcDbLine
 10
687.8181111742526
 20
1155.729194582932
 30
0.0
 11
687.8194142394169
 21
1156.02760151052
 31
0.0
  0
LINE
  5
548
330
22
100
AcDbEntity
  8
_4-7_
  6
Continuous
 62
     7
100
AcDbLine
 10
687.8194142394169
 20
1156.02760151052
 30
0.0
 11
688.0208685296736
 21
1156.038405109057
 31
0.0
  0
LINE
  5
549
330
22
100
AcDbEntity
  8
_4-7_
  6
Continuous
 62
     7
100
AcDbLine
 10
688.1136844645619
 20
1156.19301037212
 30
0.0
 11
687.8237670524834
 21
1156.708361008461
 31
0.0
  0
LINE
  5
54A
330
22
100
AcDbEntity
  8
_4-7_
  6
Continuous
 62
     7
100
AcDbLine
 10
687.8237670524834
 20
1156.708361008461
 30
0.0
 11
687.8263063279168
 21
1157.006768176584
 31
0.0
  0
LINE
  5
54B
330
22
100
AcDbEntity
  8
_4-7_
  6
Continuous
 62
     7
100
AcDbLine
 10
687.8263063279168
 20
1157.006768176584
 30
0.0
 11
688.0354646749595
 21
1157.01757177512
 31
0.0
  0
LINE
  5
54C
330
22
100
AcDbEntity
  8
_4-7_
  6
Continuous
 62
     7
100
AcDbLine
 10
688.1337488100654
 20
1157.172177038182
 30
0.0
 11
687.8336221699385
 21
1157.687527674525
 31
0.0
  0
LINE
  5
54D
330
22
100
AcDbEntity
  8
_4-7_
  6
Continuous
 62
     7
100
AcDbLine
 10
687.8336221699385
 20
1157.687527674525
 30
0.0
 11
687.8366600921719
 21
1157.98593514075
 31
0.0
  0
LINE
  5
54E
330
22
100
AcDbEntity
  8
_4-7_
  6
Continuous
 62
     7
100
AcDbLine
 10
687.8366600921719
 20
1157.98593514075
 30
0.0
 11
688.0541802484242
 21
1157.996738441183
 31
0.0
  0
LINE
  5
54F
330
22
100
AcDbEntity
  8
_4-7_
  6
Continuous
 62
     7
100
AcDbLine
 10
688.1539238419976
 20
1158.151343704244
 30
0.0
 11
687.836659997098
 21
1158.66669458112
 31
0.0
  0
LINE
  5
550
330
22
100
AcDbEntity
  8
_4-7_
  6
Continuous
 62
     7
100
AcDbLine
 10
687.836659997098
 20
1158.66669458112
 30
0.0
 11
687.8366600921719
 21
1158.975905107246
 31
0.0
  0
LINE
  5
551
330
22
100
AcDbEntity
  8
_4-7_
  6
Continuous
 62
     7
100
AcDbLine
 10
688.0057335296727
 20
1154.080071776933
 30
0.0
 11
687.921759310924
 21
1154.080071776933
 31
0.0
  0
LINE
  5
552
330
22
100
AcDbEntity
  8
_4-7_
  6
Continuous
 62
     7
100
AcDbLine
 10
687.921759310924
 20
1154.080071776933
 30
0.0
 11
687.921759310924
 21
1153.590488443901
 31
0.0
  0
LINE
  5
553
330
22
100
AcDbEntity
  8
_4-7_
  6
Continuous
 62
     7
100
AcDbLine
 10
687.921759310924
 20
1153.590488443901
 30
0.0
 11
688.0155093109226
 21
1153.590488443901
 31
0.0
  0
LINE
  5
554
330
22
100
AcDbEntity
  8
_4-7_
  6
Continuous
 62
     7
100
AcDbLine
 10
688.0155093109226
 20
1153.590488443901
 30
0.0
 11
688.0155093109226
 21
1152.585554233995
 31
0.0
  0
LINE
  5
555
330
22
100
AcDbEntity
  8
_4-7_
  6
Continuous
 62
     7
100
AcDbLine
 10
688.0155093109226
 20
1152.585554233995
 30
0.0
 11
688.0195510676742
 21
1152.585554233995
 31
0.0
  0
LINE
  5
556
330
22
100
AcDbEntity
  8
_4-7_
  6
Continuous
 62
     7
100
AcDbLine
 10
688.0509730609231
 20
1152.379413883245
 30
0.0
 11
688.0509731525092
 21
1148.660387887733
 31
0.0
  0
LINE
  5
557
330
22
100
AcDbEntity
  8
_4-7_
  6
Continuous
 62
     7
100
AcDbLine
 10
688.0509731525092
 20
1148.660387887733
 30
0.0
 11
688.3262464984238
 21
1148.253249872633
 31
0.0
  0
LINE
  5
558
330
22
100
AcDbEntity
  8
_4-7_
  6
Continuous
 62
     7
100
AcDbLine
 10
688.3262464984238
 20
1148.253249872633
 30
0.0
 11
688.9530093109226
 21
1147.432045465245
 31
0.0
  0
LINE
  5
559
330
22
100
AcDbEntity
  8
_4-7_
  6
Continuous
 62
     7
100
AcDbLine
 10
688.9530093109226
 20
1147.432045465245
 30
0.0
 11
689.0463708606069
 21
1147.432045465245
 31
0.0
  0
LINE
  5
55A
330
22
100
AcDbEntity
  8
_4-7_
  6
Continuous
 62
     7
100
AcDbLine
 10
689.0463708606069
 20
1147.432045465245
 30
0.0
 11
688.3681870422845
 21
1148.660387887733
 31
0.0
  0
LINE
  5
55B
330
22
100
AcDbEntity
  8
_4-7_
  6
Continuous
 62
     7
100
AcDbLine
 10
688.3681870422845
 20
1148.660387887733
 30
0.0
 11
688.3681869671739
 21
1151.142571778746
 31
0.0
  0
LINE
  5
55C
330
22
100
AcDbEntity
  8
_4-7_
  6
Continuous
 62
     7
100
AcDbLine
 10
688.7327891546749
 20
1151.142571778746
 30
0.0
 11
688.7327889837784
 21
1148.66038798317
 31
0.0
  0
LINE
  5
55D
330
22
100
AcDbEntity
  8
_4-7_
  6
Continuous
 62
     7
100
AcDbLine
 10
688.7327889837784
 20
1148.66038798317
 30
0.0
 11
689.4109729620493
 21
1147.432045465245
 31
0.0
  0
LINE
  5
55E
330
22
100
AcDbEntity
  8
_4-7_
  6
Continuous
 62
     7
100
AcDbLine
 10
689.4109729620493
 20
1147.432045465245
 30
0.0
 11
689.796759310924
 21
1147.432045465245
 31
0.0
  0
LINE
  5
55F
330
22
100
AcDbEntity
  8
_4-7_
  6
Continuous
 62
     7
100
AcDbLine
 10
688.1112022796742
 20
1167.788405101807
 30
0.0
 11
688.1112022796742
 21
1167.788405101807
 31
0.0
  0
LINE
  5
560
330
22
100
AcDbEntity
  8
_4-7_
  6
Continuous
 62
     7
100
AcDbLine
 10
688.1112022796742
 20
1167.788405101807
 30
0.0
 11
688.128051311487
 21
1167.791313717255
 31
0.0
  0
LINE
  5
561
330
22
100
AcDbEntity
  8
_4-7_
  6
Continuous
 62
     7
100
AcDbLine
 10
688.128051311487
 20
1167.791313717255
 30
0.0
 11
688.1441849646202
 21
1167.797394817336
 31
0.0
  0
LINE
  5
562
330
22
100
AcDbEntity
  8
_4-7_
  6
Continuous
 62
     7
100
AcDbLine
 10
688.1441849646202
 20
1167.797394817336
 30
0.0
 11
688.1591130261874
 21
1167.806463630902
 31
0.0
  0
LINE
  5
563
330
22
100
AcDbEntity
  8
_4-7_
  6
Continuous
 62
     7
100
AcDbLine
 10
688.1591130261874
 20
1167.806463630902
 30
0.0
 11
688.1723819145917
 21
1167.818244606643
 31
0.0
  0
LINE
  5
564
330
22
100
AcDbEntity
  8
_4-7_
  6
Continuous
 62
     7
100
AcDbLine
 10
688.1723819145917
 20
1167.818244606643
 30
0.0
 11
688.1835884613733
 21
1167.832379785572
 31
0.0
  0
LINE
  5
565
330
22
100
AcDbEntity
  8
_4-7_
  6
Continuous
 62
     7
100
AcDbLine
 10
688.1835884613733
 20
1167.832379785572
 30
0.0
 11
688.192392161279
 21
1167.848439677429
 31
0.0
  0
LINE
  5
566
330
22
100
AcDbEntity
  8
_4-7_
  6
Continuous
 62
     7
100
AcDbLine
 10
688.192392161279
 20
1167.848439677429
 30
0.0
 11
688.1985255183423
 21
1167.865936310528
 31
0.0
  0
LINE
  5
567
330
22
100
AcDbEntity
  8
_4-7_
  6
Continuous
 62
     7
100
AcDbLine
 10
688.1985255183423
 20
1167.865936310528
 30
0.0
 11
688.2018021736119
 21
1167.884338058525
 31
0.0
  0
LINE
  5
568
330
22
100
AcDbEntity
  8
_4-7_
  6
Continuous
 62
     7
100
AcDbLine
 10
688.2018021736119
 20
1167.884338058525
 30
0.0
 11
688.2021225675764
 21
1167.90308579362
 31
0.0
  0
LINE
  5
569
330
22
100
AcDbEntity
  8
_4-7_
  6
Continuous
 62
     7
100
AcDbLine
 10
688.2021225675764
 20
1167.90308579362
 30
0.0
 11
688.199476965227
 21
1167.921609875367
 31
0.0
  0
LINE
  5
56A
330
22
100
AcDbEntity
  8
_4-7_
  6
Continuous
 62
     7
100
AcDbLine
 10
688.199476965227
 20
1167.921609875367
 30
0.0
 11
688.1939457518516
 21
1167.939347458918
 31
0.0
  0
LINE
  5
56B
330
22
100
AcDbEntity
  8
_4-7_
  6
Continuous
 62
     7
100
AcDbLine
 10
688.1939457518516
 20
1167.939347458918
 30
0.0
 11
688.1856969905706
 21
1167.955759596771
 31
0.0
  0
LINE
  5
56C
330
22
100
AcDbEntity
  8
_4-7_
  6
Continuous
 62
     7
100
AcDbLine
 10
688.1856969905706
 20
1167.955759596771
 30
0.0
 11
688.1856967452473
 21
1167.955759997786
 31
0.0
  0
LINE
  5
56D
330
22
100
AcDbEntity
  8
_4-7_
  6
Continuous
 62
     7
100
AcDbLine
 10
688.0541802484242
 20
1166.809238435746
 30
0.0
 11
688.0541802484242
 21
1166.809238435746
 31
0.0
  0
LINE
  5
56E
330
22
100
AcDbEntity
  8
_4-7_
  6
Continuous
 62
     7
100
AcDbLine
 10
688.0541802484242
 20
1166.809238435746
 30
0.0
 11
688.0757572661336
 21
1166.817059404658
 31
0.0
  0
LINE
  5
56F
330
22
100
AcDbEntity
  8
_4-7_
  6
Continuous
 62
     7
100
AcDbLine
 10
688.0757572661336
 20
1166.817059404658
 30
0.0
 11
688.0957711901041
 21
1166.828880855144
 31
0.0
  0
LINE
  5
570
330
22
100
AcDbEntity
  8
_4-7_
  6
Continuous
 62
     7
100
AcDbLine
 10
688.0957711901041
 20
1166.828880855144
 30
0.0
 11
688.113613907384
 21
1166.844343598413
 31
0.0
  0
LINE
  5
571
330
22
100
AcDbEntity
  8
_4-7_
  6
Continuous
 62
     7
100
AcDbLine
 10
688.113613907384
 20
1166.844343598413
 30
0.0
 11
688.128743276037
 21
1166.862977806836
 31
0.0
  0
LINE
  5
572
330
22
100
AcDbEntity
  8
_4-7_
  6
Continuous
 62
     7
100
AcDbLine
 10
688.128743276037
 20
1166.862977806836
 30
0.0
 11
688.1406995978527
 21
1166.88421728942
 31
0.0
  0
LINE
  5
573
330
22
100
AcDbEntity
  8
_4-7_
  6
Continuous
 62
     7
100
AcDbLine
 10
688.1406995978527
 20
1166.88421728942
 30
0.0
 11
688.1491195860429
 21
1166.907416695233
 31
0.0
  0
LINE
  5
574
330
22
100
AcDbEntity
  8
_4-7_
  6
Continuous
 62
     7
100
AcDbLine
 10
688.1491195860429
 20
1166.907416695233
 30
0.0
 11
688.153747403527
 21
1166.931871122069
 31
0.0
  0
LINE
  5
575
330
22
100
AcDbEntity
  8
_4-7_
  6
Continuous
 62
     7
100
AcDbLine
 10
688.153747403527
 20
1166.931871122069
 30
0.0
 11
688.1544424364128
 21
1166.956837534543
 31
0.0
  0
LINE
  5
576
330
22
100
AcDbEntity
  8
_4-7_
  6
Continuous
 62
     7
100
AcDbLine
 10
688.1544424364128
 20
1166.956837534543
 30
0.0
 11
688.1539238419998
 21
1166.963843698808
 31
0.0
  0
LINE
  5
577
330
22
100
AcDbEntity
  8
_4-7_
  6
Continuous
 62
     7
100
AcDbLine
 10
688.0541802484242
 20
1165.830071769682
 30
0.0
 11
688.0541802484242
 21
1165.830071769682
 31
0.0
  0
LINE
  5
578
330
22
100
AcDbEntity
  8
_4-7_
  6
Continuous
 62
     7
100
AcDbLine
 10
688.0541802484242
 20
1165.830071769682
 30
0.0
 11
688.0757572661336
 21
1165.837892738594
 31
0.0
  0
LINE
  5
579
330
22
100
AcDbEntity
  8
_4-7_
  6
Continuous
 62
     7
100
AcDbLine
 10
688.0757572661336
 20
1165.837892738594
 30
0.0
 11
688.0957711901041
 21
1165.84971418908
 31
0.0
  0
LINE
  5
57A
330
22
100
AcDbEntity
  8
_4-7_
  6
Continuous
 62
     7
100
AcDbLine
 10
688.0957711901041
 20
1165.84971418908
 30
0.0
 11
688.113613907384
 21
1165.86517693235
 31
0.0
  0
LINE
  5
57B
330
22
100
AcDbEntity
  8
_4-7_
  6
Continuous
 62
     7
100
AcDbLine
 10
688.113613907384
 20
1165.86517693235
 30
0.0
 11
688.128743276037
 21
1165.883811140773
 31
0.0
  0
LINE
  5
57C
330
22
100
AcDbEntity
  8
_4-7_
  6
Continuous
 62
     7
100
AcDbLine
 10
688.128743276037
 20
1165.883811140773
 30
0.0
 11
688.1406995978527
 21
1165.905050623357
 31
0.0
  0
LINE
  5
57D
330
22
100
AcDbEntity
  8
_4-7_
  6
Continuous
 62
     7
100
AcDbLine
 10
688.1406995978527
 20
1165.905050623357
 30
0.0
 11
688.1491195860429
 21
1165.928250029169
 31
0.0
  0
LINE
  5
57E
330
22
100
AcDbEntity
  8
_4-7_
  6
Continuous
 62
     7
100
AcDbLine
 10
688.1491195860429
 20
1165.928250029169
 30
0.0
 11
688.153747403527
 21
1165.952704456005
 31
0.0
  0
LINE
  5
57F
330
22
100
AcDbEntity
  8
_4-7_
  6
Continuous
 62
     7
100
AcDbLine
 10
688.153747403527
 20
1165.952704456005
 30
0.0
 11
688.1544424364128
 21
1165.97767086848
 31
0.0
  0
LINE
  5
580
330
22
100
AcDbEntity
  8
_4-7_
  6
Continuous
 62
     7
100
AcDbLine
 10
688.1544424364128
 20
1165.97767086848
 30
0.0
 11
688.1539238419998
 21
1165.984677032744
 31
0.0
  0
LINE
  5
581
330
22
100
AcDbEntity
  8
_4-7_
  6
Continuous
 62
     7
100
AcDbLine
 10
688.0185634612972
 20
1164.85090510362
 30
0.0
 11
688.0185634612972
 21
1164.85090510362
 31
0.0
  0
LINE
  5
582
330
22
100
AcDbEntity
  8
_4-7_
  6
Continuous
 62
     7
100
AcDbLine
 10
688.0185634612972
 20
1164.85090510362
 30
0.0
 11
688.0401404790068
 21
1164.858726072532
 31
0.0
  0
LINE
  5
583
330
22
100
AcDbEntity
  8
_4-7_
  6
Continuous
 62
     7
100
AcDbLine
 10
688.0401404790068
 20
1164.858726072532
 30
0.0
 11
688.0601544029774
 21
1164.870547523018
 31
0.0
  0
LINE
  5
584
330
22
100
AcDbEntity
  8
_4-7_
  6
Continuous
 62
     7
100
AcDbLine
 10
688.0601544029774
 20
1164.870547523018
 30
0.0
 11
688.0779971202571
 21
1164.886010266287
 31
0.0
  0
LINE
  5
585
330
22
100
AcDbEntity
  8
_4-7_
  6
Continuous
 62
     7
100
AcDbLine
 10
688.0779971202571
 20
1164.886010266287
 30
0.0
 11
688.0931264889102
 21
1164.90464447471
 31
0.0
  0
LINE
  5
586
330
22
100
AcDbEntity
  8
_4-7_
  6
Continuous
 62
     7
100
AcDbLine
 10
688.0931264889102
 20
1164.90464447471
 30
0.0
 11
688.1050828107259
 21
1164.925883957294
 31
0.0
  0
LINE
  5
587
330
22
100
AcDbEntity
  8
_4-7_
  6
Continuous
 62
     7
100
AcDbLine
 10
688.1050828107259
 20
1164.925883957294
 30
0.0
 11
688.1135027989159
 21
1164.949083363107
 31
0.0
  0
LINE
  5
588
330
22
100
AcDbEntity
  8
_4-7_
  6
Continuous
 62
     7
100
AcDbLine
 10
688.1135027989159
 20
1164.949083363107
 30
0.0
 11
688.1181306164001
 21
1164.973537789943
 31
0.0
  0
LINE
  5
589
330
22
100
AcDbEntity
  8
_4-7_
  6
Continuous
 62
     7
100
AcDbLine
 10
688.1181306164001
 20
1164.973537789943
 30
0.0
 11
688.1188256492858
 21
1164.998504202417
 31
0.0
  0
LINE
  5
58A
330
22
100
AcDbEntity
  8
_4-7_
  6
Continuous
 62
     7
100
AcDbLine
 10
688.1188256492858
 20
1164.998504202417
 30
0.0
 11
688.1183070548727
 21
1165.005510366682
 31
0.0
  0
LINE
  5
58B
330
22
100
AcDbEntity
  8
_4-7_
  6
Continuous
 62
     7
100
AcDbLine
 10
688.0541802484242
 20
1162.892571771495
 30
0.0
 11
688.0541802484242
 21
1162.892571771495
 31
0.0
  0
LINE
  5
58C
330
22
100
AcDbEntity
  8
_4-7_
  6
Continuous
 62
     7
100
AcDbLine
 10
688.0541802484242
 20
1162.892571771495
 30
0.0
 11
688.0757572661336
 21
1162.900392740407
 31
0.0
  0
LINE
  5
58D
330
22
100
AcDbEntity
  8
_4-7_
  6
Continuous
 62
     7
100
AcDbLine
 10
688.0757572661336
 20
1162.900392740407
 30
0.0
 11
688.0957711901041
 21
1162.912214190893
 31
0.0
  0
LINE
  5
58E
330
22
100
AcDbEntity
  8
_4-7_
  6
Continuous
 62
     7
100
AcDbLine
 10
688.0957711901041
 20
1162.912214190893
 30
0.0
 11
688.113613907384
 21
1162.927676934162
 31
0.0
  0
LINE
  5
58F
330
22
100
AcDbEntity
  8
_4-7_
  6
Continuous
 62
     7
100
AcDbLine
 10
688.113613907384
 20
1162.927676934162
 30
0.0
 11
688.128743276037
 21
1162.946311142586
 31
0.0
  0
LINE
  5
590
330
22
100
AcDbEntity
  8
_4-7_
  6
Continuous
 62
     7
100
AcDbLine
 10
688.128743276037
 20
1162.946311142586
 30
0.0
 11
688.1406995978527
 21
1162.967550625169
 31
0.0
  0
LINE
  5
591
330
22
100
AcDbEntity
  8
_4-7_
  6
Continuous
 62
     7
100
AcDbLine
 10
688.1406995978527
 20
1162.967550625169
 30
0.0
 11
688.1491195860429
 21
1162.990750030982
 31
0.0
  0
LINE
  5
592
330
22
100
AcDbEntity
  8
_4-7_
  6
Continuous
 62
     7
100
AcDbLine
 10
688.1491195860429
 20
1162.990750030982
 30
0.0
 11
688.153747403527
 21
1163.015204457818
 31
0.0
  0
LINE
  5
593
330
22
100
AcDbEntity
  8
_4-7_
  6
Continuous
 62
     7
100
AcDbLine
 10
688.153747403527
 20
1163.015204457818
 30
0.0
 11
688.1544424364128
 21
1163.040170870293
 31
0.0
  0
LINE
  5
594
330
22
100
AcDbEntity
  8
_4-7_
  6
Continuous
 62
     7
100
AcDbLine
 10
688.1544424364128
 20
1163.040170870293
 30
0.0
 11
688.1539238419998
 21
1163.047177034558
 31
0.0
  0
LINE
  5
595
330
22
100
AcDbEntity
  8
_4-7_
  6
Continuous
 62
     7
100
AcDbLine
 10
688.0541802484242
 20
1161.913405105432
 30
0.0
 11
688.0541802484242
 21
1161.913405105432
 31
0.0
  0
LINE
  5
596
330
22
100
AcDbEntity
  8
_4-7_
  6
Continuous
 62
     7
100
AcDbLine
 10
688.0541802484242
 20
1161.913405105432
 30
0.0
 11
688.0757572661336
 21
1161.921226074345
 31
0.0
  0
LINE
  5
597
330
22
100
AcDbEntity
  8
_4-7_
  6
Continuous
 62
     7
100
AcDbLine
 10
688.0757572661336
 20
1161.921226074345
 30
0.0
 11
688.0957711901041
 21
1161.933047524831
 31
0.0
  0
LINE
  5
598
330
22
100
AcDbEntity
  8
_4-7_
  6
Continuous
 62
     7
100
AcDbLine
 10
688.0957711901041
 20
1161.933047524831
 30
0.0
 11
688.113613907384
 21
1161.9485102681
 31
0.0
  0
LINE
  5
599
330
22
100
AcDbEntity
  8
_4-7_
  6
Continuous
 62
     7
100
AcDbLine
 10
688.113613907384
 20
1161.9485102681
 30
0.0
 11
688.128743276037
 21
1161.967144476524
 31
0.0
  0
LINE
  5
59A
330
22
100
AcDbEntity
  8
_4-7_
  6
Continuous
 62
     7
100
AcDbLine
 10
688.128743276037
 20
1161.967144476524
 30
0.0
 11
688.1406995978527
 21
1161.988383959107
 31
0.0
  0
LINE
  5
59B
330
22
100
AcDbEntity
  8
_4-7_
  6
Continuous
 62
     7
100
AcDbLine
 10
688.1406995978527
 20
1161.988383959107
 30
0.0
 11
688.1491195860429
 21
1162.01158336492
 31
0.0
  0
LINE
  5
59C
330
22
100
AcDbEntity
  8
_4-7_
  6
Continuous
 62
     7
100
AcDbLine
 10
688.1491195860429
 20
1162.01158336492
 30
0.0
 11
688.153747403527
 21
1162.036037791756
 31
0.0
  0
LINE
  5
59D
330
22
100
AcDbEntity
  8
_4-7_
  6
Continuous
 62
     7
100
AcDbLine
 10
688.153747403527
 20
1162.036037791756
 30
0.0
 11
688.1544424364128
 21
1162.06100420423
 31
0.0
  0
LINE
  5
59E
330
22
100
AcDbEntity
  8
_4-7_
  6
Continuous
 62
     7
100
AcDbLine
 10
688.1544424364128
 20
1162.06100420423
 30
0.0
 11
688.1539238419998
 21
1162.068010368495
 31
0.0
  0
LINE
  5
59F
330
22
100
AcDbEntity
  8
_4-7_
  6
Continuous
 62
     7
100
AcDbLine
 10
688.0541802484242
 20
1160.93423843937
 30
0.0
 11
688.0541802484242
 21
1160.93423843937
 31
0.0
  0
LINE
  5
5A0
330
22
100
AcDbEntity
  8
_4-7_
  6
Continuous
 62
     7
100
AcDbLine
 10
688.0541802484242
 20
1160.93423843937
 30
0.0
 11
688.0757572661336
 21
1160.942059408282
 31
0.0
  0
LINE
  5
5A1
330
22
100
AcDbEntity
  8
_4-7_
  6
Continuous
 62
     7
100
AcDbLine
 10
688.0757572661336
 20
1160.942059408282
 30
0.0
 11
688.0957711901041
 21
1160.953880858768
 31
0.0
  0
LINE
  5
5A2
330
22
100
AcDbEntity
  8
_4-7_
  6
Continuous
 62
     7
100
AcDbLine
 10
688.0957711901041
 20
1160.953880858768
 30
0.0
 11
688.113613907384
 21
1160.969343602038
 31
0.0
  0
LINE
  5
5A3
330
22
100
AcDbEntity
  8
_4-7_
  6
Continuous
 62
     7
100
AcDbLine
 10
688.113613907384
 20
1160.969343602038
 30
0.0
 11
688.128743276037
 21
1160.987977810461
 31
0.0
  0
LINE
  5
5A4
330
22
100
AcDbEntity
  8
_4-7_
  6
Continuous
 62
     7
100
AcDbLine
 10
688.128743276037
 20
1160.987977810461
 30
0.0
 11
688.1406995978527
 21
1161.009217293044
 31
0.0
  0
LINE
  5
5A5
330
22
100
AcDbEntity
  8
_4-7_
  6
Continuous
 62
     7
100
AcDbLine
 10
688.1406995978527
 20
1161.009217293044
 30
0.0
 11
688.1491195860429
 21
1161.032416698857
 31
0.0
  0
LINE
  5
5A6
330
22
100
AcDbEntity
  8
_4-7_
  6
Continuous
 62
     7
100
AcDbLine
 10
688.1491195860429
 20
1161.032416698857
 30
0.0
 11
688.153747403527
 21
1161.056871125693
 31
0.0
  0
LINE
  5
5A7
330
22
100
AcDbEntity
  8
_4-7_
  6
Continuous
 62
     7
100
AcDbLine
 10
688.153747403527
 20
1161.056871125693
 30
0.0
 11
688.1544424364128
 21
1161.081837538168
 31
0.0
  0
LINE
  5
5A8
330
22
100
AcDbEntity
  8
_4-7_
  6
Continuous
 62
     7
100
AcDbLine
 10
688.1544424364128
 20
1161.081837538168
 30
0.0
 11
688.1539238419998
 21
1161.088843702433
 31
0.0
  0
LINE
  5
5A9
330
22
100
AcDbEntity
  8
_4-7_
  6
Continuous
 62
     7
100
AcDbLine
 10
688.0183805161903
 20
1159.955071773308
 30
0.0
 11
688.0183805161903
 21
1159.955071773308
 31
0.0
  0
LINE
  5
5AA
330
22
100
AcDbEntity
  8
_4-7_
  6
Continuous
 62
     7
100
AcDbLine
 10
688.0183805161903
 20
1159.955071773308
 30
0.0
 11
688.0399575338997
 21
1159.96289274222
 31
0.0
  0
LINE
  5
5AB
330
22
100
AcDbEntity
  8
_4-7_
  6
Continuous
 62
     7
100
AcDbLine
 10
688.0399575338997
 20
1159.96289274222
 30
0.0
 11
688.0599714578703
 21
1159.974714192706
 31
0.0
  0
LINE
  5
5AC
330
22
100
AcDbEntity
  8
_4-7_
  6
Continuous
 62
     7
100
AcDbLine
 10
688.0599714578703
 20
1159.974714192706
 30
0.0
 11
688.07781417515
 21
1159.990176935976
 31
0.0
  0
LINE
  5
5AD
330
22
100
AcDbEntity
  8
_4-7_
  6
Continuous
 62
     7
100
AcDbLine
 10
688.07781417515
 20
1159.990176935976
 30
0.0
 11
688.0929435438031
 21
1160.008811144399
 31
0.0
  0
LINE
  5
5AE
330
22
100
AcDbEntity
  8
_4-7_
  6
Continuous
 62
     7
100
AcDbLine
 10
688.0929435438031
 20
1160.008811144399
 30
0.0
 11
688.1048998656187
 21
1160.030050626982
 31
0.0
  0
LINE
  5
5AF
330
22
100
AcDbEntity
  8
_4-7_
  6
Continuous
 62
     7
100
AcDbLine
 10
688.1048998656187
 20
1160.030050626982
 30
0.0
 11
688.1133198538089
 21
1160.053250032795
 31
0.0
  0
LINE
  5
5B0
330
22
100
AcDbEntity
  8
_4-7_
  6
Continuous
 62
     7
100
AcDbLine
 10
688.1133198538089
 20
1160.053250032795
 30
0.0
 11
688.1179476712932
 21
1160.077704459631
 31
0.0
  0
LINE
  5
5B1
330
22
100
AcDbEntity
  8
_4-7_
  6
Continuous
 62
     7
100
AcDbLine
 10
688.1179476712932
 20
1160.077704459631
 30
0.0
 11
688.1186427041788
 21
1160.102670872105
 31
0.0
  0
LINE
  5
5B2
330
22
100
AcDbEntity
  8
_4-7_
  6
Continuous
 62
     7
100
AcDbLine
 10
688.1186427041788
 20
1160.102670872105
 30
0.0
 11
688.1181241097657
 21
1160.109677036371
 31
0.0
  0
LINE
  5
5B3
330
22
100
AcDbEntity
  8
_4-7_
  6
Continuous
 62
     7
100
AcDbLine
 10
688.0541802484242
 20
1157.996738441183
 30
0.0
 11
688.0541802484242
 21
1157.996738441183
 31
0.0
  0
LINE
  5
5B4
330
22
100
AcDbEntity
  8
_4-7_
  6
Continuous
 62
     7
100
AcDbLine
 10
688.0541802484242
 20
1157.996738441183
 30
0.0
 11
688.0757572661336
 21
1158.004559410095
 31
0.0
  0
LINE
  5
5B5
330
22
100
AcDbEntity
  8
_4-7_
  6
Continuous
 62
     7
100
AcDbLine
 10
688.0757572661336
 20
1158.004559410095
 30
0.0
 11
688.0957711901041
 21
1158.016380860581
 31
0.0
  0
LINE
  5
5B6
330
22
100
AcDbEntity
  8
_4-7_
  6
Continuous
 62
     7
100
AcDbLine
 10
688.0957711901041
 20
1158.016380860581
 30
0.0
 11
688.113613907384
 21
1158.031843603851
 31
0.0
  0
LINE
  5
5B7
330
22
100
AcDbEntity
  8
_4-7_
  6
Continuous
 62
     7
100
AcDbLine
 10
688.113613907384
 20
1158.031843603851
 30
0.0
 11
688.128743276037
 21
1158.050477812274
 31
0.0
  0
LINE
  5
5B8
330
22
100
AcDbEntity
  8
_4-7_
  6
Continuous
 62
     7
100
AcDbLine
 10
688.128743276037
 20
1158.050477812274
 30
0.0
 11
688.1406995978527
 21
1158.071717294858
 31
0.0
  0
LINE
  5
5B9
330
22
100
AcDbEntity
  8
_4-7_
  6
Continuous
 62
     7
100
AcDbLine
 10
688.1406995978527
 20
1158.071717294858
 30
0.0
 11
688.1491195860429
 21
1158.09491670067
 31
0.0
  0
LINE
  5
5BA
330
22
100
AcDbEntity
  8
_4-7_
  6
Continuous
 62
     7
100
AcDbLine
 10
688.1491195860429
 20
1158.09491670067
 30
0.0
 11
688.153747403527
 21
1158.119371127506
 31
0.0
  0
LINE
  5
5BB
330
22
100
AcDbEntity
  8
_4-7_
  6
Continuous
 62
     7
100
AcDbLine
 10
688.153747403527
 20
1158.119371127506
 30
0.0
 11
688.1544424364128
 21
1158.144337539981
 31
0.0
  0
LINE
  5
5BC
330
22
100
AcDbEntity
  8
_4-7_
  6
Continuous
 62
     7
100
AcDbLine
 10
688.1544424364128
 20
1158.144337539981
 30
0.0
 11
688.1539238419998
 21
1158.151343704246
 31
0.0
  0
LINE
  5
5BD
330
22
100
AcDbEntity
  8
_4-7_
  6
Continuous
 62
     7
100
AcDbLine
 10
688.0340052164901
 20
1157.017571775119
 30
0.0
 11
688.0340052164901
 21
1157.017571775119
 31
0.0
  0
LINE
  5
5BE
330
22
100
AcDbEntity
  8
_4-7_
  6
Continuous
 62
     7
100
AcDbLine
 10
688.0340052164901
 20
1157.017571775119
 30
0.0
 11
688.0555822341993
 21
1157.025392744031
 31
0.0
  0
LINE
  5
5BF
330
22
100
AcDbEntity
  8
_4-7_
  6
Continuous
 62
     7
100
AcDbLine
 10
688.0555822341993
 20
1157.025392744031
 30
0.0
 11
688.07559615817
 21
1157.037214194518
 31
0.0
  0
LINE
  5
5C0
330
22
100
AcDbEntity
  8
_4-7_
  6
Continuous
 62
     7
100
AcDbLine
 10
688.07559615817
 20
1157.037214194518
 30
0.0
 11
688.0934388754496
 21
1157.052676937787
 31
0.0
  0
LINE
  5
5C1
330
22
100
AcDbEntity
  8
_4-7_
  6
Continuous
 62
     7
100
AcDbLine
 10
688.0934388754496
 20
1157.052676937787
 30
0.0
 11
688.1085682441027
 21
1157.071311146211
 31
0.0
  0
LINE
  5
5C2
330
22
100
AcDbEntity
  8
_4-7_
  6
Continuous
 62
     7
100
AcDbLine
 10
688.1085682441027
 20
1157.071311146211
 30
0.0
 11
688.1205245659185
 21
1157.092550628794
 31
0.0
  0
LINE
  5
5C3
330
22
100
AcDbEntity
  8
_4-7_
  6
Continuous
 62
     7
100
AcDbLine
 10
688.1205245659185
 20
1157.092550628794
 30
0.0
 11
688.1289445541084
 21
1157.115750034607
 31
0.0
  0
LINE
  5
5C4
330
22
100
AcDbEntity
  8
_4-7_
  6
Continuous
 62
     7
100
AcDbLine
 10
688.1289445541084
 20
1157.115750034607
 30
0.0
 11
688.1335723715927
 21
1157.140204461442
 31
0.0
  0
LINE
  5
5C5
330
22
100
AcDbEntity
  8
_4-7_
  6
Continuous
 62
     7
100
AcDbLine
 10
688.1335723715927
 20
1157.140204461442
 30
0.0
 11
688.1342674044784
 21
1157.165170873917
 31
0.0
  0
LINE
  5
5C6
330
22
100
AcDbEntity
  8
_4-7_
  6
Continuous
 62
     7
100
AcDbLine
 10
688.1342674044784
 20
1157.165170873917
 30
0.0
 11
688.1337488100654
 21
1157.172177038182
 31
0.0
  0
LINE
  5
5C7
330
22
100
AcDbEntity
  8
_4-7_
  6
Continuous
 62
     7
100
AcDbLine
 10
688.0139408709839
 20
1156.038405109057
 30
0.0
 11
688.0139408709839
 21
1156.038405109057
 31
0.0
  0
LINE
  5
5C8
330
22
100
AcDbEntity
  8
_4-7_
  6
Continuous
 62
     7
100
AcDbLine
 10
688.0139408709839
 20
1156.038405109057
 30
0.0
 11
688.0355178886936
 21
1156.046226077969
 31
0.0
  0
LINE
  5
5C9
330
22
100
AcDbEntity
  8
_4-7_
  6
Continuous
 62
     7
100
AcDbLine
 10
688.0355178886936
 20
1156.046226077969
 30
0.0
 11
688.0555318126641
 21
1156.058047528455
 31
0.0
  0
LINE
  5
5CA
330
22
100
AcDbEntity
  8
_4-7_
  6
Continuous
 62
     7
100
AcDbLine
 10
688.0555318126641
 20
1156.058047528455
 30
0.0
 11
688.0733745299437
 21
1156.073510271725
 31
0.0
  0
LINE
  5
5CB
330
22
100
AcDbEntity
  8
_4-7_
  6
Continuous
 62
     7
100
AcDbLine
 10
688.0733745299437
 20
1156.073510271725
 30
0.0
 11
688.0885038985968
 21
1156.092144480148
 31
0.0
  0
LINE
  5
5CC
330
22
100
AcDbEntity
  8
_4-7_
  6
Continuous
 62
     7
100
AcDbLine
 10
688.0885038985968
 20
1156.092144480148
 30
0.0
 11
688.1004602204123
 21
1156.113383962732
 31
0.0
  0
LINE
  5
5CD
330
22
100
AcDbEntity
  8
_4-7_
  6
Continuous
 62
     7
100
AcDbLine
 10
688.1004602204123
 20
1156.113383962732
 30
0.0
 11
688.1088802086025
 21
1156.136583368544
 31
0.0
  0
LINE
  5
5CE
330
22
100
AcDbEntity
  8
_4-7_
  6
Continuous
 62
     7
100
AcDbLine
 10
688.1088802086025
 20
1156.136583368544
 30
0.0
 11
688.1135080260867
 21
1156.16103779538
 31
0.0
  0
LINE
  5
5CF
330
22
100
AcDbEntity
  8
_4-7_
  6
Continuous
 62
     7
100
AcDbLine
 10
688.1135080260867
 20
1156.16103779538
 30
0.0
 11
688.1142030589725
 21
1156.186004207855
 31
0.0
  0
LINE
  5
5D0
330
22
100
AcDbEntity
  8
_4-7_
  6
Continuous
 62
     7
100
AcDbLine
 10
688.1142030589725
 20
1156.186004207855
 30
0.0
 11
688.1136844645594
 21
1156.19301037212
 31
0.0
  0
LINE
  5
5D1
330
22
100
AcDbEntity
  8
_4-7_
  6
Continuous
 62
     7
100
AcDbLine
 10
687.9999940390927
 20
1155.059238442996
 30
0.0
 11
687.9999940390927
 21
1155.059238442996
 31
0.0
  0
LINE
  5
5D2
330
22
100
AcDbEntity
  8
_4-7_
  6
Continuous
 62
     7
100
AcDbLine
 10
687.9999940390927
 20
1155.059238442996
 30
0.0
 11
688.0215710568023
 21
1155.067059411908
 31
0.0
  0
LINE
  5
5D3
330
22
100
AcDbEntity
  8
_4-7_
  6
Continuous
 62
     7
100
AcDbLine
 10
688.0215710568023
 20
1155.067059411908
 30
0.0
 11
688.0415849807729
 21
1155.078880862394
 31
0.0
  0
LINE
  5
5D4
330
22
100
AcDbEntity
  8
_4-7_
  6
Continuous
 62
     7
100
AcDbLine
 10
688.0415849807729
 20
1155.078880862394
 30
0.0
 11
688.0594276980525
 21
1155.094343605664
 31
0.0
  0
LINE
  5
5D5
330
22
100
AcDbEntity
  8
_4-7_
  6
Continuous
 62
     7
100
AcDbLine
 10
688.0594276980525
 20
1155.094343605664
 30
0.0
 11
688.0745570667056
 21
1155.112977814087
 31
0.0
  0
LINE
  5
5D6
330
22
100
AcDbEntity
  8
_4-7_
  6
Continuous
 62
     7
100
AcDbLine
 10
688.0745570667056
 20
1155.112977814087
 30
0.0
 11
688.0865133885213
 21
1155.13421729667
 31
0.0
  0
LINE
  5
5D7
330
22
100
AcDbEntity
  8
_4-7_
  6
Continuous
 62
     7
100
AcDbLine
 10
688.0865133885213
 20
1155.13421729667
 30
0.0
 11
688.0949333767114
 21
1155.157416702483
 31
0.0
  0
LINE
  5
5D8
330
22
100
AcDbEntity
  8
_4-7_
  6
Continuous
 62
     7
100
AcDbLine
 10
688.0949333767114
 20
1155.157416702483
 30
0.0
 11
688.0995611941955
 21
1155.181871129319
 31
0.0
  0
LINE
  5
5D9
330
22
100
AcDbEntity
  8
_4-7_
  6
Continuous
 62
     7
100
AcDbLine
 10
688.0995611941955
 20
1155.181871129319
 30
0.0
 11
688.1002562270813
 21
1155.206837541793
 31
0.0
  0
LINE
  5
5DA
330
22
100
AcDbEntity
  8
_4-7_
  6
Continuous
 62
     7
100
AcDbLine
 10
688.1002562270813
 20
1155.206837541793
 30
0.0
 11
688.0997376326682
 21
1155.213843706059
 31
0.0
  0
LINE
  5
5DB
330
22
100
AcDbEntity
  8
_4-7_
  6
Continuous
 62
     7
100
AcDbLine
 10
688.0057335296745
 20
1154.080071776933
 30
0.0
 11
688.0057335296745
 21
1154.080071776933
 31
0.0
  0
LINE
  5
5DC
330
22
100
AcDbEntity
  8
_4-7_
  6
Continuous
 62
     7
100
AcDbLine
 10
688.0057335296745
 20
1154.080071776933
 30
0.0
 11
688.0226997396365
 21
1154.083256663713
 31
0.0
  0
LINE
  5
5DD
330
22
100
AcDbEntity
  8
_4-7_
  6
Continuous
 62
     7
100
AcDbLine
 10
688.0226997396365
 20
1154.083256663713
 30
0.0
 11
688.0389051547812
 21
1154.089632208595
 31
0.0
  0
LINE
  5
5DE
330
22
100
AcDbEntity
  8
_4-7_
  6
Continuous
 62
     7
100
AcDbLine
 10
688.0389051547812
 20
1154.089632208595
 30
0.0
 11
688.0538573817703
 21
1154.099004693874
 31
0.0
  0
LINE
  5
5DF
330
22
100
AcDbEntity
  8
_4-7_
  6
Continuous
 62
     7
100
AcDbLine
 10
688.0538573817703
 20
1154.099004693874
 30
0.0
 11
688.0671021047528
 21
1154.111089341327
 31
0.0
  0
LINE
  5
5E0
330
22
100
AcDbEntity
  8
_4-7_
  6
Continuous
 62
     7
100
AcDbLine
 10
688.0671021047528
 20
1154.111089341327
 30
0.0
 11
688.0782368895227
 21
1154.125518965057
 31
0.0
  0
LINE
  5
5E1
330
22
100
AcDbEntity
  8
_4-7_
  6
Continuous
 62
     7
100
AcDbLine
 10
688.0782368895227
 20
1154.125518965057
 30
0.0
 11
688.0869234112796
 21
1154.141855128248
 31
0.0
  0
LINE
  5
5E2
330
22
100
AcDbEntity
  8
_4-7_
  6
Continuous
 62
     7
100
AcDbLine
 10
688.0869234112796
 20
1154.141855128248
 30
0.0
 11
688.0928977344556
 21
1154.159601464848
 31
0.0
  0
LINE
  5
5E3
330
22
100
AcDbEntity
  8
_4-7_
  6
Continuous
 62
     7
100
AcDbLine
 10
688.0928977344556
 20
1154.159601464848
 30
0.0
 11
688.0959783322635
 21
1154.1782187614
 31
0.0
  0
LINE
  5
5E4
330
22
100
AcDbEntity
  8
_4-7_
  6
Continuous
 62
     7
100
AcDbLine
 10
688.0959783322635
 20
1154.1782187614
 30
0.0
 11
688.0960716022987
 21
1154.197141340768
 31
0.0
  0
LINE
  5
5E5
330
22
100
AcDbEntity
  8
_4-7_
  6
Continuous
 62
     7
100
AcDbLine
 10
688.0960716022987
 20
1154.197141340768
 30
0.0
 11
688.0931747105977
 21
1154.215794249954
 31
0.0
  0
LINE
  5
5E6
330
22
100
AcDbEntity
  8
_4-7_
  6
Continuous
 62
     7
100
AcDbLine
 10
688.0931747105977
 20
1154.215794249954
 30
0.0
 11
688.0873756777491
 21
1154.233610729752
 31
0.0
  0
LINE
  5
5E7
330
22
100
AcDbEntity
  8
_4-7_
  6
Continuous
 62
     7
100
AcDbLine
 10
688.0873756777491
 20
1154.233610729752
 30
0.0
 11
688.0788507044315
 21
1154.250049435437
 31
0.0
  0
LINE
  5
5E8
330
22
100
AcDbEntity
  8
_4-7_
  6
Continuous
 62
     7
100
AcDbLine
 10
688.0788507044315
 20
1154.250049435437
 30
0.0
 11
688.0787985208334
 21
1154.250132240601
 31
0.0
  0
LINE
  5
5E9
330
22
100
AcDbEntity
  8
_4-7_
  6
Continuous
 62
     7
100
AcDbLine
 10
687.816290560924
 20
1158.975905107245
 30
0.0
 11
687.816290560924
 21
1158.975905107245
 31
0.0
  0
LINE
  5
5EA
330
22
100
AcDbEntity
  8
_4-7_
  6
Continuous
 62
     7
100
AcDbLine
 10
687.816290560924
 20
1158.975905107245
 30
0.0
 11
687.8689942051704
 21
1158.98356758015
 31
0.0
  0
LINE
  5
5EB
330
22
100
AcDbEntity
  8
_4-7_
  6
Continuous
 62
     7
100
AcDbLine
 10
687.8689942051704
 20
1158.98356758015
 30
0.0
 11
687.9196869060816
 21
1159.001175371842
 31
0.0
  0
LINE
  5
5EC
330
22
100
AcDbEntity
  8
_4-7_
  6
Continuous
 62
     7
100
AcDbLine
 10
687.9196869060816
 20
1159.001175371842
 30
0.0
 11
687.9668283915931
 21
1159.02819347848
 31
0.0
  0
LINE
  5
5ED
330
22
100
AcDbEntity
  8
_4-7_
  6
Continuous
 62
     7
100
AcDbLine
 10
687.9668283915931
 20
1159.02819347848
 30
0.0
 11
688.0089862915217
 21
1159.063800968567
 31
0.0
  0
LINE
  5
5EE
330
22
100
AcDbEntity
  8
_4-7_
  6
Continuous
 62
     7
100
AcDbLine
 10
688.0089862915217
 20
1159.063800968567
 30
0.0
 11
688.0448796594113
 21
1159.106915926534
 31
0.0
  0
LINE
  5
5EF
330
22
100
AcDbEntity
  8
_4-7_
  6
Continuous
 62
     7
100
AcDbLine
 10
688.0448796594113
 20
1159.106915926534
 30
0.0
 11
688.0734178934416
 21
1159.1562283262
 31
0.0
  0
LINE
  5
5F0
330
22
100
AcDbEntity
  8
_4-7_
  6
Continuous
 62
     7
100
AcDbLine
 10
688.0734178934416
 20
1159.1562283262
 30
0.0
 11
688.0937338738124
 21
1159.210239835255
 31
0.0
  0
LINE
  5
5F1
330
22
100
AcDbEntity
  8
_4-7_
  6
Continuous
 62
     7
100
AcDbLine
 10
688.0937338738124
 20
1159.210239835255
 30
0.0
 11
688.1052103097403
 21
1159.267309341327
 31
0.0
  0
LINE
  5
5F2
330
22
100
AcDbEntity
  8
_4-7_
  6
Continuous
 62
     7
100
AcDbLine
 10
688.1052103097403
 20
1159.267309341327
 30
0.0
 11
688.1074984955278
 21
1159.325702816354
 31
0.0
  0
LINE
  5
5F3
330
22
100
AcDbEntity
  8
_4-7_
  6
Continuous
 62
     7
100
AcDbLine
 10
688.1074984955278
 20
1159.325702816354
 30
0.0
 11
688.1005289058069
 21
1159.383646004145
 31
0.0
  0
LINE
  5
5F4
330
22
100
AcDbEntity
  8
_4-7_
  6
Continuous
 62
     7
100
AcDbLine
 10
688.1005289058069
 20
1159.383646004145
 30
0.0
 11
688.0845133080344
 21
1159.439378330259
 31
0.0
  0
LINE
  5
5F5
330
22
100
AcDbEntity
  8
_4-7_
  6
Continuous
 62
     7
100
AcDbLine
 10
688.0845133080344
 20
1159.439378330259
 30
0.0
 11
688.0599383280451
 21
1159.491206396169
 31
0.0
  0
LINE
  5
5F6
330
22
100
AcDbEntity
  8
_4-7_
  6
Continuous
 62
     7
100
AcDbLine
 10
688.0599383280451
 20
1159.491206396169
 30
0.0
 11
688.0275506641697
 21
1159.537555432319
 31
0.0
  0
LINE
  5
5F7
330
22
100
AcDbEntity
  8
_4-7_
  6
Continuous
 62
     7
100
AcDbLine
 10
688.0275506641697
 20
1159.537555432319
 30
0.0
 11
687.9883343991865
 21
1159.577017146699
 31
0.0
  0
LINE
  5
5F8
330
22
100
AcDbEntity
  8
_4-7_
  6
Continuous
 62
     7
100
AcDbLine
 10
687.9883343991865
 20
1159.577017146699
 30
0.0
 11
687.9434810994625
 21
1159.608392515088
 31
0.0
  0
LINE
  5
5F9
330
22
100
AcDbEntity
  8
_4-7_
  6
Continuous
 62
     7
100
AcDbLine
 10
687.9434810994625
 20
1159.608392515088
 30
0.0
 11
687.8943536098129
 21
1159.630728212791
 31
0.0
  0
LINE
  5
5FA
330
22
100
AcDbEntity
  8
_4-7_
  6
Continuous
 62
     7
100
AcDbLine
 10
687.8943536098129
 20
1159.630728212791
 30
0.0
 11
687.8424446441511
 21
1159.643345580938
 31
0.0
  0
LINE
  5
5FB
330
22
100
AcDbEntity
  8
_4-7_
  6
Continuous
 62
     7
100
AcDbLine
 10
687.8424446441511
 20
1159.643345580938
 30
0.0
 11
687.816290560924
 21
1159.645861247182
 31
0.0
  0
LINE
  5
5FC
330
22
100
AcDbEntity
  8
_4-7_
  6
Continuous
 62
     7
100
AcDbLine
 10
687.816290560924
 20
1163.871738437558
 30
0.0
 11
687.816290560924
 21
1163.871738437558
 31
0.0
  0
LINE
  5
5FD
330
22
100
AcDbEntity
  8
_4-7_
  6
Continuous
 62
     7
100
AcDbLine
 10
687.816290560924
 20
1163.871738437558
 30
0.0
 11
687.8689942051704
 21
1163.879400910463
 31
0.0
  0
LINE
  5
5FE
330
22
100
AcDbEntity
  8
_4-7_
  6
Continuous
 62
     7
100
AcDbLine
 10
687.8689942051704
 20
1163.879400910463
 30
0.0
 11
687.9196869060816
 21
1163.897008702155
 31
0.0
  0
LINE
  5
5FF
330
22
100
AcDbEntity
  8
_4-7_
  6
Continuous
 62
     7
100
AcDbLine
 10
687.9196869060816
 20
1163.897008702155
 30
0.0
 11
687.9668283915931
 21
1163.924026808794
 31
0.0
  0
LINE
  5
600
330
22
100
AcDbEntity
  8
_4-7_
  6
Continuous
 62
     7
100
AcDbLine
 10
687.9668283915931
 20
1163.924026808794
 30
0.0
 11
688.0089862915217
 21
1163.95963429888
 31
0.0
  0
LINE
  5
601
330
22
100
AcDbEntity
  8
_4-7_
  6
Continuous
 62
     7
100
AcDbLine
 10
688.0089862915217
 20
1163.95963429888
 30
0.0
 11
688.0448796594113
 21
1164.002749256847
 31
0.0
  0
LINE
  5
602
330
22
100
AcDbEntity
  8
_4-7_
  6
Continuous
 62
     7
100
AcDbLine
 10
688.0448796594113
 20
1164.002749256847
 30
0.0
 11
688.0734178934416
 21
1164.052061656513
 31
0.0
  0
LINE
  5
603
330
22
100
AcDbEntity
  8
_4-7_
  6
Continuous
 62
     7
100
AcDbLine
 10
688.0734178934416
 20
1164.052061656513
 30
0.0
 11
688.0937338738124
 21
1164.106073165568
 31
0.0
  0
LINE
  5
604
330
22
100
AcDbEntity
  8
_4-7_
  6
Continuous
 62
     7
100
AcDbLine
 10
688.0937338738124
 20
1164.106073165568
 30
0.0
 11
688.1052103097403
 21
1164.163142671641
 31
0.0
  0
LINE
  5
605
330
22
100
AcDbEntity
  8
_4-7_
  6
Continuous
 62
     7
100
AcDbLine
 10
688.1052103097403
 20
1164.163142671641
 30
0.0
 11
688.1074984955278
 21
1164.221536146667
 31
0.0
  0
LINE
  5
606
330
22
100
AcDbEntity
  8
_4-7_
  6
Continuous
 62
     7
100
AcDbLine
 10
688.1074984955278
 20
1164.221536146667
 30
0.0
 11
688.1005289058069
 21
1164.279479334457
 31
0.0
  0
LINE
  5
607
330
22
100
AcDbEntity
  8
_4-7_
  6
Continuous
 62
     7
100
AcDbLine
 10
688.1005289058069
 20
1164.279479334457
 30
0.0
 11
688.0845133080344
 21
1164.335211660572
 31
0.0
  0
LINE
  5
608
330
22
100
AcDbEntity
  8
_4-7_
  6
Continuous
 62
     7
100
AcDbLine
 10
688.0845133080344
 20
1164.335211660572
 30
0.0
 11
688.0599383280451
 21
1164.387039726482
 31
0.0
  0
LINE
  5
609
330
22
100
AcDbEntity
  8
_4-7_
  6
Continuous
 62
     7
100
AcDbLine
 10
688.0599383280451
 20
1164.387039726482
 30
0.0
 11
688.0275506641697
 21
1164.433388762632
 31
0.0
  0
LINE
  5
60A
330
22
100
AcDbEntity
  8
_4-7_
  6
Continuous
 62
     7
100
AcDbLine
 10
688.0275506641697
 20
1164.433388762632
 30
0.0
 11
687.9883343991865
 21
1164.472850477013
 31
0.0
  0
LINE
  5
60B
330
22
100
AcDbEntity
  8
_4-7_
  6
Continuous
 62
     7
100
AcDbLine
 10
687.9883343991865
 20
1164.472850477013
 30
0.0
 11
687.9434810994625
 21
1164.504225845401
 31
0.0
  0
LINE
  5
60C
330
22
100
AcDbEntity
  8
_4-7_
  6
Continuous
 62
     7
100
AcDbLine
 10
687.9434810994625
 20
1164.504225845401
 30
0.0
 11
687.8943536098129
 21
1164.526561543104
 31
0.0
  0
LINE
  5
60D
330
22
100
AcDbEntity
  8
_4-7_
  6
Continuous
 62
     7
100
AcDbLine
 10
687.8943536098129
 20
1164.526561543104
 30
0.0
 11
687.8424446441511
 21
1164.539178911251
 31
0.0
  0
LINE
  5
60E
330
22
100
AcDbEntity
  8
_4-7_
  6
Continuous
 62
     7
100
AcDbLine
 10
687.8424446441511
 20
1164.539178911251
 30
0.0
 11
687.816290560924
 21
1164.541694577496
 31
0.0
  0
LINE
  5
60F
330
22
100
AcDbEntity
  8
_4-7_
  6
Continuous
 62
     7
100
AcDbLine
 10
688.0509731508535
 20
1152.379413883245
 30
0.0
 11
688.0509731508535
 21
1152.379413883245
 31
0.0
  0
LINE
  5
610
330
22
100
AcDbEntity
  8
_4-7_
  6
Continuous
 62
     7
100
AcDbLine
 10
688.0509731508535
 20
1152.379413883245
 30
0.0
 11
688.0475956980873
 21
1152.466448646942
 31
0.0
  0
LINE
  5
611
330
22
100
AcDbEntity
  8
_4-7_
  6
Continuous
 62
     7
100
AcDbLine
 10
688.0475956980873
 20
1152.466448646942
 30
0.0
 11
688.0305227680751
 21
1152.551516362618
 31
0.0
  0
LINE
  5
612
330
22
100
AcDbEntity
  8
_4-7_
  6
Continuous
 62
     7
100
AcDbLine
 10
688.0305227680751
 20
1152.551516362618
 30
0.0
 11
688.0195510676736
 21
1152.585554233995
 31
0.0
  0
LINE
  5
613
330
22
100
AcDbEntity
  8
_4-7_
  6
Continuous
 62
     7
100
AcDbLine
 10
688.7327891546743
 20
1151.129834222274
 30
0.0
 11
688.7327891546743
 21
1151.129834222274
 31
0.0
  0
LINE
  5
614
330
22
100
AcDbEntity
  8
_4-7_
  6
Continuous
 62
     7
100
AcDbLine
 10
688.7327891546743
 20
1151.129834222274
 30
0.0
 11
688.7310255141539
 21
1151.164734343864
 31
0.0
  0
LINE
  5
615
330
22
100
AcDbEntity
  8
_4-7_
  6
Continuous
 62
     7
100
AcDbLine
 10
688.7310255141539
 20
1151.164734343864
 30
0.0
 11
688.7237763344735
 21
1151.198767555024
 31
0.0
  0
LINE
  5
616
330
22
100
AcDbEntity
  8
_4-7_
  6
Continuous
 62
     7
100
AcDbLine
 10
688.7237763344735
 20
1151.198767555024
 30
0.0
 11
688.7112618782891
 21
1151.230899773854
 31
0.0
  0
LINE
  5
617
330
22
100
AcDbEntity
  8
_4-7_
  6
Continuous
 62
     7
100
AcDbLine
 10
688.7112618782891
 20
1151.230899773854
 30
0.0
 11
688.6938623910199
 21
1151.260154679145
 31
0.0
  0
LINE
  5
618
330
22
100
AcDbEntity
  8
_4-7_
  6
Continuous
 62
     7
100
AcDbLine
 10
688.6938623910199
 20
1151.260154679145
 30
0.0
 11
688.6721065472815
 21
1151.285643375403
 31
0.0
  0
LINE
  5
619
330
22
100
AcDbEntity
  8
_4-7_
  6
Continuous
 62
     7
100
AcDbLine
 10
688.6721065472815
 20
1151.285643375403
 30
0.0
 11
688.6466553873772
 21
1151.306591401491
 31
0.0
  0
LINE
  5
61A
330
22
100
AcDbEntity
  8
_4-7_
  6
Continuous
 62
     7
100
AcDbLine
 10
688.6466553873772
 20
1151.306591401491
 30
0.0
 11
688.6182822319214
 21
1151.322362262234
 31
0.0
  0
LINE
  5
61B
330
22
100
AcDbEntity
  8
_4-7_
  6
Continuous
 62
     7
100
AcDbLine
 10
688.6182822319214
 20
1151.322362262234
 30
0.0
 11
688.5878491848856
 21
1151.332476768013
 31
0.0
  0
LINE
  5
61C
330
22
100
AcDbEntity
  8
_4-7_
  6
Continuous
 62
     7
100
AcDbLine
 10
688.5878491848856
 20
1151.332476768013
 30
0.0
 11
688.5562809390036
 21
1151.336627594684
 31
0.0
  0
LINE
  5
61D
330
22
100
AcDbEntity
  8
_4-7_
  6
Continuous
 62
     7
100
AcDbLine
 10
688.5562809390036
 20
1151.336627594684
 30
0.0
 11
688.5245366794528
 21
1151.334688621482
 31
0.0
  0
LINE
  5
61E
330
22
100
AcDbEntity
  8
_4-7_
  6
Continuous
 62
     7
100
AcDbLine
 10
688.5245366794528
 20
1151.334688621482
 30
0.0
 11
688.4935809394958
 21
1151.326718763125
 31
0.0
  0
LINE
  5
61F
330
22
100
AcDbEntity
  8
_4-7_
  6
Continuous
 62
     7
100
AcDbLine
 10
688.4935809394958
 20
1151.326718763125
 30
0.0
 11
688.464354293627
 21
1151.312960179726
 31
0.0
  0
LINE
  5
620
330
22
100
AcDbEntity
  8
_4-7_
  6
Continuous
 62
     7
100
AcDbLine
 10
688.464354293627
 20
1151.312960179726
 30
0.0
 11
688.4377447786918
 21
1151.29383091888
 31
0.0
  0
LINE
  5
621
330
22
100
AcDbEntity
  8
_4-7_
  6
Continuous
 62
     7
100
AcDbLine
 10
688.4377447786918
 20
1151.29383091888
 30
0.0
 11
688.4145609113365
 21
1151.269912213498
 31
0.0
  0
LINE
  5
622
330
22
100
AcDbEntity
  8
_4-7_
  6
Continuous
 62
     7
100
AcDbLine
 10
688.4145609113365
 20
1151.269912213498
 30
0.0
 11
688.3955071216389
 21
1151.24193082134
 31
0.0
  0
LINE
  5
623
330
22
100
AcDbEntity
  8
_4-7_
  6
Continuous
 62
     7
100
AcDbLine
 10
688.3955071216389
 20
1151.24193082134
 30
0.0
 11
688.3811623493572
 21
1151.210736942847
 31
0.0
  0
LINE
  5
624
330
22
100
AcDbEntity
  8
_4-7_
  6
Continuous
 62
     7
100
AcDbLine
 10
688.3811623493572
 20
1151.210736942847
 30
0.0
 11
688.3719624531387
 21
1151.177278388231
 31
0.0
  0
LINE
  5
625
330
22
100
AcDbEntity
  8
_4-7_
  6
Continuous
 62
     7
100
AcDbLine
 10
688.3719624531387
 20
1151.177278388231
 30
0.0
 11
688.3681869671743
 21
1151.142571778746
 31
0.0
  0
LINE
  5
626
330
22
100
AcDbEntity
  8
_4-7_
  6
Continuous
 62
     7
100
AcDbLine
 10
688.3681869671743
 20
1151.142571778746
 30
0.0
 11
688.3681869671743
 21
1151.142571778745
 31
0.0
  0
LINE
  5
627
330
22
100
AcDbEntity
  8
_4-2_
  6
Continuous
 62
     7
100
AcDbLine
 10
663.9998792297581
 20
1179.61954544712
 30
0.0
 11
663.9998792297581
 21
1176.80704544712
 31
0.0
  0
ARC
  5
628
330
22
100
AcDbEntity
  8
_4-2_
  6
Continuous
 62
     7
100
AcDbCircle
 10
659.7402589910905
 20
1181.210095712305
 30
0.0
 40
4.546890665470085
100
AcDbArc
 50
284.4501521415896
 51
339.5242728500532
  0
LINE
  5
629
330
22
100
AcDbEntity
  8
_4-2_
  6
Continuous
 62
     7
100
AcDbLine
 10
663.9998792297581
 20
1176.80704544712
 30
0.0
 11
660.8748792297581
 21
1176.80704544712
 31
0.0
  0
LINE
  5
62A
330
22
100
AcDbEntity
  8
_4-6_
  6
Continuous
 62
     2
100
AcDbLine
 10
658.3905093109217
 20
1180.68204544712
 30
0.0
 11
658.3905093109217
 21
1154.744545447121
 31
0.0
  0
ARC
  5
62B
330
22
100
AcDbEntity
  8
_4-6_
  6
Continuous
 62
     2
100
AcDbCircle
 10
656.8905093109231
 20
1152.71421536123
 30
0.0
 40
0.374999999999993
100
AcDbArc
 50
135.0
 51
315.0
  0
LINE
  5
62C
330
22
100
AcDbEntity
  8
_4-6_
  6
Continuous
 62
     2
100
AcDbLine
 10
658.3905093109217
 20
1154.744545447121
 30
0.0
 11
656.6253442679783
 21
1152.979380404176
 31
0.0
  0
LINE
  5
62D
330
22
100
AcDbEntity
  8
_4-6_
  6
Continuous
 62
     2
100
AcDbLine
 10
659.328009310924
 20
1154.621385275341
 30
0.0
 11
657.1556743538678
 21
1152.449050318287
 31
0.0
  0
LINE
  5
62E
330
22
100
AcDbEntity
  8
_4-6_
  6
Continuous
 62
     2
100
AcDbLine
 10
690.109259310924
 20
1183.494545447121
 30
0.0
 11
689.796759310924
 21
1183.182045447122
 31
0.0
  0
LINE
  5
62F
330
22
100
AcDbEntity
  8
_4-6_
  6
Continuous
 62
     2
100
AcDbLine
 10
689.4842593109217
 20
1183.494545447121
 30
0.0
 11
689.796759310924
 21
1183.182045447122
 31
0.0
  0
LINE
  5
630
330
22
100
AcDbEntity
  8
_4-6_
  6
Continuous
 62
     2
100
AcDbLine
 10
689.4842593109217
 20
1183.494545447121
 30
0.0
 11
686.3592593109217
 21
1183.494545447121
 31
0.0
  0
LINE
  5
631
330
22
100
AcDbEntity
  8
_4-6_
  6
Continuous
 62
     2
100
AcDbLine
 10
684.0155093109217
 20
1180.68204544712
 30
0.0
 11
686.3592593109217
 21
1183.494545447121
 31
0.0
  0
LINE
  5
632
330
22
100
AcDbEntity
  8
_4-6_
  6
Continuous
 62
     2
100
AcDbLine
 10
693.234259310924
 20
1183.494545447121
 30
0.0
 11
690.109259310924
 21
1183.494545447121
 31
0.0
  0
LINE
  5
633
330
22
100
AcDbEntity
  8
_4-6_
  6
Continuous
 62
     2
100
AcDbLine
 10
684.0155093109217
 20
1180.68204544712
 30
0.0
 11
658.3905093109217
 21
1180.68204544712
 31
0.0
  0
LINE
  5
634
330
22
100
AcDbEntity
  8
_4-6_
  6
Continuous
 62
     2
100
AcDbLine
 10
659.328009310924
 20
1161.356220232396
 30
0.0
 11
659.328009310924
 21
1154.621385275341
 31
0.0
  0
ARC
  5
635
330
22
100
AcDbEntity
  8
_4-6_
  6
Continuous
 62
     2
100
AcDbCircle
 10
659.5155093109235
 20
1161.356220232396
 30
0.0
 40
0.1875
100
AcDbArc
 50
45.0
 51
180.0
  0
ARC
  5
636
330
22
100
AcDbEntity
  8
_4-6_
  6
Continuous
 62
     2
100
AcDbCircle
 10
699.8905093109226
 20
1180.744545447121
 30
0.0
 40
0.3749999999999964
100
AcDbArc
 50
270.0
 51
90.0
  0
LINE
  5
637
330
22
100
AcDbEntity
  8
_4-6_
  6
Continuous
 62
     2
100
AcDbLine
 10
698.0780093109217
 20
1179.61954544712
 30
0.0
 11
697.7655093109217
 21
1179.93204544712
 31
0.0
  0
LINE
  5
638
330
22
100
AcDbEntity
  8
_4-6_
  6
Continuous
 62
     2
100
AcDbLine
 10
697.7655093109217
 20
1179.93204544712
 30
0.0
 11
697.4530093109217
 21
1179.61954544712
 31
0.0
  0
LINE
  5
639
330
22
100
AcDbEntity
  8
_4-6_
  6
Continuous
 62
     2
100
AcDbLine
 10
697.4530093109217
 20
1179.61954544712
 30
0.0
 11
697.140509310924
 21
1179.93204544712
 31
0.0
  0
LINE
  5
63A
330
22
100
AcDbEntity
  8
_4-6_
  6
Continuous
 62
     2
100
AcDbLine
 10
697.140509310924
 20
1179.93204544712
 30
0.0
 11
696.828009310924
 21
1179.61954544712
 31
0.0
  0
LINE
  5
63B
330
22
100
AcDbEntity
  8
_4-6_
  6
Continuous
 62
     2
100
AcDbLine
 10
696.828009310924
 20
1179.61954544712
 30
0.0
 11
696.5155093109217
 21
1179.93204544712
 31
0.0
  0
LINE
  5
63C
330
22
100
AcDbEntity
  8
_4-6_
  6
Continuous
 62
     2
100
AcDbLine
 10
696.5155093109217
 20
1179.93204544712
 30
0.0
 11
696.2030093109217
 21
1179.61954544712
 31
0.0
  0
LINE
  5
63D
330
22
100
AcDbEntity
  8
_4-6_
  6
Continuous
 62
     2
100
AcDbLine
 10
698.0780093109217
 20
1179.61954544712
 30
0.0
 11
698.8905093109235
 21
1180.369545447121
 31
0.0
  0
LINE
  5
63E
330
22
100
AcDbEntity
  8
_4-6_
  6
Continuous
 62
     2
100
AcDbLine
 10
696.828009310924
 20
1179.61954544712
 30
0.0
 11
696.5155093109217
 21
1179.93204544712
 31
0.0
  0
LINE
  5
63F
330
22
100
AcDbEntity
  8
_4-6_
  6
Continuous
 62
     2
100
AcDbLine
 10
696.5155093109217
 20
1179.93204544712
 30
0.0
 11
696.2030093109217
 21
1179.61954544712
 31
0.0
  0
LINE
  5
640
330
22
100
AcDbEntity
  8
_4-6_
  6
Continuous
 62
     2
100
AcDbLine
 10
696.828009310924
 20
1179.61954544712
 30
0.0
 11
696.5155093109217
 21
1179.93204544712
 31
0.0
  0
LINE
  5
641
330
22
100
AcDbEntity
  8
_4-6_
  6
Continuous
 62
     2
100
AcDbLine
 10
696.5155093109217
 20
1179.93204544712
 30
0.0
 11
696.2030093109217
 21
1179.61954544712
 31
0.0
  0
LINE
  5
642
330
22
100
AcDbEntity
  8
_4-6_
  6
Continuous
 62
     2
100
AcDbLine
 10
696.2030093109217
 20
1179.61954544712
 30
0.0
 11
695.8905093109217
 21
1179.93204544712
 31
0.0
  0
LINE
  5
643
330
22
100
AcDbEntity
  8
_4-6_
  6
Continuous
 62
     2
100
AcDbLine
 10
699.8905093109226
 20
1180.369545447121
 30
0.0
 11
698.8905093109235
 21
1180.369545447121
 31
0.0
  0
LINE
  5
644
330
22
100
AcDbEntity
  8
_4-6_
  6
Continuous
 62
     2
100
AcDbLine
 10
695.7581722085582
 20
1179.799708344755
 30
0.0
 11
695.639219943929
 21
1179.680756080127
 31
0.0
  0
LINE
  5
645
330
22
100
AcDbEntity
  8
_4-6_
  6
Continuous
 62
     2
100
AcDbLine
 10
695.8905093109217
 20
1179.93204544712
 30
0.0
 11
695.4664636793142
 21
1179.50799981551
 31
0.0
  0
LINE
  5
646
330
22
100
AcDbEntity
  8
_4-6_
  6
Continuous
 62
     2
100
AcDbLine
 10
699.8905093109226
 20
1181.119545447121
 30
0.0
 11
695.2134259775893
 21
1181.119545447121
 31
0.0
  0
ARC
  5
647
330
22
100
AcDbEntity
  8
_4-6_
  6
Continuous
 62
     2
100
AcDbCircle
 10
689.796759310924
 20
1175.619545447121
 30
0.0
 40
6.875
100
AcDbArc
 50
34.44350562282312
 51
144.4214742675413
  0
LINE
  5
648
330
22
100
AcDbEntity
  8
_4-6_
  6
Continuous
 62
     2
100
AcDbLine
 10
693.234259310924
 20
1183.494545447121
 30
0.0
 11
695.2134259775893
 21
1181.119545447121
 31
0.0
  0
LINE
  5
649
330
22
100
AcDbEntity
  8
_4-6_
  6
Continuous
 62
     2
100
AcDbLine
 10
659.328009310924
 20
1162.869545447122
 30
0.0
 11
660.7549253720378
 21
1161.442629386004
 31
0.0
  0
ARC
  5
64A
330
22
100
AcDbEntity
  8
_4-6_
  6
Continuous
 62
     2
100
AcDbCircle
 10
660.4897603290929
 20
1161.177464343061
 30
0.0
 40
0.3749999999999992
100
AcDbArc
 50
224.9999999999981
 51
44.99999999999807
  0
LINE
  5
64B
330
22
100
AcDbEntity
  8
_4-6_
  6
Continuous
 62
     2
100
AcDbLine
 10
659.6480918323947
 20
1161.488802753869
 30
0.0
 11
660.224595286146
 21
1160.912299300115
 31
0.0
  0
LINE
  5
64C
330
22
100
AcDbEntity
  8
_4-6_
  6
Continuous
 62
     2
100
AcDbLine
 10
659.328009310924
 20
1179.61954544712
 30
0.0
 11
684.2051919993367
 21
1179.61954544712
 31
0.0
  0
LINE
  5
64D
330
22
100
AcDbEntity
  8
_4-6_
  6
Continuous
 62
     2
100
AcDbLine
 10
659.328009310924
 20
1179.61954544712
 30
0.0
 11
659.328009310924
 21
1162.869545447122
 31
0.0
  0
ARC
  5
64E
330
22
100
AcDbEntity
  8
_4-7_
  6
Continuous
 62
     7
100
AcDbCircle
 10
689.796759310924
 20
1183.494545447121
 30
0.0
 40
2.069499895611049
100
AcDbArc
 50
0.0
 51
180.0
  0
LINE
  5
64F
330
22
100
AcDbEntity
  8
_4-7_
  6
Continuous
 62
     7
100
AcDbLine
 10
691.8662592065344
 20
1183.494545447121
 30
0.0
 11
687.7272594153136
 21
1183.494545447121
 31
0.0
  0
LINE
  5
650
330
22
100
AcDbEntity
  8
_4-7_
  6
Continuous
 62
     7
100
AcDbLine
 10
691.046759310924
 20
1183.494545447121
 30
0.0
 11
691.046759310924
 21
1176.80704544712
 31
0.0
  0
LINE
  5
651
330
22
100
AcDbEntity
  8
_4-7_
  6
Continuous
 62
     7
100
AcDbLine
 10
688.546759310924
 20
1183.494545447121
 30
0.0
 11
688.546759310924
 21
1176.80704544712
 31
0.0
  0
LINE
  5
652
330
22
100
AcDbEntity
  8
_4-D_
  6
Continuous
 62
     4
100
AcDbLine
 10
693.5002369319078
 20
1179.61954544712
 30
0.0
 11
694.5075958894801
 21
1180.626904404695
 31
0.0
  0
LINE
  5
653
330
22
100
AcDbEntity
  8
_4-D_
  6
Continuous
 62
     4
100
AcDbLine
 10
691.2905282407052
 20
1179.61954544712
 30
0.0
 11
693.2407188183958
 21
1181.569736024814
 31
0.0
  0
LINE
  5
654
330
22
100
AcDbEntity
  8
_4-D_
  6
Continuous
 62
     4
100
AcDbLine
 10
684.6614021670744
 20
1179.619545447122
 30
0.0
 11
686.8931495367189
 21
1181.851292816767
 31
0.0
  0
LINE
  5
655
330
22
100
AcDbEntity
  8
_4-D_
  6
Continuous
 62
     4
100
AcDbLine
 10
686.8711108582863
 20
1179.61954544712
 30
0.0
 11
688.546759310924
 21
1181.295193899756
 31
0.0
  0
LINE
  5
656
330
22
100
AcDbEntity
  8
_4-D_
  6
Continuous
 62
     4
100
AcDbLine
 10
691.046759310924
 20
1181.585485208554
 30
0.0
 11
691.6899999097735
 21
1182.228725807405
 31
0.0
  0
LINE
  5
657
330
22
100
AcDbEntity
  8
_4-2_
  6
Continuous
 62
     7
100
AcDbLine
 10
684.2051919993367
 20
1179.61954544712
 30
0.0
 11
688.546759310924
 21
1179.61954544712
 31
0.0
  0
LINE
  5
658
330
22
100
AcDbEntity
  8
_4-2_
  6
Continuous
 62
     7
100
AcDbLine
 10
691.046759310924
 20
1179.61954544712
 30
0.0
 11
695.3883266225091
 21
1179.61954544712
 31
0.0
  0
LINE
  5
659
330
22
100
AcDbEntity
  8
_4-2_
  6
Continuous
 62
     7
100
AcDbLine
 10
660.8748792297581
 20
1176.80704544712
 30
0.0
 11
660.8748792297581
 21
1161.265927498702
 31
0.0
  0
LINE
  5
65A
330
22
100
AcDbEntity
  8
_4-2_
  6
RAND5
 62
     1
100
AcDbLine
 10
679.6248792297581
 20
1176.80704544712
 30
0.0
 11
663.9998792297581
 21
1176.80704544712
 31
0.0
  0
LINE
  5
65B
330
22
100
AcDbEntity
  8
_4-D_
  6
Continuous
 62
     4
100
AcDbLine
 10
661.1547097483878
 20
1176.888806115567
 30
0.0
 11
661.2364704168351
 21
1176.807045447119
 31
0.0
  0
LINE
  5
65C
330
22
100
AcDbEntity
  8
_4-D_
  6
Continuous
 62
     4
100
AcDbLine
 10
661.7806692927628
 20
1177.146730047671
 30
0.0
 11
662.120353893316
 21
1176.807045447119
 31
0.0
  0
LINE
  5
65D
330
22
100
AcDbEntity
  8
_4-D_
  6
Continuous
 62
     4
100
AcDbLine
 10
662.3350138327224
 20
1177.476268984196
 30
0.0
 11
663.0042373697995
 21
1176.80704544712
 31
0.0
  0
LINE
  5
65E
330
22
100
AcDbEntity
  8
_4-D_
  6
Continuous
 62
     4
100
AcDbLine
 10
662.8252691938463
 20
1177.869897099557
 30
0.0
 11
663.8881208462828
 21
1176.807045447119
 31
0.0
  0
LINE
  5
65F
330
22
100
AcDbEntity
  8
_4-D_
  6
Continuous
 62
     4
100
AcDbLine
 10
663.254339792944
 20
1178.324709976944
 30
0.0
 11
663.9998792297603
 21
1177.579170540128
 31
0.0
  0
LINE
  5
660
330
22
100
AcDbEntity
  8
_4-D_
  6
Continuous
 62
     4
100
AcDbLine
 10
663.6214696855392
 20
1178.841463560828
 30
0.0
 11
663.9998792297581
 21
1178.463054016608
 31
0.0
  0
LINE
  5
661
330
22
100
AcDbEntity
  8
_4-D_
  6
Continuous
 62
     4
100
AcDbLine
 10
663.9220029988121
 20
1179.424813724041
 30
0.0
 11
663.9998792297581
 21
1179.346937493093
 31
0.0
  0
LINE
  5
662
330
22
100
AcDbEntity
  8
_4-4_
  6
Continuous
 62
     2
100
AcDbLine
 10
698.4165509775892
 20
1179.932045447119
 30
0.0
 11
748.3748792297581
 21
1179.932045447119
 31
0.0
  0
TEXT
  5
663
330
22
100
AcDbEntity
  8
_4-A_
 62
     7
100
AcDbText
 10
783.6148938658571
 20
1296.925408856414
 30
0.0
 40
15.0
  1
ロンシーラントＬ
100
AcDbText
  0
LINE
  5
664
330
22
100
AcDbEntity
  8
_4-2_
  6
Continuous
 62
     7
100
AcDbLine
 10
679.2348688524874
 20
1176.807045447119
 30
0.0
 11
748.3748792297581
 21
1176.807045447119
 31
0.0
  0
LINE
  5
665
330
22
100
AcDbEntity
  8
_4-A_
  6
Continuous
 62
     7
100
AcDbLine
 10
672.9755589147193
 20
1176.807045447119
 30
0.0
 11
746.656055382615
 21
1304.425408856414
 31
0.0
  0
LINE
  5
666
330
22
100
AcDbEntity
  8
_4-A_
  6
Continuous
 62
     7
100
AcDbLine
 10
773.6148938658572
 20
1304.425408856414
 30
0.0
 11
736.2550808104868
 21
1304.425408856414
 31
0.0
  0
LINE
  5
667
330
22
100
AcDbEntity
  8
_4-A_
  6
Continuous
 62
     7
100
AcDbLine
 10
663.5643914374496
 20
1178.521441625116
 30
0.0
 11
736.2550808104868
 21
1304.425408856414
 31
0.0
  0
ENDSEC
  0
SECTION
  2
OBJECTS
  0
DICTIONARY
  5
C
330
0
100
AcDbDictionary
281
     1
  3
ACAD_COLOR
350
1B
  3
ACAD_GROUP
350
D
  3
ACAD_LAYOUT
350
19
  3
ACAD_MATERIAL
350
1A
  3
ACAD_MLINESTYLE
350
16
  3
ACAD_PLOTSETTINGS
350
18
  3
ACAD_PLOTSTYLENAME
350
E
  3
ACAD_TABLESTYLE
350
1C
  3
ACDBHEADERROUNDTRIPXREC
350
66F
  3
AcDbVariableDictionary
350
66A
  0
DICTIONARY
  5
1B
102
{ACAD_REACTORS
330
C
102
}
330
C
100
AcDbDictionary
281
     1
  0
DICTIONARY
  5
D
102
{ACAD_REACTORS
330
C
102
}
330
C
100
AcDbDictionary
281
     1
  0
DICTIONARY
  5
19
102
{ACAD_REACTORS
330
C
102
}
330
C
100
AcDbDictionary
281
     1
  3
Model
350
25
  3
レイアウト1
350
21
  0
DICTIONARY
  5
1A
102
{ACAD_REACTORS
330
C
102
}
330
C
100
AcDbDictionary
281
     1
  0
DICTIONARY
  5
16
102
{ACAD_REACTORS
330
C
102
}
330
C
100
AcDbDictionary
281
     1
  3
Standard
350
17
  0
DICTIONARY
  5
18
102
{ACAD_REACTORS
330
C
102
}
330
C
100
AcDbDictionary
281
     1
  0
ACDBDICTIONARYWDFLT
  5
E
102
{ACAD_REACTORS
330
C
102
}
330
C
100
AcDbDictionary
281
     1
  3
Normal
350
F
100
AcDbDictionaryWithDefault
340
F
  0
DICTIONARY
  5
1C
102
{ACAD_REACTORS
330
C
102
}
330
C
100
AcDbDictionary
281
     1
  3
Standard
350
1D
  0
DICTIONARY
  5
66F
102
{ACAD_REACTORS
330
C
102
}
330
C
100
AcDbDictionary
281
     1
  0
DICTIONARY
  5
66A
102
{ACAD_REACTORS
330
C
102
}
330
C
100
AcDbDictionary
281
     1
  3
CTABLESTYLE
350
66B
  3
DIMASSOC
350
66C
  3
PROJECTNAME
350
66D
  0
LAYOUT
  5
25
102
{ACAD_XDICTIONARY
360
672
102
}
102
{ACAD_REACTORS
330
19
102
}
330
19
100
AcDbPlotSettings
  1

  2
PC1665
  4

  6

 40
0.0
 41
0.0
 42
0.0
 43
0.0
 44
0.0
 45
0.0
 46
0.0
 47
0.0
 48
0.0
 49
0.0
140
0.0
141
0.0
142
1.0
143
1.0
 70
  1712
 72
     0
 73
     0
 74
     0
  7

 75
     0
147
1.0
148
0.0
149
0.0
100
AcDbLayout
  1
Model
 70
     1
 71
     0
 10
0.0
 20
0.0
 11
12.0
 21
9.0
 12
0.0
 22
0.0
 32
0.0
 14
0.0
 24
0.0
 34
0.0
 15
0.0
 25
0.0
 35
0.0
146
0.0
 13
0.0
 23
0.0
 33
0.0
 16
1.0
 26
0.0
 36
0.0
 17
0.0
 27
1.0
 37
0.0
 76
     0
330
22
  0
LAYOUT
  5
21
102
{ACAD_XDICTIONARY
360
670
102
}
102
{ACAD_REACTORS
330
19
102
}
330
19
100
AcDbPlotSettings
  1

  2
PC1665
  4

  6

 40
0.0
 41
0.0
 42
0.0
 43
0.0
 44
0.0
 45
0.0
 46
0.0
 47
0.0
 48
0.0
 49
0.0
140
0.0
141
0.0
142
1.0
143
1.0
 70
   688
 72
     0
 73
     0
 74
     5
  7

 75
    16
147
1.0
148
0.0
149
0.0
100
AcDbLayout
  1
レイアウト1
 70
     1
 71
     1
 10
0.0
 20
0.0
 11
12.0
 21
9.0
 12
0.0
 22
0.0
 32
0.0
 14
1.000000000000000E+20
 24
1.000000000000000E+20
 34
1.000000000000000E+20
 15
-1.000000000000000E+20
 25
-1.000000000000000E+20
 35
-1.000000000000000E+20
146
0.0
 13
0.0
 23
0.0
 33
0.0
 16
1.0
 26
0.0
 36
0.0
 17
0.0
 27
1.0
 37
0.0
 76
     0
330
1E
  0
MLINESTYLE
  5
17
102
{ACAD_REACTORS
330
16
102
}
330
16
100
AcDbMlineStyle
  2
STANDARD
 70
     0
  3

 62
   256
 51
90.0
 52
90.0
 71
     2
 49
0.5
 62
   256
  6
BYLAYER
 49
-0.5
 62
   256
  6
BYLAYER
  0
ACDBPLACEHOLDER
  5
F
102
{ACAD_REACTORS
330
E
102
}
330
E
  0
TABLESTYLE
  5
1D
102
{ACAD_REACTORS
330
1C
102
}
330
1C
100
AcDbTableStyle
  3
Standard
 70
     0
 71
     0
 40
0.06
 41
0.06
280
     0
281
     0
  7
STANDARD
140
0.18
170
     2
 62
     0
 63
     7
283
     0
274
    -2
284
     1
 64
     0
275
    -2
285
     1
 65
     0
276
    -2
286
     1
 66
     0
277
    -2
287
     1
 67
     0
278
    -2
288
     1
 68
     0
279
    -2
289
     1
 69
     0
  7
STANDARD
140
0.25
170
     5
 62
     0
 63
     7
283
     0
274
    -2
284
     1
 64
     0
275
    -2
285
     1
 65
     0
276
    -2
286
     1
 66
     0
277
    -2
287
     1
 67
     0
278
    -2
288
     1
 68
     0
279
    -2
289
     1
 69
     0
  7
STANDARD
140
0.18
170
     5
 62
     0
 63
     7
283
     0
274
    -2
284
     1
 64
     0
275
    -2
285
     1
 65
     0
276
    -2
286
     1
 66
     0
277
    -2
287
     1
 67
     0
278
    -2
288
     1
 68
     0
279
    -2
289
     1
 69
     0
  0
DICTIONARYVAR
  5
66B
102
{ACAD_REACTORS
330
66A
102
}
330
66A
100
DictionaryVariables
280
     0
  1
STANDARD
  0
DICTIONARYVAR
  5
66C
102
{ACAD_REACTORS
330
66A
102
}
330
66A
100
DictionaryVariables
280
     0
  1
1
  0
DICTIONARYVAR
  5
66D
102
{ACAD_REACTORS
330
66A
102
}
330
66A
100
DictionaryVariables
280
     0
  1

  0
DICTIONARY
  5
672
330
25
100
AcDbDictionary
280
     1
281
     1
  3
ACAD_XREC_ROUNDTRIP
360
673
  0
DICTIONARY
  5
670
330
21
100
AcDbDictionary
280
     1
281
     1
  3
ACAD_XREC_ROUNDTRIP
360
671
  0
XRECORD
  5
673
102
{ACAD_REACTORS
330
672
102
}
330
672
100
AcDbXrecord
280
     1
102
SHADEPLOT
 70
     0
102
SHADEPLOTRESLEVEL
 70
     2
102
SHADEPLOTCUSTOMDPI
 70
   300
  0
XRECORD
  5
671
102
{ACAD_REACTORS
330
670
102
}
330
670
100
AcDbXrecord
280
     1
102
SHADEPLOT
 70
     0
102
SHADEPLOTRESLEVEL
 70
     2
102
SHADEPLOTCUSTOMDPI
 70
   300
  0
ENDSEC
  0
EOF
