  0
SECTION
  2
HEADER
  9
$ACADVER
  1
AC1009
  9
$INSBASE
 10
0
 20
0
 30
0
  9
$EXTMIN
 10
0
 20
0
  9
$EXTMAX
 10
2100
 20
1485
  9
$LIMMIN
 10
0
 20
0
  9
$LIMMAX
 10
2100
 20
1485
  9
$LTSCALE
 40
5
  0
ENDSEC
  0
SECTION
  2
TABLES
  0
TABLE
  2
LTYPE
 70
     9
  0
LTYPE
  2
CONTINUOUS
 70
    64
  3
実線
 72
    65
 73
     0
 40
0.0
  0
LTYPE
  2
DASHED1
 70
    64
  3
--  --  --  --  --  --  --  --  
 72
    65
 73
     2
 40
2.5
 49
1.25
 49
-1.25
  0
LTYPE
  2
DASHED2
 70
    64
  3
----    ----    ----    ----    
 72
    65
 73
     2
 40
5.0
 49
2.5
 49
-2.5
  0
LTYPE
  2
DASHED3
 70
    64
  3
------  ------  ------  ------  
 72
    65
 73
     2
 40
5.0
 49
3.75
 49
-1.25
  0
LTYPE
  2
CENTER1
 70
    64
  3
----- - ----- - ----- - ----- - 
 72
    65
 73
     4
 40
10.0
 49
6.25
 49
-1.25
 49
1.25
 49
-1.25
  0
LTYPE
  2
CENTER2
 70
    64
  3
----------  --  ----------  --  
 72
    65
 73
     4
 40
20.0
 49
12.5
 49
-2.5
 49
2.5
 49
-2.5
  0
LTYPE
  2
PHANTOM1
 70
    64
  3
--- - - --- - - --- - - --- - - 
 72
    65
 73
     6
 40
10.0
 49
3.25
 49
-1.25
 49
1.25
 49
-1.25
 49
1.25
 49
-1.25
  0
LTYPE
  2
PHANTOM2
 70
    64
  3
--------  -  -  --------  -  -  
 72
    65
 73
     6
 40
20.0
 49
10.0
 49
-2.5
 49
1.25
 49
-2.5
 49
1.25
 49
-2.5
  0
LTYPE
  2
DOT
 70
    64
  3
-   -   -   -   -   -   -   -   
 72
    65
 73
     2
 40
2.5
 49
0.625
 49
-1.875
  0
LTYPE
  2
DUMMY
 70
    64
  3
ダミー
 72
    65
 73
     0
 40
0.0
  0
LTYPE
  2
RAND1
 70
    64
  3
ランダム線1
 72
    65
 73
     4
 40
10.0
 49
1.0
 49
-2.0
 49
3.0
 49
-4.0
  0
LTYPE
  2
RAND2
 70
    64
  3
ランダム線2
 72
    65
 73
     4
 40
14.0
 49
2.0
 49
-3.0
 49
4.0
 49
-5.0
  0
LTYPE
  2
RAND3
 70
    64
  3
ランダム線3
 72
    65
 73
     4
 40
18.0
 49
3.0
 49
-4.0
 49
5.0
 49
-6.0
  0
LTYPE
  2
RAND4
 70
    64
  3
ランダム線4
 72
    65
 73
     4
 40
22.0
 49
4.0
 49
-5.0
 49
6.0
 49
-7.0
  0
LTYPE
  2
RAND5
 70
    64
  3
ランダム線5
 72
    65
 73
     4
 40
26.0
 49
5.0
 49
-6.0
 49
7.0
 49
-8.0
  0
LTYPE
  2
LONG1
 70
    64
  3
----------  --  ----------  --  
 72
    65
 73
     4
 40
40.0
 49
32.5
 49
-2.5
 49
2.5
 49
-2.5
  0
LTYPE
  2
LONG2
 70
    64
  3
--------  -  -  --------  -  -  
 72
    65
 73
     6
 40
40.0
 49
30.0
 49
-2.5
 49
1.25
 49
-2.5
 49
1.25
 49
-2.5
  0
LTYPE
  2
LONG3
 70
    64
  3
+++++++++++++++..+++++++++++++++
 72
    65
 73
     2
 40
40.0
 49
37.5
 49
-2.5
  0
LTYPE
  2
LONG4
 70
    64
  3
+++++++++++++++..+++++++++++++++
 72
    65
 73
     2
 40
80.0
 49
75.0
 49
-5.0
  0
LTYPE
  2
LONG5
 70
    64
  3
----------  --  ----------  --  
 72
    65
 73
     4
 40
60.0
 49
37.5
 49
-7.5
 49
7.5
 49
-7.5
  0
LTYPE
  2
dashed
 70
   64
  3
-------   -------------   ------
 72
   65
 73
    2
 40
7.5
 49
6
 49
-1.5
  0
LTYPE
  2
dashed_spaced
 70
   64
  3
----        --------        ----
 72
   65
 73
    2
 40
12
 49
6
 49
-6
  0
LTYPE
  2
long_dashed_dotted
 70
   64
  3
------------- --- --------------
 72
   65
 73
    4
 40
15.25
 49
12
 49
-1.5
 49
0.25
 49
-1.5
  0
LTYPE
  2
long_dashed_double-dotted
 70
   64
  3
----------- --- --- ------------
 72
   65
 73
    6
 40
17
 49
12
 49
-1.5
 49
0.25
 49
-1.5
 49
0.25
 49
-1.5
  0
LTYPE
  2
long_dashed_triplicate-dotted
 70
   64
  3
--------- --- --- --- ----------
 72
   65
 73
    8
 40
18.75
 49
12
 49
-1.5
 49
0.25
 49
-1.5
 49
0.25
 49
-1.5
 49
0.25
 49
-1.5
  0
LTYPE
  2
dotted
 70
   64
  3
   -       -       -       -    
 72
   65
 73
    2
 40
1.75
 49
0.25
 49
-1.5
  0
LTYPE
  2
chain
 70
   64
  3
-------------- -- --------------
 72
   65
 73
    4
 40
18.5
 49
12
 49
-1.5
 49
3.5
 49
-1.5
  0
LTYPE
  2
chain_double_dash
 70
   64
  3
------------ -- -- -------------
 72
   65
 73
    6
 40
23.5
 49
12
 49
-1.5
 49
3.5
 49
-1.5
 49
3.5
 49
-1.5
  0
LTYPE
  2
dashed_dotted
 70
   64
  3
-----------     -     ----------
 72
   65
 73
    4
 40
9.25
 49
6
 49
-1.5
 49
0.25
 49
-1.5
  0
LTYPE
  2
double-dashed_dotted
 70
   64
  3
------   -----------   -   -----
 72
   65
 73
    6
 40
16.75
 49
6
 49
-1.5
 49
6
 49
-1.5
 49
0.25
 49
-1.5
  0
LTYPE
  2
dashed_double-dotted
 70
   64
  3
---------    -    -    ---------
 72
   65
 73
    6
 40
11
 49
6
 49
-1.5
 49
0.25
 49
-1.5
 49
0.25
 49
-1.5
  0
LTYPE
  2
double-dashed_double-dotted
 70
   64
  3
-----   ---------   -   -   ----
 72
   65
 73
    8
 40
18.5
 49
6
 49
-1.5
 49
6
 49
-1.5
 49
0.25
 49
-1.5
 49
0.25
 49
-1.5
  0
LTYPE
  2
dashed_triplicate-dotted
 70
   64
  3
-------    -    -    -    ------
 72
   65
 73
    8
 40
12.75
 49
6
 49
-1.5
 49
0.25
 49
-1.5
 49
0.25
 49
-1.5
 49
0.25
 49
-1.5
  0
LTYPE
  2
double-dashed_triplicate-dotted
 70
   64
  3
-----  ---------  -  -  -  -----
 72
   65
 73
   10
 40
20.25
 49
6
 49
-1.5
 49
6
 49
-1.5
 49
0.25
 49
-1.5
 49
0.25
 49
-1.5
 49
0.25
 49
-1.5
  0
LTYPE
  2
undefined
 70
   64
  3
--------------------------------
 72
   65
 73
    0
 40
0
  0
LTYPE
  2
_
 70
   64
  3
                                
 72
   65
 73
    0
 40
0
  0
LTYPE
  2
__18
 70
   64
  3
                                
 72
   65
 73
    0
 40
0
  0
LTYPE
  2
__19
 70
   64
  3
                                
 72
   65
 73
    0
 40
0
  0
LTYPE
  2
__20
 70
   64
  3
                                
 72
   65
 73
    0
 40
0
  0
LTYPE
  2
__21
 70
   64
  3
                                
 72
   65
 73
    0
 40
0
  0
LTYPE
  2
__22
 70
   64
  3
                                
 72
   65
 73
    0
 40
0
  0
LTYPE
  2
__23
 70
   64
  3
                                
 72
   65
 73
    0
 40
0
  0
LTYPE
  2
__24
 70
   64
  3
                                
 72
   65
 73
    0
 40
0
  0
LTYPE
  2
__25
 70
   64
  3
                                
 72
   65
 73
    0
 40
0
  0
LTYPE
  2
__26
 70
   64
  3
                                
 72
   65
 73
    0
 40
0
  0
LTYPE
  2
__27
 70
   64
  3
                                
 72
   65
 73
    0
 40
0
  0
LTYPE
  2
__28
 70
   64
  3
                                
 72
   65
 73
    0
 40
0
  0
LTYPE
  2
__29
 70
   64
  3
                                
 72
   65
 73
    0
 40
0
  0
LTYPE
  2
__30
 70
   64
  3
                                
 72
   65
 73
    0
 40
0
  0
LTYPE
  2
__31
 70
   64
  3
                                
 72
   65
 73
    0
 40
0
  0
LTYPE
  2
__32
 70
   64
  3
                                
 72
   65
 73
    0
 40
0
  0
ENDTAB
  0
TABLE
  2
STYLE
  5
3
100
AcDbSymbolTable
 70
     1
  0
STYLE
  5
10
100
AcDbSymbolTableRecord
100
AcDbTextStyleTableRecord
  2
STANDARD
 70
     0
 40
0.0
 41
1.0
 50
0.0
 71
     0
 42
0.2
  3
txt
  4
bigfont.shx
  0
STYLE
  5
26
100
AcDbSymbolTableRecord
100
AcDbTextStyleTableRecord
  2
TATEGAKI
 70
    68
 40
0.0
 41
1.0
 50
0.0
 71
     0
 42
1.0
  3
txt
  4
bigfont.shx
  0
ENDTAB
  0
TABLE
  2
LAYER
 70
   15
  0
LAYER
  2
_2-2_in_line
 70
   64
 62
    7
  6
CONTINUOUS
  0
LAYER
  2
_2-3_
 70
   64
 62
    7
  6
CONTINUOUS
  0
LAYER
  2
_2-4_out_line
 70
   64
 62
    7
  6
CONTINUOUS
  0
LAYER
  2
_2-6_鋼板__アングル
 70
   64
 62
    7
  6
CONTINUOUS
  0
LAYER
  2
_2-7_ビス
 70
   64
 62
    7
  6
CONTINUOUS
  0
LAYER
  2
_2-a_moji
 70
   64
 62
    7
  6
CONTINUOUS
  0
LAYER
  2
_2-b_dim
 70
   64
 62
    7
  6
CONTINUOUS
  0
LAYER
  2
_2-d_ハッチ他
 70
   64
 62
    7
  6
CONTINUOUS
  0
LAYER
  2
_2-e_con他
 70
   64
 62
    7
  6
CONTINUOUS
  0
LAYER
  2
_f-2_
 70
   64
 62
    7
  6
CONTINUOUS
  0
LAYER
  2
_f-5_
 70
   64
 62
    7
  6
CONTINUOUS
  0
LAYER
  2
_f-7_
 70
   64
 62
    7
  6
CONTINUOUS
  0
LAYER
  2
_f-8_
 70
   64
 62
    7
  6
CONTINUOUS
  0
LAYER
  2
_f-a_
 70
   64
 62
    7
  6
CONTINUOUS
  0
LAYER
  2
ADD_LINE
 70
   64
 62
    7
  6
CONTINUOUS
  0
ENDTAB
  0
ENDSEC
  0
SECTION
  2
BLOCKS
  0
ENDSEC
  0
SECTION
  2
ENTITIES
  0
LINE
  8
ADD_LINE
  6
DOT
 62
  136
 10
542.44350668074742
 20
1453.179514717478
 11
542.44350668074742
 21
23.1795147174779
  0
LINE
  8
ADD_LINE
  6
DOT
 62
  136
 10
1542.4435066807473
 20
1453.179514717478
 11
1542.4435066807473
 21
23.1795147174779
  0
LINE
  8
ADD_LINE
  6
DOT
 62
  136
 10
1542.4435066807473
 20
23.1795147174779
 11
542.44350668074514
 21
23.1795147174779
  0
TEXT
  8
_2-a_moji
 62
    7
 10
902.60432817807566
 20
1198.468393337716
 40
15
 41
1
 50
0
  1
ＢＳ－Ｈ１
  0
LINE
  8
_2-a_moji
  6
CONTINUOUS
 62
    7
 10
892.60432817807566
 20
1205.968393337716
 11
843.9502118849897
 21
1205.968393337716
  0
LINE
  8
_f-7_
  6
CONTINUOUS
 62
    1
 10
642.44350668074742
 20
1353.179514717478
 11
1442.4435066807473
 21
1353.179514717478
  0
LINE
  8
_f-7_
  6
CONTINUOUS
 62
    1
 10
642.44350668074742
 20
1353.179514717478
 11
642.44350668074742
 21
763.1795147174779
  0
LINE
  8
_f-7_
  6
CONTINUOUS
 62
    1
 10
1442.4435066807473
 20
1353.179514717478
 11
1442.4435066807473
 21
763.1795147174779
  0
LINE
  8
_f-7_
  6
CONTINUOUS
 62
    1
 10
642.44350668074742
 20
763.1795147174779
 11
1442.4435066807473
 21
763.1795147174779
  0
LINE
  8
ADD_LINE
  6
DOT
 62
  136
 10
642.44350668074742
 20
783.1795147174779
 11
1442.4435066807473
 21
783.1795147174779
  0
LINE
  8
_f-5_
  6
CONTINUOUS
 62
    6
 10
642.44350668074742
 20
803.1795147174779
 11
1442.4435066807473
 21
803.1795147174779
  0
LINE
  8
ADD_LINE
  6
DOT
 62
  136
 10
662.44350668074742
 20
803.1795147174779
 11
662.44350668074742
 21
763.1795147174779
  0
TEXT
  8
_f-a_
 62
    7
 10
662.44350668074742
 20
773.1795147174779
 40
20
 41
1
 50
0
  1
１２５・１２７仕様
  0
TEXT
  8
_f-a_
 62
    7
 10
877.44350668074742
 20
773.1795147174779
 40
17.5
 41
1
 50
0
  1
下地：ＲＣ
  0
LINE
  8
_f-5_
  6
CONTINUOUS
 62
    6
 10
859.94350668074742
 20
803.1795147174779
 11
859.94350668074742
 21
763.1795147174779
  0
LINE
  8
_f-5_
  6
CONTINUOUS
 62
    6
 10
862.44350668074742
 20
803.1795147174779
 11
862.44350668074742
 21
763.1795147174779
  0
TEXT
  8
_f-a_
 62
    7
 10
1027.4435066807475
 20
773.1795147174779
 40
17.5
 41
1
 50
0
  1
部位：平場
  0
LINE
  8
ADD_LINE
  6
DOT
 62
  136
 10
877.44350668074742
 20
803.1795147174779
 11
877.44350668074742
 21
763.1795147174779
  0
LINE
  8
ADD_LINE
  6
DOT
 62
  136
 10
1027.4435066807475
 20
803.1795147174779
 11
1027.4435066807475
 21
763.1795147174779
  0
LINE
  8
_f-2_
  6
CONTINUOUS
 62
    7
 10
1012.4435066807474
 20
803.1795147174779
 11
1012.4435066807474
 21
763.1795147174779
  0
LINE
  8
ADD_LINE
  6
DOT
 62
  136
 10
1327.4435066807473
 20
803.1795147174779
 11
1327.4435066807473
 21
763.1795147174779
  0
LINE
  8
_f-2_
  6
CONTINUOUS
 62
    7
 10
1312.4435066807473
 20
803.1795147174779
 11
1312.4435066807473
 21
763.1795147174779
  0
LINE
  8
ADD_LINE
  6
DOT
 62
  136
 10
1222.4435066807475
 20
803.1795147174779
 11
1222.4435066807475
 21
763.1795147174779
  0
LINE
  8
_f-2_
  6
CONTINUOUS
 62
    7
 10
1207.4435066807475
 20
803.1795147174779
 11
1207.4435066807475
 21
763.1795147174779
  0
TEXT
  8
_f-a_
 62
    7
 10
1222.4435066807475
 20
773.1795147174779
 40
15
 41
1
 50
0
  1
Ｓ＝１：５
  0
TEXT
  8
_f-a_
 62
    7
 10
1327.4435066807473
 20
773.1795147174779
 40
15
 41
1
 50
0
  1
図番
  0
TEXT
  8
_f-a_
 62
    7
 10
1373.8611754048543
 20
773.1795147174779
 40
15
 41
1
 50
0
  1
３－２
  0
LINE
  8
_2-3_
  6
CONTINUOUS
 62
    3
 10
642.44350668074742
 20
853.1795147174779
 11
1442.4435066807473
 21
853.1795147174779
  0
LINE
  8
_2-e_con他
  6
CONTINUOUS
 62
    4
 10
842.87830310944753
 20
853.1795147174779
 11
992.87830310944753
 21
1003.1795147174779
  0
LINE
  8
_2-e_con他
  6
CONTINUOUS
 62
    4
 10
857.02043873317746
 20
853.1795147174779
 11
1007.0204387331786
 21
1003.1795147174779
  0
LINE
  8
_2-e_con他
  6
CONTINUOUS
 62
    4
 10
849.94937092131306
 20
853.1795147174779
 11
999.94937092131306
 21
1003.1795147174779
  0
LINE
  8
_2-e_con他
  6
CONTINUOUS
 62
    4
 10
1049.9493709213132
 20
853.1795147174779
 11
1199.9493709213132
 21
1003.1795147174779
  0
LINE
  8
_2-e_con他
  6
CONTINUOUS
 62
    4
 10
1057.0204387331776
 20
853.1795147174779
 11
1207.0204387331787
 21
1003.1795147174779
  0
LINE
  8
_2-e_con他
  6
CONTINUOUS
 62
    4
 10
1042.8783031094476
 20
853.1795147174779
 11
1192.8783031094476
 21
1003.1795147174779
  0
LINE
  8
_2-d_ハッチ他
  6
CONTINUOUS
 62
    4
 10
1344.5356507123756
 20
1033.179514717478
 11
1354.5356507123745
 21
1043.179514717478
  0
LINE
  8
_2-d_ハッチ他
  6
CONTINUOUS
 62
    4
 10
1330.3935150886525
 20
1033.1795147174803
 11
1340.3935150886525
 21
1043.1795147174803
  0
LINE
  8
_2-d_ハッチ他
  6
CONTINUOUS
 62
    4
 10
1316.2513794649203
 20
1033.1795147174803
 11
1326.2513794649203
 21
1043.1795147174803
  0
LINE
  8
_2-d_ハッチ他
  6
CONTINUOUS
 62
    4
 10
1302.1092438411858
 20
1033.1795147174803
 11
1312.1092438411858
 21
1043.1795147174803
  0
LINE
  8
_2-d_ハッチ他
  6
CONTINUOUS
 62
    4
 10
1287.9671082174502
 20
1033.179514717478
 11
1297.9671082174502
 21
1043.179514717478
  0
LINE
  8
_2-d_ハッチ他
  6
CONTINUOUS
 62
    4
 10
1273.8249725937285
 20
1033.1795147174803
 11
1283.8249725937283
 21
1043.1795147174803
  0
LINE
  8
_2-d_ハッチ他
  6
CONTINUOUS
 62
    4
 10
1259.6828369699974
 20
1033.1795147174826
 11
1269.6828369699974
 21
1043.1795147174826
  0
LINE
  8
_2-d_ハッチ他
  6
CONTINUOUS
 62
    4
 10
1231.3985657225376
 20
1033.1795147174803
 11
1241.3985657225376
 21
1043.1795147174803
  0
LINE
  8
_2-d_ハッチ他
  6
CONTINUOUS
 62
    4
 10
1217.2564300988042
 20
1033.1795147174803
 11
1227.2564300988042
 21
1043.1795147174803
  0
LINE
  8
_2-d_ハッチ他
  6
CONTINUOUS
 62
    4
 10
1203.1142944750732
 20
1033.1795147174826
 11
1213.1142944750732
 21
1043.1795147174826
  0
LINE
  8
_2-d_ハッチ他
  6
CONTINUOUS
 62
    4
 10
1188.9721588513376
 20
1033.1795147174803
 11
1198.9721588513376
 21
1043.1795147174803
  0
LINE
  8
_2-d_ハッチ他
  6
CONTINUOUS
 62
    4
 10
1174.8300232276133
 20
1033.1795147174803
 11
1184.8300232276133
 21
1043.1795147174803
  0
LINE
  8
_2-d_ハッチ他
  6
CONTINUOUS
 62
    4
 10
1160.68788760388
 20
1033.1795147174803
 11
1170.68788760388
 21
1043.1795147174803
  0
LINE
  8
_2-d_ハッチ他
  6
CONTINUOUS
 62
    4
 10
1146.5457519801466
 20
1033.1795147174803
 11
1156.5457519801489
 21
1043.1795147174826
  0
LINE
  8
_2-d_ハッチ他
  6
CONTINUOUS
 62
    4
 10
1132.4036163564133
 20
1033.1795147174803
 11
1142.4036163564133
 21
1043.1795147174803
  0
LINE
  8
_2-d_ハッチ他
  6
CONTINUOUS
 62
    4
 10
1118.2614807326891
 20
1033.1795147174803
 11
1128.2614807326891
 21
1043.1795147174803
  0
LINE
  8
_2-d_ハッチ他
  6
CONTINUOUS
 62
    4
 10
1104.1193451089568
 20
1033.1795147174803
 11
1114.1193451089568
 21
1043.1795147174803
  0
LINE
  8
_2-d_ハッチ他
  6
CONTINUOUS
 62
    4
 10
1089.9772094852224
 20
1033.1795147174803
 11
1099.9772094852224
 21
1043.1795147174803
  0
LINE
  8
_2-d_ハッチ他
  6
CONTINUOUS
 62
    4
 10
1075.8350738614868
 20
1033.179514717478
 11
1085.8350738614879
 21
1043.179514717478
  0
LINE
  8
_2-d_ハッチ他
  6
CONTINUOUS
 62
    4
 10
1061.6929382377648
 20
1033.1795147174803
 11
1071.6929382377648
 21
1043.1795147174803
  0
LINE
  8
_2-d_ハッチ他
  6
CONTINUOUS
 62
    4
 10
1047.5508026140326
 20
1033.1795147174803
 11
1057.5508026140326
 21
1043.1795147174803
  0
LINE
  8
_2-d_ハッチ他
  6
CONTINUOUS
 62
    4
 10
1033.4086669902981
 20
1033.1795147174803
 11
1043.4086669902981
 21
1043.1795147174803
  0
LINE
  8
_2-d_ハッチ他
  6
CONTINUOUS
 62
    4
 10
1019.2665313665726
 20
1033.179514717478
 11
1029.2665313665727
 21
1043.179514717478
  0
LINE
  8
_2-d_ハッチ他
  6
CONTINUOUS
 62
    4
 10
1005.1243957428404
 20
1033.1795147174803
 11
1015.1243957428404
 21
1043.1795147174803
  0
LINE
  8
_2-d_ハッチ他
  6
CONTINUOUS
 62
    4
 10
990.98226011910936
 20
1033.1795147174826
 11
1000.9822601191082
 21
1043.1795147174803
  0
LINE
  8
_2-d_ハッチ他
  6
CONTINUOUS
 62
    4
 10
976.84012449537374
 20
1033.1795147174803
 11
986.84012449537374
 21
1043.1795147174803
  0
LINE
  8
_2-d_ハッチ他
  6
CONTINUOUS
 62
    4
 10
948.5558532479173
 20
1033.1795147174803
 11
958.55585324791616
 21
1043.1795147174803
  0
LINE
  8
_2-d_ハッチ他
  6
CONTINUOUS
 62
    4
 10
934.41371762418396
 20
1033.1795147174803
 11
944.4137176241851
 21
1043.1795147174826
  0
LINE
  8
_2-d_ハッチ他
  6
CONTINUOUS
 62
    4
 10
920.27158200044948
 20
1033.1795147174803
 11
930.27158200044948
 21
1043.1795147174803
  0
LINE
  8
_2-d_ハッチ他
  6
CONTINUOUS
 62
    4
 10
906.12944637672524
 20
1033.1795147174803
 11
916.12944637672524
 21
1043.1795147174803
  0
LINE
  8
_2-d_ハッチ他
  6
CONTINUOUS
 62
    4
 10
891.9873107529919
 20
1033.1795147174803
 11
901.9873107529919
 21
1043.1795147174803
  0
LINE
  8
_2-d_ハッチ他
  6
CONTINUOUS
 62
    4
 10
877.84517512925856
 20
1033.1795147174803
 11
887.84517512926084
 21
1043.1795147174826
  0
LINE
  8
_2-d_ハッチ他
  6
CONTINUOUS
 62
    4
 10
863.70303950552523
 20
1033.1795147174803
 11
873.70303950552523
 21
1043.1795147174803
  0
LINE
  8
_2-d_ハッチ他
  6
CONTINUOUS
 62
    4
 10
849.56090388180098
 20
1033.1795147174803
 11
859.56090388180098
 21
1043.1795147174803
  0
LINE
  8
_2-d_ハッチ他
  6
CONTINUOUS
 62
    4
 10
835.41876825806878
 20
1033.1795147174803
 11
845.41876825806878
 21
1043.1795147174803
  0
LINE
  8
_2-d_ハッチ他
  6
CONTINUOUS
 62
    4
 10
821.27663263433431
 20
1033.1795147174803
 11
831.27663263433431
 21
1043.1795147174803
  0
LINE
  8
_2-d_ハッチ他
  6
CONTINUOUS
 62
    4
 10
807.1344970106021
 20
1033.1795147174803
 11
817.13449701060097
 21
1043.1795147174803
  0
LINE
  8
_2-d_ハッチ他
  6
CONTINUOUS
 62
    4
 10
792.99236138687672
 20
1033.1795147174803
 11
802.99236138687672
 21
1043.1795147174803
  0
LINE
  8
_2-d_ハッチ他
  6
CONTINUOUS
 62
    4
 10
778.85022576314452
 20
1033.1795147174803
 11
788.85022576314452
 21
1043.1795147174803
  0
LINE
  8
_2-d_ハッチ他
  6
CONTINUOUS
 62
    4
 10
750.56595451567557
 20
1033.179514717478
 11
760.56595451567443
 21
1043.179514717478
  0
LINE
  8
_2-d_ハッチ他
  6
CONTINUOUS
 62
    4
 10
736.42381889195246
 20
1033.1795147174803
 11
746.42381889195246
 21
1043.1795147174803
  0
LINE
  8
_2-d_ハッチ他
  6
CONTINUOUS
 62
    4
 10
722.28168326822026
 20
1033.1795147174803
 11
732.28168326822026
 21
1043.1795147174803
  0
LINE
  8
_2-4_out_line
  6
CONTINUOUS
 62
    2
 10
1210.9435066807478
 20
1045.1795147174785
 11
1280.9435066807475
 21
1045.1795147174785
  0
LINE
  8
_2-4_out_line
  6
CONTINUOUS
 62
    2
 10
1200.9435066807478
 20
1044.1795147174771
 11
1290.9435066807475
 21
1044.1795147174771
  0
TEXT
  8
_2-a_moji
 62
    7
 10
1255.1480143350661
 20
1123.468393337716
 40
15
 41
1
 50
0
  1
ロンテープＭ
  0
TEXT
  8
_2-a_moji
 62
    7
 10
1255.1480143350661
 20
1098.468393337716
 40
15
 41
1
 50
0
  1
プルーフセメントＮＲ
  0
LINE
  8
_2-a_moji
  6
CONTINUOUS
 62
    7
 10
1245.1480143350661
 20
1105.968393337716
 11
1210.6092582544547
 21
1105.968393337716
  0
LINE
  8
_2-a_moji
  6
CONTINUOUS
 62
    7
 10
1246.2830839587743
 20
1044.1795147174771
 11
1196.175501524714
 21
1130.968393337716
  0
LINE
  8
_2-a_moji
  6
CONTINUOUS
 62
    7
 10
1245.1480143350661
 20
1130.968393337716
 11
1196.175501524714
 21
1130.968393337716
  0
LINE
  8
_2-e_con他
  6
CONTINUOUS
 62
    4
 10
1242.8783031094476
 20
853.1795147174779
 11
1392.8783031094474
 21
1003.1795147174779
  0
LINE
  8
_2-e_con他
  6
CONTINUOUS
 62
    4
 10
1249.9493709213132
 20
853.1795147174779
 11
1399.9493709213129
 21
1003.1795147174779
  0
LINE
  8
_2-e_con他
  6
CONTINUOUS
 62
    4
 10
1257.0204387331776
 20
853.1795147174779
 11
1407.0204387331773
 21
1003.1795147174779
  0
LINE
  8
_2-e_con他
  6
CONTINUOUS
 62
    4
 10
667.44350668074742
 20
877.74471828877893
 11
792.87830310944753
 21
1003.1795147174779
  0
LINE
  8
_2-e_con他
  6
CONTINUOUS
 62
    4
 10
667.44350668074742
 20
863.60258266504786
 11
807.02043873317859
 21
1003.1795147174779
  0
LINE
  8
_2-e_con他
  6
CONTINUOUS
 62
    4
 10
667.44350668074742
 20
870.67365047691226
 11
799.94937092131306
 21
1003.1795147174779
  0
LINE
  8
_2-d_ハッチ他
  6
CONTINUOUS
 62
    4
 10
708.1395476444801
 20
1033.179514717478
 11
718.13954764448579
 21
1043.1795147174803
  0
LINE
  8
_2-d_ハッチ他
  6
CONTINUOUS
 62
    4
 10
1358.6777863361101
 20
1033.1795147174803
 11
1368.6777863361078
 21
1043.179514717478
  0
LINE
  8
_2-d_ハッチ他
  6
CONTINUOUS
 62
    4
 10
1401.1041932072999
 20
1033.179514717478
 11
1411.1041932072987
 21
1043.179514717478
  0
LINE
  8
_2-d_ハッチ他
  6
CONTINUOUS
 62
    4
 10
1386.9620575835768
 20
1033.1795147174803
 11
1396.9620575835768
 21
1043.1795147174803
  0
LINE
  8
_2-d_ハッチ他
  6
CONTINUOUS
 62
    4
 10
1372.8199219598446
 20
1033.1795147174803
 11
1382.8199219598446
 21
1043.1795147174803
  0
LINE
  8
_2-d_ハッチ他
  6
CONTINUOUS
 62
    4
 10
1415.2463288310344
 20
1033.1795147174803
 11
1417.4435066807473
 21
1035.3766925671921
  0
LINE
  8
_2-d_ハッチ他
  6
CONTINUOUS
 62
    4
 10
693.99741202076154
 20
1033.1795147174803
 11
703.99741202076154
 21
1043.1795147174803
  0
LINE
  8
_2-d_ハッチ他
  6
CONTINUOUS
 62
    4
 10
679.85527639702934
 20
1033.1795147174803
 11
689.85527639702934
 21
1043.1795147174803
  0
LINE
  8
_2-d_ハッチ他
  6
CONTINUOUS
 62
    4
 10
667.44350668074742
 20
1034.9098806249362
 11
675.71314077329487
 21
1043.1795147174803
  0
LINE
  8
_2-d_ハッチ他
  6
CONTINUOUS
 62
    4
 10
1247.4435066807475
 20
1035.0823200519649
 11
1255.5407013462618
 21
1043.1795147174803
  0
LINE
  8
_2-d_ハッチ他
  6
CONTINUOUS
 62
    4
 10
962.69798887163813
 20
1033.179514717478
 11
972.69798887163813
 21
1043.179514717478
  0
LINE
  8
_2-d_ハッチ他
  6
CONTINUOUS
 62
    4
 10
1417.4435066807473
 20
1013.5541277804003
 11
1397.8181197436686
 21
1033.179514717478
  0
LINE
  8
_2-d_ハッチ他
  6
CONTINUOUS
 62
    4
 10
713.35028971326221
 20
1033.1795147174757
 11
683.35028971326562
 21
1003.1795147174779
  0
LINE
  8
_2-d_ハッチ他
  6
CONTINUOUS
 62
    4
 10
685.06601846580008
 20
1033.1795147174757
 11
667.44350668074742
 21
1015.557002932423
  0
LINE
  8
_2-d_ハッチ他
  6
CONTINUOUS
 62
    4
 10
692.42706730965904
 20
1003.1795147174779
 11
667.44350668074742
 21
1028.1630753463896
  0
LINE
  8
_2-7_ビス
  6
CONTINUOUS
 62
    7
 10
769.44350668074674
 20
1043.179514717478
 11
769.44350668074674
 21
1003.1795147174779
  0
LINE
  8
_2-7_ビス
  6
CONTINUOUS
 62
    7
 10
765.44350668074696
 20
1043.179514717478
 11
765.44350668074696
 21
1003.1795147174779
  0
LINE
  8
_2-d_ハッチ他
  6
CONTINUOUS
 62
    4
 10
798.2031034556486
 20
1033.1795147174757
 11
769.44350668074674
 21
1004.4199179425749
  0
LINE
  8
_2-d_ハッチ他
  6
CONTINUOUS
 62
    4
 10
769.44350668074674
 20
1037.914931258817
 11
774.70809013941005
 21
1043.1795147174803
  0
LINE
  8
_2-d_ハッチ他
  6
CONTINUOUS
 62
    4
 10
777.27988105204884
 20
1003.1795147174779
 11
769.44350668074674
 21
1011.01588908878
  0
LINE
  8
_2-d_ハッチ他
  6
CONTINUOUS
 62
    4
 10
765.44350668074696
 20
1015.0158890887809
 11
747.27988105204884
 21
1033.179514717478
  0
LINE
  8
_2-d_ハッチ他
  6
CONTINUOUS
 62
    4
 10
805.56415229951551
 20
1003.1795147174779
 11
775.56415229951665
 21
1033.179514717478
  0
LINE
  8
_2-d_ハッチ他
  6
CONTINUOUS
 62
    4
 10
1417.4435066807473
 20
1030.1659504984123
 11
1390.4570708998131
 21
1003.1795147174779
  0
LINE
  8
_2-d_ハッチ他
  6
CONTINUOUS
 62
    4
 10
862.13269479443068
 20
1003.1795147174779
 11
832.13269479443068
 21
1033.179514717478
  0
LINE
  8
_2-d_ハッチ他
  6
CONTINUOUS
 62
    4
 10
890.41696604189849
 20
1003.1795147174779
 11
860.41696604189735
 21
1033.179514717478
  0
LINE
  8
_2-d_ハッチ他
  6
CONTINUOUS
 62
    4
 10
975.26977978428033
 20
1003.1795147174779
 11
945.26977978427919
 21
1033.1795147174803
  0
LINE
  8
_2-d_ハッチ他
  6
CONTINUOUS
 62
    4
 10
1060.1225935266714
 20
1003.1795147174779
 11
1030.1225935266691
 21
1033.1795147174803
  0
LINE
  8
_2-d_ハッチ他
  6
CONTINUOUS
 62
    4
 10
1088.406864774129
 20
1003.1795147174779
 11
1058.406864774129
 21
1033.179514717478
  0
LINE
  8
_2-d_ハッチ他
  6
CONTINUOUS
 62
    4
 10
1173.2596785165188
 20
1003.1795147174779
 11
1143.2596785165176
 21
1033.1795147174803
  0
LINE
  8
_2-d_ハッチ他
  6
CONTINUOUS
 62
    4
 10
1258.1124922589006
 20
1003.1795147174779
 11
1228.1124922589006
 21
1033.179514717478
  0
LINE
  8
_2-d_ハッチ他
  6
CONTINUOUS
 62
    4
 10
1286.396763506358
 20
1003.1795147174779
 11
1256.3967635063582
 21
1033.179514717478
  0
LINE
  8
_2-d_ハッチ他
  6
CONTINUOUS
 62
    4
 10
1307.31998590996
 20
1033.179514717478
 11
1277.3199859099614
 21
1003.1795147174779
  0
LINE
  8
_2-d_ハッチ他
  6
CONTINUOUS
 62
    4
 10
1279.0357146625015
 20
1033.1795147174757
 11
1249.0357146625038
 21
1003.1795147174779
  0
LINE
  8
_2-d_ハッチ他
  6
CONTINUOUS
 62
    4
 10
1194.1829009201128
 20
1033.179514717478
 11
1164.1829009201128
 21
1003.1795147174779
  0
LINE
  8
_2-d_ハッチ他
  6
CONTINUOUS
 62
    4
 10
1109.3300871777287
 20
1033.1795147174757
 11
1079.330087177731
 21
1003.1795147174779
  0
LINE
  8
_2-d_ハッチ他
  6
CONTINUOUS
 62
    4
 10
1081.0458159302711
 20
1033.179514717478
 11
1051.0458159302723
 21
1003.1795147174779
  0
LINE
  8
_2-d_ハッチ他
  6
CONTINUOUS
 62
    4
 10
996.1930021878801
 20
1033.179514717478
 11
966.19300218788123
 21
1003.1795147174779
  0
LINE
  8
_2-d_ハッチ他
  6
CONTINUOUS
 62
    4
 10
911.34018844549598
 20
1033.1795147174757
 11
881.34018844550053
 21
1003.1795147174779
  0
LINE
  8
_2-d_ハッチ他
  6
CONTINUOUS
 62
    4
 10
883.05591719803158
 20
1033.179514717478
 11
853.05591719803385
 21
1003.1795147174779
  0
LINE
  8
_2-d_ハッチ他
  6
CONTINUOUS
 62
    4
 10
1363.8885284048843
 20
1033.179514717478
 11
1333.8885284048843
 21
1003.1795147174779
  0
LINE
  8
_2-d_ハッチ他
  6
CONTINUOUS
 62
    4
 10
1314.6810347538258
 20
1003.1795147174779
 11
1284.6810347538246
 21
1033.179514717478
  0
LINE
  8
_2-d_ハッチ他
  6
CONTINUOUS
 62
    4
 10
1342.9653060012902
 20
1003.1795147174779
 11
1312.9653060012913
 21
1033.179514717478
  0
LINE
  8
_2-d_ハッチ他
  6
CONTINUOUS
 62
    4
 10
1335.6042571574244
 20
1033.1795147174757
 11
1305.6042571574278
 21
1003.1795147174779
  0
LINE
  8
_2-d_ハッチ他
  6
CONTINUOUS
 62
    4
 10
1250.751443415036
 20
1033.179514717478
 11
1220.751443415036
 21
1003.1795147174779
  0
LINE
  8
_2-d_ハッチ他
  6
CONTINUOUS
 62
    4
 10
1201.5439497639775
 20
1003.1795147174779
 11
1171.5439497639763
 21
1033.179514717478
  0
LINE
  8
_2-d_ハッチ他
  6
CONTINUOUS
 62
    4
 10
1229.828221011443
 20
1003.1795147174779
 11
1199.8282210114453
 21
1033.179514717478
  0
LINE
  8
_2-d_ハッチ他
  6
CONTINUOUS
 62
    4
 10
1222.4671721675772
 20
1033.1795147174757
 11
1192.4671721675784
 21
1003.1795147174779
  0
LINE
  8
_2-d_ハッチ他
  6
CONTINUOUS
 62
    4
 10
1052.7615446828045
 20
1033.1795147174757
 11
1022.7615446828066
 21
1003.1795147174779
  0
LINE
  8
_2-d_ハッチ他
  6
CONTINUOUS
 62
    4
 10
1003.554051031747
 20
1003.1795147174779
 11
973.55405103174587
 21
1033.179514717478
  0
LINE
  8
_2-d_ハッチ他
  6
CONTINUOUS
 62
    4
 10
1031.8383222792036
 20
1003.1795147174779
 11
1001.8383222792023
 21
1033.1795147174803
  0
LINE
  8
_2-d_ハッチ他
  6
CONTINUOUS
 62
    4
 10
1024.4772734353469
 20
1033.1795147174757
 11
994.47727343534905
 21
1003.1795147174779
  0
LINE
  8
_2-d_ハッチ他
  6
CONTINUOUS
 62
    4
 10
946.98550853682161
 20
1003.1795147174779
 11
916.98550853682161
 21
1033.1795147174803
  0
LINE
  8
_2-d_ハッチ他
  6
CONTINUOUS
 62
    4
 10
939.62445969295584
 20
1033.179514717478
 11
909.62445969295811
 21
1003.1795147174779
  0
LINE
  8
_2-d_ハッチ他
  6
CONTINUOUS
 62
    4
 10
918.70123728935494
 20
1003.1795147174779
 11
888.70123728935494
 21
1033.1795147174803
  0
LINE
  8
_2-d_ハッチ他
  6
CONTINUOUS
 62
    4
 10
854.77164595057172
 20
1033.1795147174757
 11
824.77164595057627
 21
1003.1795147174779
  0
LINE
  8
_2-d_ハッチ他
  6
CONTINUOUS
 62
    4
 10
833.84842354697423
 20
1003.1795147174779
 11
803.84842354697309
 21
1033.179514717478
  0
LINE
  8
_2-d_ハッチ他
  6
CONTINUOUS
 62
    4
 10
826.48737470310846
 20
1033.179514717478
 11
796.48737470310846
 21
1003.1795147174779
  0
LINE
  8
_2-d_ハッチ他
  6
CONTINUOUS
 62
    4
 10
967.90873094042024
 20
1033.1795147174735
 11
937.90873094042365
 21
1003.1795147174779
  0
LINE
  8
_2-d_ハッチ他
  6
CONTINUOUS
 62
    4
 10
1116.6911360215945
 20
1003.1795147174779
 11
1086.6911360215934
 21
1033.1795147174803
  0
LINE
  8
_2-d_ハッチ他
  6
CONTINUOUS
 62
    4
 10
1165.898629672653
 20
1033.1795147174757
 11
1135.8986296726541
 21
1003.1795147174779
  0
LINE
  8
_2-d_ハッチ他
  6
CONTINUOUS
 62
    4
 10
1392.1727996523521
 20
1033.179514717478
 11
1362.1727996523521
 21
1003.1795147174779
  0
LINE
  8
_2-d_ハッチ他
  6
CONTINUOUS
 62
    4
 10
1371.2495772487489
 20
1003.1795147174779
 11
1341.2495772487489
 21
1033.179514717478
  0
LINE
  8
_2-d_ハッチ他
  6
CONTINUOUS
 62
    4
 10
1399.5338484962065
 20
1003.1795147174779
 11
1369.5338484962065
 21
1033.179514717478
  0
LINE
  8
_2-d_ハッチ他
  6
CONTINUOUS
 62
    4
 10
1144.9754072690521
 20
1003.1795147174779
 11
1114.9754072690532
 21
1033.179514717478
  0
LINE
  8
_2-d_ハッチ他
  6
CONTINUOUS
 62
    4
 10
1137.6143584251874
 20
1033.1795147174735
 11
1107.6143584251863
 21
1003.1795147174779
  0
LINE
  8
_2-d_ハッチ他
  6
CONTINUOUS
 62
    4
 10
765.44350668074696
 20
1028.7041891900408
 11
739.91883220818534
 21
1003.1795147174779
  0
LINE
  8
_2-d_ハッチ他
  6
CONTINUOUS
 62
    4
 10
748.9956098045833
 20
1003.1795147174779
 11
718.99560980458216
 21
1033.179514717478
  0
LINE
  8
_2-d_ハッチ他
  6
CONTINUOUS
 62
    4
 10
741.63456096072434
 20
1033.1795147174757
 11
711.63456096072775
 21
1003.1795147174779
  0
LINE
  8
_2-d_ハッチ他
  6
CONTINUOUS
 62
    4
 10
720.71133855712117
 20
1003.1795147174779
 11
690.71133855712003
 21
1033.179514717478
  0
LINE
  8
_2-a_moji
  6
CONTINUOUS
 62
    7
 10
915.82392030206745
 20
1105.968393337716
 11
861.98971799719072
 21
1105.968393337716
  0
LINE
  8
_2-a_moji
  6
CONTINUOUS
 62
    7
 10
915.82392030206745
 20
1130.968393337716
 11
876.42347472693143
 21
1130.968393337716
  0
LINE
  8
_2-a_moji
  6
CONTINUOUS
 62
    7
 10
915.82392030206745
 20
1155.968393337716
 11
890.85723145667214
 21
1155.968393337716
  0
TEXT
  8
_2-a_moji
 62
    7
 10
925.82392030206745
 20
1148.468393337716
 40
15
 41
1
 50
0
  1
塩ビシート 接着工法
  0
TEXT
  8
_2-a_moji
 62
    7
 10
925.82392030206745
 20
1098.468393337716
 40
15
 41
1
 50
0
  1
断熱材
  0
LINE
  8
_2-a_moji
  6
CONTINUOUS
 62
    7
 10
812.41937316632186
 20
1020.1100375419418
 11
890.85723145667214
 21
1155.968393337716
  0
LINE
  8
_2-4_out_line
  6
CONTINUOUS
 62
    2
 10
1091.8203617335851
 20
1053.179514717478
 11
1091.8203617335851
 21
1048.179514717478
  0
LINE
  8
_2-4_out_line
  6
CONTINUOUS
 62
    2
 10
1040.4806157714304
 20
1053.179514717478
 11
1091.8203617335851
 21
1053.179514717478
  0
LINE
  8
_2-4_out_line
  6
CONTINUOUS
 62
    2
 10
1040.4806157714304
 20
1053.179514717478
 11
1031.8203617335851
 21
1048.179514717478
  0
LINE
  8
_2-a_moji
  6
CONTINUOUS
 62
    7
 10
1092.9714935579264
 20
1056.7944158398036
 11
1179.0971296224327
 21
1205.968393337716
  0
LINE
  8
_2-a_moji
  6
CONTINUOUS
 62
    7
 10
1216.5107138307897
 20
1205.968393337716
 11
1179.0971296224327
 21
1205.968393337716
  0
TEXT
  8
_2-a_moji
 62
    7
 10
1226.5107138307897
 20
1198.468393337716
 40
15
 41
1
 50
0
  1
プルーフシーラー
  0
LINE
  8
_2-4_out_line
  6
CONTINUOUS
 62
    2
 10
1091.8203617335851
 20
1048.179514717478
 11
1417.4435066807473
 21
1048.179514717478
  0
POINT
  8
_2-b_dim
 62
    1
 10
1041.8203617335851
 20
967.49328780689837
  0
LINE
  8
_2-b_dim
  6
CONTINUOUS
 62
    7
 10
1041.8203617335851
 20
996.26038456909271
 11
1041.8203617335851
 21
967.49328780689837
  0
POINT
  8
_2-b_dim
 62
    1
 10
1091.8203617335851
 20
967.49328780689837
  0
LINE
  8
_2-b_dim
  6
CONTINUOUS
 62
    7
 10
1041.8203617335851
 20
967.49328780689837
 11
1091.8203617335851
 21
967.49328780689837
  0
LINE
  8
_2-b_dim
  6
CONTINUOUS
 62
    7
 10
1091.8203617335851
 20
996.26038456909271
 11
1091.8203617335851
 21
967.49328780689837
  0
LINE
  8
_2-a_moji
  6
CONTINUOUS
 62
    7
 10
804.79194101400606
 20
935.53914301041402
 11
783.48041838635379
 21
935.53914301041402
  0
LINE
  8
_2-a_moji
  6
CONTINUOUS
 62
    7
 10
768.89741315268691
 20
960.79764900216958
 11
783.48041838635379
 21
935.53914301041402
  0
LINE
  8
_2-2_in_line
  6
CONTINUOUS
 62
    7
 10
667.44350668074742
 20
853.1795147174779
 11
1417.4435066807473
 21
853.1795147174779
  0
LINE
  8
_2-2_in_line
  6
CONTINUOUS
 62
    7
 10
667.44350668074742
 20
1003.1795147174779
 11
1417.4435066807473
 21
1003.1795147174779
  0
LINE
  8
_2-2_in_line
  6
CONTINUOUS
 62
    7
 10
1247.4435066807475
 20
1033.179514717478
 11
1247.4435066807475
 21
1043.179514717478
  0
LINE
  8
_2-2_in_line
  6
CONTINUOUS
 62
    7
 10
1244.443506680748
 20
1033.179514717478
 11
1244.443506680748
 21
1043.179514717478
  0
LINE
  8
_2-2_in_line
  6
CONTINUOUS
 62
    7
 10
667.44350668074742
 20
1043.179514717478
 11
765.44350668074696
 21
1043.179514717478
  0
LINE
  8
_2-2_in_line
  6
CONTINUOUS
 62
    7
 10
769.44350668074787
 20
1043.179514717478
 11
1417.4435066807473
 21
1043.179514717478
  0
LINE
  8
_2-2_in_line
  6
CONTINUOUS
 62
    7
 10
1041.8203617335851
 20
1048.179514717478
 11
1041.8203617335851
 21
1043.179514717478
  0
LINE
  8
_2-2_in_line
  6
CONTINUOUS
 62
    7
 10
1041.8203617335851
 20
1048.179514717478
 11
1033.1601076957397
 21
1043.179514717478
  0
LINE
  8
_2-2_in_line
  6
CONTINUOUS
 62
    7
 10
1085.8232296666531
 20
1053.179514717478
 11
1085.8414484541756
 21
1053.3104196641598
  0
LINE
  8
_2-2_in_line
  6
CONTINUOUS
 62
    7
 10
1085.8414484541756
 20
1053.3104196641598
 11
1085.8745152338363
 21
1053.5354935991786
  0
LINE
  8
_2-2_in_line
  6
CONTINUOUS
 62
    7
 10
1085.8745152338363
 20
1053.5354935991786
 11
1085.9121794497028
 21
1053.7588335094365
  0
LINE
  8
_2-2_in_line
  6
CONTINUOUS
 62
    7
 10
1085.9121794497028
 20
1053.7588335094365
 11
1085.9573508715268
 21
1053.9793419109078
  0
LINE
  8
_2-2_in_line
  6
CONTINUOUS
 62
    7
 10
1085.9573508715268
 20
1053.9793419109078
 11
1086.0129392690569
 21
1054.1959213195669
  0
LINE
  8
_2-2_in_line
  6
CONTINUOUS
 62
    7
 10
1086.0129392690569
 20
1054.1959213195669
 11
1086.0818544120459
 21
1054.4074742513858
  0
LINE
  8
_2-2_in_line
  6
CONTINUOUS
 62
    7
 10
1086.0818544120459
 20
1054.4074742513858
 11
1086.1290781103392
 21
1054.5274393543782
  0
LINE
  8
_2-2_in_line
  6
CONTINUOUS
 62
    7
 10
1086.1290781103392
 20
1054.5274393543782
 11
1086.1700191716025
 21
1054.6195561939676
  0
LINE
  8
_2-2_in_line
  6
CONTINUOUS
 62
    7
 10
1086.1700191716025
 20
1054.6195561939676
 11
1086.2484343442841
 21
1054.7752704969816
  0
LINE
  8
_2-2_in_line
  6
CONTINUOUS
 62
    7
 10
1086.2484343442841
 20
1054.7752704969816
 11
1086.3355413586103
 21
1054.9272740998613
  0
LINE
  8
_2-2_in_line
  6
CONTINUOUS
 62
    7
 10
1086.3355413586103
 20
1054.9272740998613
 11
1086.4299263477587
 21
1055.0758266156613
  0
LINE
  8
_2-2_in_line
  6
CONTINUOUS
 62
    7
 10
1086.4299263477587
 20
1055.0758266156613
 11
1086.5301754449026
 21
1055.2211876574343
  0
LINE
  8
_2-2_in_line
  6
CONTINUOUS
 62
    7
 10
1086.5301754449026
 20
1055.2211876574343
 11
1086.6348747832196
 21
1055.3636168382304
  0
LINE
  8
_2-2_in_line
  6
CONTINUOUS
 62
    7
 10
1086.6348747832196
 20
1055.3636168382304
 11
1086.6970823628983
 21
1055.4449846854341
  0
LINE
  8
_2-2_in_line
  6
CONTINUOUS
 62
    7
 10
1086.6970823628983
 20
1055.4449846854341
 11
1086.771298636834
 21
1055.539668278238
  0
LINE
  8
_2-2_in_line
  6
CONTINUOUS
 62
    7
 10
1086.771298636834
 20
1055.539668278238
 11
1086.9015235769373
 21
1055.7003870720991
  0
LINE
  8
_2-2_in_line
  6
CONTINUOUS
 62
    7
 10
1086.9015235769373
 20
1055.7003870720991
 11
1087.0343753961586
 21
1055.8582538344895
  0
LINE
  8
_2-2_in_line
  6
CONTINUOUS
 62
    7
 10
1087.0343753961586
 20
1055.8582538344895
 11
1087.1695735342862
 21
1056.013674327955
  0
LINE
  8
_2-2_in_line
  6
CONTINUOUS
 62
    7
 10
1087.1695735342862
 20
1056.013674327955
 11
1087.3068374311108
 21
1056.167054315044
  0
LINE
  8
_2-2_in_line
  6
CONTINUOUS
 62
    7
 10
1087.3068374311108
 20
1056.167054315044
 11
1087.4458865264185
 21
1056.318799558298
  0
LINE
  8
_2-2_in_line
  6
CONTINUOUS
 62
    7
 10
1087.4458865264185
 20
1056.318799558298
 11
1087.5272424243306
 21
1056.4062226513051
  0
LINE
  8
_2-2_in_line
  6
CONTINUOUS
 62
    7
 10
1087.5272424243306
 20
1056.4062226513051
 11
1087.6128774977453
 21
1056.4972928257039
  0
LINE
  8
_2-2_in_line
  6
CONTINUOUS
 62
    7
 10
1087.6128774977453
 20
1056.4972928257039
 11
1087.7620748560528
 21
1056.6529945745374
  0
LINE
  8
_2-2_in_line
  6
CONTINUOUS
 62
    7
 10
1087.7620748560528
 20
1056.6529945745374
 11
1087.9138250696226
 21
1056.8063405529365
  0
LINE
  8
_2-2_in_line
  6
CONTINUOUS
 62
    7
 10
1087.9138250696226
 20
1056.8063405529365
 11
1088.0688141491262
 21
1056.9565281918558
  0
LINE
  8
_2-2_in_line
  6
CONTINUOUS
 62
    7
 10
1088.0688141491262
 20
1056.9565281918558
 11
1088.2277281052327
 21
1057.1027549222545
  0
LINE
  8
_2-2_in_line
  6
CONTINUOUS
 62
    7
 10
1088.2277281052327
 20
1057.1027549222545
 11
1088.3912529486136
 21
1057.2442181750826
  0
LINE
  8
_2-2_in_line
  6
CONTINUOUS
 62
    7
 10
1088.3912529486136
 20
1057.2442181750826
 11
1088.4884803902016
 21
1057.3237679823633
  0
LINE
  8
_2-2_in_line
  6
CONTINUOUS
 62
    7
 10
1088.4884803902016
 20
1057.3237679823633
 11
1088.5761340897434
 21
1057.3924933348594
  0
LINE
  8
_2-2_in_line
  6
CONTINUOUS
 62
    7
 10
1088.5761340897434
 20
1057.3924933348594
 11
1088.7307471896636
 21
1057.506706102658
  0
LINE
  8
_2-2_in_line
  6
CONTINUOUS
 62
    7
 10
1088.7307471896636
 20
1057.506706102658
 11
1088.8897123328527
 21
1057.6146787915895
  0
LINE
  8
_2-2_in_line
  6
CONTINUOUS
 62
    7
 10
1088.8897123328527
 20
1057.6146787915895
 11
1089.0529589900805
 21
1057.7154540230158
  0
LINE
  8
_2-2_in_line
  6
CONTINUOUS
 62
    7
 10
1089.0529589900805
 20
1057.7154540230158
 11
1089.220416632111
 21
1057.808074418303
  0
LINE
  8
_2-2_in_line
  6
CONTINUOUS
 62
    7
 10
1089.220416632111
 20
1057.808074418303
 11
1089.3920147297151
 21
1057.8915825988129
  0
LINE
  8
_2-2_in_line
  6
CONTINUOUS
 62
    7
 10
1089.3920147297151
 20
1057.8915825988129
 11
1089.4934109908834
 21
1057.9354648697354
  0
LINE
  8
_2-2_in_line
  6
CONTINUOUS
 62
    7
 10
1089.4934109908834
 20
1057.9354648697354
 11
1089.6073164836232
 21
1057.9799935829983
  0
LINE
  8
_2-2_in_line
  6
CONTINUOUS
 62
    7
 10
1089.6073164836232
 20
1057.9799935829983
 11
1089.8072049414773
 21
1058.0473042114108
  0
LINE
  8
_2-2_in_line
  6
CONTINUOUS
 62
    7
 10
1089.8072049414773
 20
1058.0473042114108
 11
1090.0109070403348
 21
1058.1039077629107
  0
LINE
  8
_2-2_in_line
  6
CONTINUOUS
 62
    7
 10
1090.0109070403348
 20
1058.1039077629107
 11
1090.217706117144
 21
1058.1512826366402
  0
LINE
  8
_2-2_in_line
  6
CONTINUOUS
 62
    7
 10
1090.217706117144
 20
1058.1512826366402
 11
1090.4268855088528
 21
1058.1909072317508
  0
LINE
  8
_2-2_in_line
  6
CONTINUOUS
 62
    7
 10
1090.4268855088528
 20
1058.1909072317508
 11
1090.6377285524084
 21
1058.2242599473848
  0
LINE
  8
_2-2_in_line
  6
CONTINUOUS
 62
    7
 10
1090.6377285524084
 20
1058.2242599473848
 11
1090.7604974004382
 21
1058.2413133134191
  0
LINE
  8
_2-2_in_line
  6
CONTINUOUS
 62
    7
 10
1090.7604974004382
 20
1058.2413133134191
 11
1090.9089543705218
 21
1058.2600303126874
  0
LINE
  8
_2-2_in_line
  6
CONTINUOUS
 62
    7
 10
1090.9089543705218
 20
1058.2600303126874
 11
1091.1652746358075
 21
1058.2869370737758
  0
LINE
  8
_2-2_in_line
  6
CONTINUOUS
 62
    7
 10
1091.1652746358075
 20
1058.2869370737758
 11
1091.4216699643887
 21
1058.305795321075
  0
LINE
  8
_2-2_in_line
  6
CONTINUOUS
 62
    7
 10
1091.4216699643887
 20
1058.305795321075
 11
1091.6776978010196
 21
1058.3151414122626
  0
LINE
  8
_2-2_in_line
  6
CONTINUOUS
 62
    7
 10
1091.6776978010196
 20
1058.3151414122626
 11
1091.9329155904531
 21
1058.313511705016
  0
LINE
  8
_2-2_in_line
  6
CONTINUOUS
 62
    7
 10
1091.9329155904531
 20
1058.313511705016
 11
1092.1868807774447
 21
1058.2994425570128
  0
LINE
  8
_2-2_in_line
  6
CONTINUOUS
 62
    7
 10
1092.1868807774447
 20
1058.2994425570128
 11
1092.3334322536803
 21
1058.2850059482321
  0
LINE
  8
_2-2_in_line
  6
CONTINUOUS
 62
    7
 10
1092.3334322536803
 20
1058.2850059482321
 11
1092.4407764452465
 21
1058.2713161621468
  0
LINE
  8
_2-2_in_line
  6
CONTINUOUS
 62
    7
 10
1092.4407764452465
 20
1058.2713161621468
 11
1092.6252265060159
 21
1058.2423565309064
  0
LINE
  8
_2-2_in_line
  6
CONTINUOUS
 62
    7
 10
1092.6252265060159
 20
1058.2423565309064
 11
1092.8091973634573
 21
1058.2080410493672
  0
LINE
  8
_2-2_in_line
  6
CONTINUOUS
 62
    7
 10
1092.8091973634573
 20
1058.2080410493672
 11
1092.9930533993152
 21
1058.1700262233398
  0
LINE
  8
_2-2_in_line
  6
CONTINUOUS
 62
    7
 10
1092.9930533993152
 20
1058.1700262233398
 11
1093.1771589953362
 21
1058.1299685586346
  0
LINE
  8
_2-2_in_line
  6
CONTINUOUS
 62
    7
 10
1093.1771589953362
 20
1058.1299685586346
 11
1093.3618785332637
 21
1058.0895245610573
  0
LINE
  8
_2-2_in_line
  6
CONTINUOUS
 62
    7
 10
1093.3618785332637
 20
1058.0895245610573
 11
1093.4694407587997
 21
1058.0665427741719
  0
LINE
  8
_2-2_in_line
  6
CONTINUOUS
 62
    7
 10
1093.4694407587997
 20
1058.0665427741719
 11
1093.591551990128
 21
1058.0412690526732
  0
LINE
  8
_2-2_in_line
  6
CONTINUOUS
 62
    7
 10
1093.591551990128
 20
1058.0412690526732
 11
1093.8023500136912
 21
1057.9979195364372
  0
LINE
  8
_2-2_in_line
  6
CONTINUOUS
 62
    7
 10
1093.8023500136912
 20
1057.9979195364372
 11
1094.012055237529
 21
1057.9517863782889
  0
LINE
  8
_2-2_in_line
  6
CONTINUOUS
 62
    7
 10
1094.012055237529
 20
1057.9517863782889
 11
1094.2190121867966
 21
1057.8993003365867
  0
LINE
  8
_2-2_in_line
  6
CONTINUOUS
 62
    7
 10
1094.2190121867966
 20
1057.8993003365867
 11
1094.4215653866515
 21
1057.8368921696865
  0
LINE
  8
_2-2_in_line
  6
CONTINUOUS
 62
    7
 10
1094.4215653866515
 20
1057.8368921696865
 11
1094.6180593622514
 21
1057.7609926359532
  0
LINE
  8
_2-2_in_line
  6
CONTINUOUS
 62
    7
 10
1094.6180593622514
 20
1057.7609926359532
 11
1094.7285971883709
 21
1057.7093826952973
  0
LINE
  8
_2-2_in_line
  6
CONTINUOUS
 62
    7
 10
1094.7285971883709
 20
1057.7093826952973
 11
1094.8279194195507
 21
1057.6562972233723
  0
LINE
  8
_2-2_in_line
  6
CONTINUOUS
 62
    7
 10
1094.8279194195507
 20
1057.6562972233723
 11
1094.9933433347408
 21
1057.5530109422739
  0
LINE
  8
_2-2_in_line
  6
CONTINUOUS
 62
    7
 10
1094.9933433347408
 20
1057.5530109422739
 11
1095.1513949060998
 21
1057.4364613105417
  0
LINE
  8
_2-2_in_line
  6
CONTINUOUS
 62
    7
 10
1095.1513949060998
 20
1057.4364613105417
 11
1095.302069952518
 21
1057.3085346372268
  0
LINE
  8
_2-2_in_line
  6
CONTINUOUS
 62
    7
 10
1095.302069952518
 20
1057.3085346372268
 11
1095.4453642928834
 21
1057.1711172313799
  0
LINE
  8
_2-2_in_line
  6
CONTINUOUS
 62
    7
 10
1095.4453642928834
 20
1057.1711172313799
 11
1095.5812737460885
 21
1057.0260954020519
  0
LINE
  8
_2-2_in_line
  6
CONTINUOUS
 62
    7
 10
1095.5812737460885
 20
1057.0260954020519
 11
1095.6567158260739
 21
1056.9392416980527
  0
LINE
  8
_2-2_in_line
  6
CONTINUOUS
 62
    7
 10
1095.6567158260739
 20
1056.9392416980527
 11
1095.7410108504453
 21
1056.8366743100632
  0
LINE
  8
_2-2_in_line
  6
CONTINUOUS
 62
    7
 10
1095.7410108504453
 20
1056.8366743100632
 11
1095.8791827097141
 21
1056.6553893003261
  0
LINE
  8
_2-2_in_line
  6
CONTINUOUS
 62
    7
 10
1095.8791827097141
 20
1056.6553893003261
 11
1096.0092929767327
 21
1056.469164625707
  0
LINE
  8
_2-2_in_line
  6
CONTINUOUS
 62
    7
 10
1096.0092929767327
 20
1056.469164625707
 11
1096.1325128787191
 21
1056.2787985646169
  0
LINE
  8
_2-2_in_line
  6
CONTINUOUS
 62
    7
 10
1096.1325128787191
 20
1056.2787985646169
 11
1096.2500136428891
 21
1056.0850893954735
  0
LINE
  8
_2-2_in_line
  6
CONTINUOUS
 62
    7
 10
1096.2500136428891
 20
1056.0850893954735
 11
1096.3629664964574
 21
1055.88883539669
  0
LINE
  8
_2-2_in_line
  6
CONTINUOUS
 62
    7
 10
1096.3629664964574
 20
1055.88883539669
 11
1096.4268568233163
 21
1055.7741565996612
  0
LINE
  8
_2-2_in_line
  6
CONTINUOUS
 62
    7
 10
1096.4268568233163
 20
1055.7741565996612
 11
1096.494124190822
 21
1055.6510900075245
  0
LINE
  8
_2-2_in_line
  6
CONTINUOUS
 62
    7
 10
1096.494124190822
 20
1055.6510900075245
 11
1096.6081054320309
 21
1055.4378832511561
  0
LINE
  8
_2-2_in_line
  6
CONTINUOUS
 62
    7
 10
1096.6081054320309
 20
1055.4378832511561
 11
1096.7202199803958
 21
1055.22358625162
  0
LINE
  8
_2-2_in_line
  6
CONTINUOUS
 62
    7
 10
1096.7202199803958
 20
1055.22358625162
 11
1096.831236589642
 21
1055.0084369905467
  0
LINE
  8
_2-2_in_line
  6
CONTINUOUS
 62
    7
 10
1096.831236589642
 20
1055.0084369905467
 11
1096.9419240135007
 21
1054.7926734495645
  0
LINE
  8
_2-2_in_line
  6
CONTINUOUS
 62
    7
 10
1096.9419240135007
 20
1054.7926734495645
 11
1097.0530510056985
 21
1054.5765336103086
  0
LINE
  8
_2-2_in_line
  6
CONTINUOUS
 62
    7
 10
1097.0530510056985
 20
1054.5765336103086
 11
1097.1180090003295
 21
1054.4510938608091
  0
LINE
  8
_2-2_in_line
  6
CONTINUOUS
 62
    7
 10
1097.1180090003295
 20
1054.4510938608091
 11
1097.2064224545047
 21
1054.2822656778021
  0
LINE
  8
_2-2_in_line
  6
CONTINUOUS
 62
    7
 10
1097.2064224545047
 20
1054.2822656778021
 11
1097.3629272704354
 21
1053.9928699119146
  0
LINE
  8
_2-2_in_line
  6
CONTINUOUS
 62
    7
 10
1097.3629272704354
 20
1053.9928699119146
 11
1097.5271488636624
 21
1053.7081617356644
  0
LINE
  8
_2-2_in_line
  6
CONTINUOUS
 62
    7
 10
1097.5271488636624
 20
1053.7081617356644
 11
1097.7020728510481
 21
1053.431108307645
  0
LINE
  8
_2-2_in_line
  6
CONTINUOUS
 62
    7
 10
1097.7020728510481
 20
1053.431108307645
 11
1097.890684849448
 21
1053.164676786459
  0
LINE
  8
_2-2_in_line
  6
CONTINUOUS
 62
    7
 10
1097.890684849448
 20
1053.164676786459
 11
1098.0959704757233
 21
1052.9118343307023
  0
LINE
  8
_2-2_in_line
  6
CONTINUOUS
 62
    7
 10
1098.0959704757233
 20
1052.9118343307023
 11
1098.22385248355
 21
1052.7725814309219
  0
LINE
  8
_2-2_in_line
  6
CONTINUOUS
 62
    7
 10
1098.22385248355
 20
1052.7725814309219
 11
1098.2700676558536
 21
1052.7254764250115
  0
LINE
  8
_2-2_in_line
  6
CONTINUOUS
 62
    7
 10
1098.2700676558536
 20
1052.7254764250115
 11
1098.3517669173946
 21
1052.6461313299747
  0
LINE
  8
_2-2_in_line
  6
CONTINUOUS
 62
    7
 10
1098.3517669173946
 20
1052.6461313299747
 11
1098.4359693097249
 21
1052.5693312205335
  0
LINE
  8
_2-2_in_line
  6
CONTINUOUS
 62
    7
 10
1098.4359693097249
 20
1052.5693312205335
 11
1098.5226152852194
 21
1052.4952823172084
  0
LINE
  8
_2-2_in_line
  6
CONTINUOUS
 62
    7
 10
1098.5226152852194
 20
1052.4952823172084
 11
1098.6116452962553
 21
1052.4241908405174
  0
LINE
  8
_2-2_in_line
  6
CONTINUOUS
 62
    7
 10
1098.6116452962553
 20
1052.4241908405174
 11
1098.7029997952075
 21
1052.3562630109877
  0
LINE
  8
_2-2_in_line
  6
CONTINUOUS
 62
    7
 10
1098.7029997952075
 20
1052.3562630109877
 11
1098.7570270201015
 21
1052.3183957145984
  0
LINE
  8
_2-2_in_line
  6
CONTINUOUS
 62
    7
 10
1098.7570270201015
 20
1052.3183957145984
 11
1098.8466284311905
 21
1052.2591030242206
  0
LINE
  8
_2-2_in_line
  6
CONTINUOUS
 62
    7
 10
1098.8466284311905
 20
1052.2591030242206
 11
1099.0048198753609
 21
1052.1626897600249
  0
LINE
  8
_2-2_in_line
  6
CONTINUOUS
 62
    7
 10
1099.0048198753609
 20
1052.1626897600249
 11
1099.1662311623932
 21
1052.0713613509538
  0
LINE
  8
_2-2_in_line
  6
CONTINUOUS
 62
    7
 10
1099.1662311623932
 20
1052.0713613509538
 11
1099.3291511106863
 21
1051.9824706425034
  0
LINE
  8
_2-2_in_line
  6
CONTINUOUS
 62
    7
 10
1099.3291511106863
 20
1051.9824706425034
 11
1099.4918685386394
 21
1051.8933704801675
  0
LINE
  8
_2-2_in_line
  6
CONTINUOUS
 62
    7
 10
1099.4918685386394
 20
1051.8933704801675
 11
1099.6526722646515
 21
1051.8014137094424
  0
LINE
  8
_2-2_in_line
  6
CONTINUOUS
 62
    7
 10
1099.6526722646515
 20
1051.8014137094424
 11
1099.7443872729766
 21
1051.7457267679306
  0
LINE
  8
_2-2_in_line
  6
CONTINUOUS
 62
    7
 10
1099.7443872729766
 20
1051.7457267679306
 11
1099.836798265376
 21
1051.6863619980581
  0
LINE
  8
_2-2_in_line
  6
CONTINUOUS
 62
    7
 10
1099.836798265376
 20
1051.6863619980581
 11
1099.9927412675302
 21
1051.5788602362904
  0
LINE
  8
_2-2_in_line
  6
CONTINUOUS
 62
    7
 10
1099.9927412675302
 20
1051.5788602362904
 11
1100.1450638097517
 21
1051.4658770463229
  0
LINE
  8
_2-2_in_line
  6
CONTINUOUS
 62
    7
 10
1100.1450638097517
 20
1051.4658770463229
 11
1100.2945402984872
 21
1051.3486169939274
  0
LINE
  8
_2-2_in_line
  6
CONTINUOUS
 62
    7
 10
1100.2945402984872
 20
1051.3486169939274
 11
1100.4419451401807
 21
1051.2282846448779
  0
LINE
  8
_2-2_in_line
  6
CONTINUOUS
 62
    7
 10
1100.4419451401807
 20
1051.2282846448779
 11
1100.5880527412764
 21
1051.1060845649531
  0
LINE
  8
_2-2_in_line
  6
CONTINUOUS
 62
    7
 10
1100.5880527412764
 20
1051.1060845649531
 11
1100.6725059106795
 21
1051.0348273858604
  0
LINE
  8
_2-2_in_line
  6
CONTINUOUS
 62
    7
 10
1100.6725059106795
 20
1051.0348273858604
 11
1100.7783477742978
 21
1050.945346801961
  0
LINE
  8
_2-2_in_line
  6
CONTINUOUS
 62
    7
 10
1100.7783477742978
 20
1050.945346801961
 11
1100.9599205526072
 21
1050.7902637481648
  0
LINE
  8
_2-2_in_line
  6
CONTINUOUS
 62
    7
 10
1100.9599205526072
 20
1050.7902637481648
 11
1101.1390952052332
 21
1050.6328745799233
  0
LINE
  8
_2-2_in_line
  6
CONTINUOUS
 62
    7
 10
1101.1390952052332
 20
1050.6328745799233
 11
1101.3144273314574
 21
1050.4716843819979
  0
LINE
  8
_2-2_in_line
  6
CONTINUOUS
 62
    7
 10
1101.3144273314574
 20
1050.4716843819979
 11
1101.4844725305672
 21
1050.3051982391476
  0
LINE
  8
_2-2_in_line
  6
CONTINUOUS
 62
    7
 10
1101.4844725305672
 20
1050.3051982391476
 11
1101.6477864018455
 21
1050.1319212361382
  0
LINE
  8
_2-2_in_line
  6
CONTINUOUS
 62
    7
 10
1101.6477864018455
 20
1050.1319212361382
 11
1101.7388549837849
 21
1050.0277199279271
  0
LINE
  8
_2-2_in_line
  6
CONTINUOUS
 62
    7
 10
1101.7388549837849
 20
1050.0277199279271
 11
1101.7905142564214
 21
1049.9656326524059
  0
LINE
  8
_2-2_in_line
  6
CONTINUOUS
 62
    7
 10
1101.7905142564214
 20
1049.9656326524059
 11
1101.8768393667269
 21
1049.8561599125669
  0
LINE
  8
_2-2_in_line
  6
CONTINUOUS
 62
    7
 10
1101.8768393667269
 20
1049.8561599125669
 11
1101.9591992388589
 21
1049.7436586548083
  0
LINE
  8
_2-2_in_line
  6
CONTINUOUS
 62
    7
 10
1101.9591992388589
 20
1049.7436586548083
 11
1102.0370199296044
 21
1049.628177722097
  0
LINE
  8
_2-2_in_line
  6
CONTINUOUS
 62
    7
 10
1102.0370199296044
 20
1049.628177722097
 11
1102.1097274957494
 21
1049.5097659574044
  0
LINE
  8
_2-2_in_line
  6
CONTINUOUS
 62
    7
 10
1102.1097274957494
 20
1049.5097659574044
 11
1102.1767479940777
 21
1049.3884722036996
  0
LINE
  8
_2-2_in_line
  6
CONTINUOUS
 62
    7
 10
1102.1767479940777
 20
1049.3884722036996
 11
1102.2127879051643
 21
1049.3168205458592
  0
LINE
  8
_2-2_in_line
  6
CONTINUOUS
 62
    7
 10
1102.2127879051643
 20
1049.3168205458592
 11
1102.2594397585228
 21
1049.2153446548077
  0
LINE
  8
_2-2_in_line
  6
CONTINUOUS
 62
    7
 10
1102.2594397585228
 20
1049.2153446548077
 11
1102.3309265168725
 21
1049.0365802757578
  0
LINE
  8
_2-2_in_line
  6
CONTINUOUS
 62
    7
 10
1102.3309265168725
 20
1049.0365802757578
 11
1102.3928778554969
 21
1048.8537598576086
  0
LINE
  8
_2-2_in_line
  6
CONTINUOUS
 62
    7
 10
1102.3928778554969
 20
1048.8537598576086
 11
1102.4473757437661
 21
1048.6677689984181
  0
LINE
  8
_2-2_in_line
  6
CONTINUOUS
 62
    7
 10
1102.4473757437661
 20
1048.6677689984181
 11
1102.4965021510527
 21
1048.4794932962445
  0
LINE
  8
_2-2_in_line
  6
CONTINUOUS
 62
    7
 10
1102.4965021510527
 20
1048.4794932962445
 11
1102.5423390467304
 21
1048.2898183491393
  0
LINE
  8
_2-2_in_line
  6
CONTINUOUS
 62
    7
 10
1102.5423390467304
 20
1048.2898183491393
 11
1102.5682375961994
 21
1048.179514717478
  0
LINE
  8
_2-2_in_line
  6
CONTINUOUS
 62
    7
 10
1041.8203617335851
 20
1048.179514717478
 11
1091.8203617335851
 21
1048.179514717478
  0
LINE
  8
_2-2_in_line
  6
CONTINUOUS
 62
    7
 10
667.44350668074742
 20
1033.179514717478
 11
1417.4435066807473
 21
1033.179514717478
  0
TEXT
  8
_2-a_moji
 62
    7
 10
814.79194101400606
 20
928.03914301041402
 40
15
 41
1
 50
0
  1
ＥＬ-2001注入
  0
TEXT
  8
_2-b_dim
 62
    7
 10
1043.8488655916117
 20
969.99328780689837
 40
15
 41
1
 50
0
  1
40以上
  0
LINE
  8
_2-7_ビス
  6
CONTINUOUS
 62
    7
 10
770.44350668074867
 20
999.08402954456562
 11
770.44350668074867
 21
1003.1795147174779
  0
LINE
  8
_2-7_ビス
  6
CONTINUOUS
 62
    7
 10
770.44350668074867
 20
1003.1795147174779
 11
767.44350668074799
 21
1003.1795147174779
  0
LINE
  8
_2-7_ビス
  6
CONTINUOUS
 62
    7
 10
770.44350668074867
 20
999.08402954456562
 11
771.19350668074799
 21
998.25946862436183
  0
LINE
  8
_2-7_ビス
  6
CONTINUOUS
 62
    7
 10
771.19350668074799
 20
998.25946862436183
 11
771.19350668074799
 21
996.16086289724706
  0
LINE
  8
_2-7_ビス
  6
CONTINUOUS
 62
    7
 10
771.19350668074799
 20
996.16086289724706
 11
770.64528743074743
 21
992.04326958399804
  0
LINE
  8
_2-7_ビス
  6
CONTINUOUS
 62
    7
 10
770.64528743074743
 20
992.04326958399804
 11
770.40336368074759
 21
991.6356550754773
  0
LINE
  8
_2-7_ビス
  6
CONTINUOUS
 62
    7
 10
770.40336368074759
 20
991.6356550754773
 11
770.44350668074867
 21
991.6356550754773
  0
LINE
  8
_2-7_ビス
  6
CONTINUOUS
 62
    7
 10
770.44350668074867
 20
991.6356550754773
 11
770.44350668074867
 21
989.82161998887761
  0
LINE
  8
_2-7_ビス
  6
CONTINUOUS
 62
    7
 10
770.44350668074867
 20
989.82161998887761
 11
770.01049412018074
 21
988.99705858587765
  0
LINE
  8
_2-7_ビス
  6
CONTINUOUS
 62
    7
 10
770.14039793074812
 20
988.74969016497687
 11
771.11850668074749
 21
988.74969016497687
  0
LINE
  8
_2-7_ビス
  6
CONTINUOUS
 62
    7
 10
771.11850668074749
 20
988.74969016497687
 11
771.11850668074749
 21
984.51629957109787
  0
LINE
  8
_2-7_ビス
  6
CONTINUOUS
 62
    7
 10
771.11850668074749
 20
984.51629957109787
 11
770.6170371807475
 21
983.55495332607745
  0
LINE
  8
_2-7_ビス
  6
CONTINUOUS
 62
    7
 10
770.6170371807475
 20
983.55495332607745
 11
770.61225668074781
 21
983.55495332607745
  0
LINE
  8
_2-7_ビス
  6
CONTINUOUS
 62
    7
 10
770.61225250746315
 20
983.55495367985952
 11
770.61225668074781
 21
983.55495332607745
  0
LINE
  8
_2-7_ビス
  6
CONTINUOUS
 62
    7
 10
770.61225250746315
 20
983.55495367985952
 11
770.61225668074781
 21
983.55495332607745
  0
LINE
  8
_2-7_ビス
  6
CONTINUOUS
 62
    7
 10
770.57966543074781
 20
982.48302350217784
 11
771.11850668074749
 21
982.48302350217784
  0
LINE
  8
_2-7_ビス
  6
CONTINUOUS
 62
    7
 10
771.11850668074749
 20
982.48302350217784
 11
771.11850668074749
 21
976.68579036540393
  0
LINE
  8
_2-7_ビス
  6
CONTINUOUS
 62
    7
 10
771.11850668074749
 20
976.68579036540393
 11
770.61225949368759
 21
975.72163899563918
  0
LINE
  8
_2-7_ビス
  6
CONTINUOUS
 62
    7
 10
770.61225668074781
 20
975.72161999757725
 11
770.60866505039212
 21
976.19907139481768
  0
LINE
  8
_2-7_ビス
  6
CONTINUOUS
 62
    7
 10
770.60866505039212
 20
976.19907139481768
 11
770.28798504276847
 21
976.21635683937768
  0
LINE
  8
_2-7_ビス
  6
CONTINUOUS
 62
    7
 10
770.12932300260059
 20
976.46372526027733
 11
770.57966543074781
 21
977.28828666327729
  0
LINE
  8
_2-7_ビス
  6
CONTINUOUS
 62
    7
 10
770.57966543074781
 20
977.28828666327729
 11
770.57966558287103
 21
977.7657381322723
  0
LINE
  8
_2-7_ビス
  6
CONTINUOUS
 62
    7
 10
770.57966558287103
 20
977.7657381322723
 11
770.23163318074876
 21
977.78302350507772
  0
LINE
  8
_2-7_ビス
  6
CONTINUOUS
 62
    7
 10
770.0720434310274
 20
978.03039192597737
 11
770.57966543074781
 21
978.85495332897733
  0
LINE
  8
_2-7_ビス
  6
CONTINUOUS
 62
    7
 10
770.57966543074781
 20
978.85495332897733
 11
770.57966543074781
 21
979.33240489008597
  0
LINE
  8
_2-7_ビス
  6
CONTINUOUS
 62
    7
 10
770.57966543074781
 20
979.33240489008597
 11
770.23163318074876
 21
979.34969017077776
  0
LINE
  8
_2-7_ビス
  6
CONTINUOUS
 62
    7
 10
770.0720434310274
 20
979.59705859167741
 11
770.57966543074781
 21
980.42161999467737
  0
LINE
  8
_2-7_ビス
  6
CONTINUOUS
 62
    7
 10
770.57966543074781
 20
980.42161999467737
 11
770.57966543074781
 21
980.89907155578601
  0
LINE
  8
_2-7_ビス
  6
CONTINUOUS
 62
    7
 10
770.57966543074781
 20
980.89907155578601
 11
770.23163318074876
 21
980.9163568364778
  0
LINE
  8
_2-7_ビス
  6
CONTINUOUS
 62
    7
 10
770.0720434310274
 20
981.16372525737745
 11
770.57966558287103
 21
981.98828666037741
  0
LINE
  8
_2-7_ビス
  6
CONTINUOUS
 62
    7
 10
770.57966558287103
 20
981.98828666037741
 11
770.57966543074781
 21
982.48302350217784
  0
LINE
  8
_2-7_ビス
  6
CONTINUOUS
 62
    7
 10
770.61225250746315
 20
983.55495367985952
 11
770.60856730621776
 21
984.0324051488534
  0
LINE
  8
_2-7_ビス
  6
CONTINUOUS
 62
    7
 10
770.60856730621776
 20
984.0324051488534
 11
770.2911224307486
 21
984.04969016787788
  0
LINE
  8
_2-7_ビス
  6
CONTINUOUS
 62
    7
 10
770.12903029042786
 20
984.29705858877753
 11
770.57966558287103
 21
985.12161999177749
  0
LINE
  8
_2-7_ビス
  6
CONTINUOUS
 62
    7
 10
770.57966558287103
 20
985.12161999177749
 11
770.57966558287103
 21
985.59907146077137
  0
LINE
  8
_2-7_ビス
  6
CONTINUOUS
 62
    7
 10
770.57966558287103
 20
985.59907146077137
 11
770.23163318074876
 21
985.61635683357792
  0
LINE
  8
_2-7_ビス
  6
CONTINUOUS
 62
    7
 10
770.0720434310274
 20
985.86372525447757
 11
770.57966543074781
 21
986.68828665747753
  0
LINE
  8
_2-7_ビス
  6
CONTINUOUS
 62
    7
 10
770.57966543074781
 20
986.68828665747753
 11
770.57966558287103
 21
987.16573812647141
  0
LINE
  8
_2-7_ビス
  6
CONTINUOUS
 62
    7
 10
770.57966558287103
 20
987.16573812647141
 11
770.2307470882597
 21
987.18325508043733
  0
LINE
  8
_2-7_ビス
  6
CONTINUOUS
 62
    7
 10
770.0720434310274
 20
987.43039192017761
 11
770.57966558287103
 21
988.25495332317757
  0
LINE
  8
_2-7_ビス
  6
CONTINUOUS
 62
    7
 10
770.57966558287103
 20
988.25495332317757
 11
770.57966542524082
 21
988.74969016497687
  0
LINE
  8
_2-7_ビス
  6
CONTINUOUS
 62
    7
 10
770.57966543074781
 20
974.64969017367764
 11
771.11850668074749
 21
974.64969017367764
  0
LINE
  8
_2-7_ビス
  6
CONTINUOUS
 62
    7
 10
771.11850668074749
 20
974.64969017367764
 11
771.11850668074749
 21
971.40144843884002
  0
LINE
  8
_2-7_ビス
  6
CONTINUOUS
 62
    7
 10
771.11850668074749
 20
971.40144843884002
 11
770.61272093074831
 21
967.88828666907705
  0
LINE
  8
_2-7_ビス
  6
CONTINUOUS
 62
    7
 10
770.61272093074831
 20
967.88828666907705
 11
770.6119864130842
 21
968.36573775321824
  0
LINE
  8
_2-7_ビス
  6
CONTINUOUS
 62
    7
 10
770.6119864130842
 20
968.36573775321824
 11
770.30329793074725
 21
968.38302351087748
  0
LINE
  8
_2-7_ビス
  6
CONTINUOUS
 62
    7
 10
770.61272093074831
 20
967.88828666907705
 11
770.17924412018101
 21
967.06372526607709
  0
LINE
  8
_2-7_ビス
  6
CONTINUOUS
 62
    7
 10
770.15874136595994
 20
968.63039193177713
 11
770.60934369942015
 21
969.45495333477709
  0
LINE
  8
_2-7_ビス
  6
CONTINUOUS
 62
    7
 10
770.60934369942015
 20
969.45495333477709
 11
770.60725879515826
 21
969.93240441891714
  0
LINE
  8
_2-7_ビス
  6
CONTINUOUS
 62
    7
 10
770.60725879515826
 20
969.93240441891714
 11
770.28493193074792
 21
969.94969017657752
  0
LINE
  8
_2-7_ビス
  6
CONTINUOUS
 62
    7
 10
770.1364264349304
 20
970.19705859747717
 11
770.60029429425367
 21
971.02161961562331
  0
LINE
  8
_2-7_ビス
  6
CONTINUOUS
 62
    7
 10
770.60029429425367
 20
971.02161961562331
 11
770.59623145355727
 21
971.49907108461832
  0
LINE
  8
_2-7_ビス
  6
CONTINUOUS
 62
    7
 10
770.59623145355727
 20
971.49907108461832
 11
770.26157809828942
 21
971.51635684227756
  0
LINE
  8
_2-7_ビス
  6
CONTINUOUS
 62
    7
 10
770.10432348212089
 20
971.76372526317721
 11
770.58452610632639
 21
972.58828628132335
  0
LINE
  8
_2-7_ビス
  6
CONTINUOUS
 62
    7
 10
770.58452610632639
 20
972.58828628132335
 11
770.57966543074781
 21
973.06573822728581
  0
LINE
  8
_2-7_ビス
  6
CONTINUOUS
 62
    7
 10
770.57966543074781
 20
973.06573822728581
 11
770.23163318074876
 21
973.0830235079776
  0
LINE
  8
_2-7_ビス
  6
CONTINUOUS
 62
    7
 10
770.0720434310274
 20
973.33039192887725
 11
770.57966558287103
 21
974.15495333187721
  0
LINE
  8
_2-7_ビス
  6
CONTINUOUS
 62
    7
 10
770.57966558287103
 20
974.15495333187721
 11
770.57966543074781
 21
974.64969017367764
  0
LINE
  8
_2-7_ビス
  6
CONTINUOUS
 62
    7
 10
770.30914793074726
 20
966.81635684517744
 11
770.44350668074867
 21
966.81635684517744
  0
LINE
  8
_2-7_ビス
  6
CONTINUOUS
 62
    7
 10
770.44350668074867
 20
966.81635684517744
 11
770.44350668074867
 21
966.03302351232685
  0
LINE
  8
_2-7_ビス
  6
CONTINUOUS
 62
    7
 10
770.44350668074867
 20
966.03302351232685
 11
770.29350668074767
 21
966.03302351232685
  0
LINE
  8
_2-7_ビス
  6
CONTINUOUS
 62
    7
 10
770.29350668074767
 20
966.03302351232685
 11
770.29350668074767
 21
964.42512877647744
  0
LINE
  8
_2-7_ビス
  6
CONTINUOUS
 62
    7
 10
770.29350668074767
 20
964.42512877647744
 11
770.28703986994697
 21
964.42512877647744
  0
LINE
  8
_2-7_ビス
  6
CONTINUOUS
 62
    7
 10
770.23676468074837
 20
964.09530421527791
 11
770.23676453420944
 21
958.14486262245794
  0
LINE
  8
_2-7_ビス
  6
CONTINUOUS
 62
    7
 10
770.23676453420944
 20
958.14486262245794
 11
769.79632718074822
 21
957.49344179829848
  0
LINE
  8
_2-7_ビス
  6
CONTINUOUS
 62
    7
 10
769.79632718074822
 20
957.49344179829848
 11
768.7935066807479
 21
956.17951474647782
  0
LINE
  8
_2-7_ビス
  6
CONTINUOUS
 62
    7
 10
768.7935066807479
 20
956.17951474647782
 11
768.64412820125335
 21
956.17951474647782
  0
LINE
  8
_2-7_ビス
  6
CONTINUOUS
 62
    7
 10
768.64412820125335
 20
956.17951474647782
 11
769.72922231056782
 21
958.14486262245794
  0
LINE
  8
_2-7_ビス
  6
CONTINUOUS
 62
    7
 10
769.72922231056782
 20
958.14486262245794
 11
769.72922243074845
 21
962.11635684807732
  0
LINE
  8
_2-7_ビス
  6
CONTINUOUS
 62
    7
 10
769.14585893074855
 20
962.11635684807732
 11
769.14585920418017
 21
958.14486277515641
  0
LINE
  8
_2-7_ビス
  6
CONTINUOUS
 62
    7
 10
769.14585920418017
 20
958.14486277515641
 11
768.06076483894753
 21
956.17951474647782
  0
LINE
  8
_2-7_ビス
  6
CONTINUOUS
 62
    7
 10
768.06076483894753
 20
956.17951474647782
 11
767.44350668074799
 21
956.17951474647782
  0
LINE
  8
_2-7_ビス
  6
CONTINUOUS
 62
    7
 10
770.02120678583117
 20
989.01745799854302
 11
770.02120678583117
 21
989.01745799854302
  0
LINE
  8
_2-7_ビス
  6
CONTINUOUS
 62
    7
 10
770.02120678583117
 20
989.01745799854302
 11
770.00800866047632
 21
988.9911986431664
  0
LINE
  8
_2-7_ビス
  6
CONTINUOUS
 62
    7
 10
770.00800866047632
 20
988.9911986431664
 11
769.99915860310489
 21
988.96281855319751
  0
LINE
  8
_2-7_ビス
  6
CONTINUOUS
 62
    7
 10
769.99915860310489
 20
988.96281855319751
 11
769.99492551823175
 21
988.93318004330911
  0
LINE
  8
_2-7_ビス
  6
CONTINUOUS
 62
    7
 10
769.99492551823175
 20
988.93318004330911
 11
769.99543802599896
 21
988.90318366462611
  0
LINE
  8
_2-7_ビス
  6
CONTINUOUS
 62
    7
 10
769.99543802599896
 20
988.90318366462611
 11
770.00068055411714
 21
988.87374084193618
  0
LINE
  8
_2-7_ビス
  6
CONTINUOUS
 62
    7
 10
770.00068055411714
 20
988.87374084193618
 11
770.01049381102234
 21
988.84574618050783
  0
LINE
  8
_2-7_ビス
  6
CONTINUOUS
 62
    7
 10
770.01049381102234
 20
988.84574618050783
 11
770.02457962586925
 21
988.82005028396259
  0
LINE
  8
_2-7_ビス
  6
CONTINUOUS
 62
    7
 10
770.02457962586925
 20
988.82005028396259
 11
770.04251000830152
 21
988.79743390911426
  0
LINE
  8
_2-7_ビス
  6
CONTINUOUS
 62
    7
 10
770.04251000830152
 20
988.79743390911426
 11
770.06374015272206
 21
988.77858424306817
  0
LINE
  8
_2-7_ビス
  6
CONTINUOUS
 62
    7
 10
770.06374015272206
 20
988.77858424306817
 11
770.08762499193574
 21
988.76407402338862
  0
LINE
  8
_2-7_ビス
  6
CONTINUOUS
 62
    7
 10
770.08762499193574
 20
988.76407402338862
 11
770.11343879718936
 21
988.75434413575829
  0
LINE
  8
_2-7_ビス
  6
CONTINUOUS
 62
    7
 10
770.11343879718936
 20
988.75434413575829
 11
770.14039722907262
 21
988.749690217889
  0
LINE
  8
_2-7_ビス
  6
CONTINUOUS
 62
    7
 10
770.14039722907262
 20
988.749690217889
 11
770.14039793074812
 21
988.74969016497687
  0
LINE
  8
_2-7_ビス
  6
CONTINUOUS
 62
    7
 10
770.07204343102671
 20
987.43039192017727
 11
770.07204343102671
 21
987.43039192017727
  0
LINE
  8
_2-7_ビス
  6
CONTINUOUS
 62
    7
 10
770.07204343102671
 20
987.43039192017727
 11
770.0713723254396
 21
987.39043376618895
  0
LINE
  8
_2-7_ビス
  6
CONTINUOUS
 62
    7
 10
770.0713723254396
 20
987.39043376618895
 11
770.0770226440037
 21
987.35095454460668
  0
LINE
  8
_2-7_ビス
  6
CONTINUOUS
 62
    7
 10
770.0770226440037
 20
987.35095454460668
 11
770.08882270464846
 21
987.31315381160084
  0
LINE
  8
_2-7_ビス
  6
CONTINUOUS
 62
    7
 10
770.08882270464846
 20
987.31315381160084
 11
770.10641396850235
 21
987.27818012331568
  0
LINE
  8
_2-7_ビス
  6
CONTINUOUS
 62
    7
 10
770.10641396850235
 20
987.27818012331568
 11
770.1292619339149
 21
987.24709613757216
  0
LINE
  8
_2-7_ビス
  6
CONTINUOUS
 62
    7
 10
770.1292619339149
 20
987.24709613757216
 11
770.15667237701871
 21
987.22084632554788
  0
LINE
  8
_2-7_ビス
  6
CONTINUOUS
 62
    7
 10
770.15667237701871
 20
987.22084632554788
 11
770.18781244537013
 21
987.20022827449816
  0
LINE
  8
_2-7_ビス
  6
CONTINUOUS
 62
    7
 10
770.18781244537013
 20
987.20022827449816
 11
770.22173596375023
 21
987.1858684534709
  0
LINE
  8
_2-7_ビス
  6
CONTINUOUS
 62
    7
 10
770.22173596375023
 20
987.1858684534709
 11
770.23163318074739
 21
987.18302349927728
  0
LINE
  8
_2-7_ビス
  6
CONTINUOUS
 62
    7
 10
770.07204343102671
 20
985.86372525447723
 11
770.07204343102671
 21
985.86372525447723
  0
LINE
  8
_2-7_ビス
  6
CONTINUOUS
 62
    7
 10
770.07204343102671
 20
985.86372525447723
 11
770.0713723254396
 21
985.82376710048891
  0
LINE
  8
_2-7_ビス
  6
CONTINUOUS
 62
    7
 10
770.0713723254396
 20
985.82376710048891
 11
770.0770226440037
 21
985.78428787890664
  0
LINE
  8
_2-7_ビス
  6
CONTINUOUS
 62
    7
 10
770.0770226440037
 20
985.78428787890664
 11
770.08882270464846
 21
985.7464871459008
  0
LINE
  8
_2-7_ビス
  6
CONTINUOUS
 62
    7
 10
770.08882270464846
 20
985.7464871459008
 11
770.10641396850235
 21
985.71151345761564
  0
LINE
  8
_2-7_ビス
  6
CONTINUOUS
 62
    7
 10
770.10641396850235
 20
985.71151345761564
 11
770.1292619339149
 21
985.68042947187212
  0
LINE
  8
_2-7_ビス
  6
CONTINUOUS
 62
    7
 10
770.1292619339149
 20
985.68042947187212
 11
770.15667237701871
 21
985.65417965984784
  0
LINE
  8
_2-7_ビス
  6
CONTINUOUS
 62
    7
 10
770.15667237701871
 20
985.65417965984784
 11
770.18781244537013
 21
985.63356160879812
  0
LINE
  8
_2-7_ビス
  6
CONTINUOUS
 62
    7
 10
770.18781244537013
 20
985.63356160879812
 11
770.22173596375023
 21
985.61920178777086
  0
LINE
  8
_2-7_ビス
  6
CONTINUOUS
 62
    7
 10
770.22173596375023
 20
985.61920178777086
 11
770.23163318074739
 21
985.61635683357724
  0
LINE
  8
_2-7_ビス
  6
CONTINUOUS
 62
    7
 10
770.12903029042832
 20
984.29705858877719
 11
770.12903029042832
 21
984.29705858877719
  0
LINE
  8
_2-7_ビス
  6
CONTINUOUS
 62
    7
 10
770.12903029042832
 20
984.29705858877719
 11
770.1283591848412
 21
984.25710043478887
  0
LINE
  8
_2-7_ビス
  6
CONTINUOUS
 62
    7
 10
770.1283591848412
 20
984.25710043478887
 11
770.13400950340531
 21
984.2176212132066
  0
LINE
  8
_2-7_ビス
  6
CONTINUOUS
 62
    7
 10
770.13400950340531
 20
984.2176212132066
 11
770.14580956405007
 21
984.17982048020076
  0
LINE
  8
_2-7_ビス
  6
CONTINUOUS
 62
    7
 10
770.14580956405007
 20
984.17982048020076
 11
770.16340082790396
 21
984.1448467919156
  0
LINE
  8
_2-7_ビス
  6
CONTINUOUS
 62
    7
 10
770.16340082790396
 20
984.1448467919156
 11
770.18624879331651
 21
984.11376280617208
  0
LINE
  8
_2-7_ビス
  6
CONTINUOUS
 62
    7
 10
770.18624879331651
 20
984.11376280617208
 11
770.21365923642031
 21
984.0875129941478
  0
LINE
  8
_2-7_ビス
  6
CONTINUOUS
 62
    7
 10
770.21365923642031
 20
984.0875129941478
 11
770.24479930477173
 21
984.06689494309808
  0
LINE
  8
_2-7_ビス
  6
CONTINUOUS
 62
    7
 10
770.24479930477173
 20
984.06689494309808
 11
770.27872282315184
 21
984.05253512207082
  0
LINE
  8
_2-7_ビス
  6
CONTINUOUS
 62
    7
 10
770.27872282315184
 20
984.05253512207082
 11
770.288620040149
 21
984.0496901678772
  0
LINE
  8
_2-7_ビス
  6
CONTINUOUS
 62
    7
 10
770.07204343102671
 20
981.16372525737711
 11
770.07204343102671
 21
981.16372525737711
  0
LINE
  8
_2-7_ビス
  6
CONTINUOUS
 62
    7
 10
770.07204343102671
 20
981.16372525737711
 11
770.0713723254396
 21
981.12376710338879
  0
LINE
  8
_2-7_ビス
  6
CONTINUOUS
 62
    7
 10
770.0713723254396
 20
981.12376710338879
 11
770.0770226440037
 21
981.08428788180652
  0
LINE
  8
_2-7_ビス
  6
CONTINUOUS
 62
    7
 10
770.0770226440037
 20
981.08428788180652
 11
770.08882270464846
 21
981.04648714880068
  0
LINE
  8
_2-7_ビス
  6
CONTINUOUS
 62
    7
 10
770.08882270464846
 20
981.04648714880068
 11
770.10641396850235
 21
981.01151346051552
  0
LINE
  8
_2-7_ビス
  6
CONTINUOUS
 62
    7
 10
770.10641396850235
 20
981.01151346051552
 11
770.1292619339149
 21
980.980429474772
  0
LINE
  8
_2-7_ビス
  6
CONTINUOUS
 62
    7
 10
770.1292619339149
 20
980.980429474772
 11
770.15667237701871
 21
980.95417966274772
  0
LINE
  8
_2-7_ビス
  6
CONTINUOUS
 62
    7
 10
770.15667237701871
 20
980.95417966274772
 11
770.18781244537013
 21
980.933561611698
  0
LINE
  8
_2-7_ビス
  6
CONTINUOUS
 62
    7
 10
770.18781244537013
 20
980.933561611698
 11
770.22173596375023
 21
980.91920179067074
  0
LINE
  8
_2-7_ビス
  6
CONTINUOUS
 62
    7
 10
770.22173596375023
 20
980.91920179067074
 11
770.23163318074739
 21
980.91635683647712
  0
LINE
  8
_2-7_ビス
  6
CONTINUOUS
 62
    7
 10
770.07204343102671
 20
979.59705859167707
 11
770.07204343102671
 21
979.59705859167707
  0
LINE
  8
_2-7_ビス
  6
CONTINUOUS
 62
    7
 10
770.07204343102671
 20
979.59705859167707
 11
770.0713723254396
 21
979.55710043768875
  0
LINE
  8
_2-7_ビス
  6
CONTINUOUS
 62
    7
 10
770.0713723254396
 20
979.55710043768875
 11
770.0770226440037
 21
979.51762121610648
  0
LINE
  8
_2-7_ビス
  6
CONTINUOUS
 62
    7
 10
770.0770226440037
 20
979.51762121610648
 11
770.08882270464846
 21
979.47982048310064
  0
LINE
  8
_2-7_ビス
  6
CONTINUOUS
 62
    7
 10
770.08882270464846
 20
979.47982048310064
 11
770.10641396850235
 21
979.44484679481548
  0
LINE
  8
_2-7_ビス
  6
CONTINUOUS
 62
    7
 10
770.10641396850235
 20
979.44484679481548
 11
770.1292619339149
 21
979.41376280907195
  0
LINE
  8
_2-7_ビス
  6
CONTINUOUS
 62
    7
 10
770.1292619339149
 20
979.41376280907195
 11
770.15667237701871
 21
979.38751299704768
  0
LINE
  8
_2-7_ビス
  6
CONTINUOUS
 62
    7
 10
770.15667237701871
 20
979.38751299704768
 11
770.18781244537013
 21
979.36689494599796
  0
LINE
  8
_2-7_ビス
  6
CONTINUOUS
 62
    7
 10
770.18781244537013
 20
979.36689494599796
 11
770.22173596375023
 21
979.3525351249707
  0
LINE
  8
_2-7_ビス
  6
CONTINUOUS
 62
    7
 10
770.22173596375023
 20
979.3525351249707
 11
770.23163318074739
 21
979.34969017077708
  0
LINE
  8
_2-7_ビス
  6
CONTINUOUS
 62
    7
 10
770.07204343102671
 20
978.03039192597703
 11
770.07204343102671
 21
978.03039192597703
  0
LINE
  8
_2-7_ビス
  6
CONTINUOUS
 62
    7
 10
770.07204343102671
 20
978.03039192597703
 11
770.0713723254396
 21
977.99043377198871
  0
LINE
  8
_2-7_ビス
  6
CONTINUOUS
 62
    7
 10
770.0713723254396
 20
977.99043377198871
 11
770.0770226440037
 21
977.95095455040644
  0
LINE
  8
_2-7_ビス
  6
CONTINUOUS
 62
    7
 10
770.0770226440037
 20
977.95095455040644
 11
770.08882270464846
 21
977.9131538174006
  0
LINE
  8
_2-7_ビス
  6
CONTINUOUS
 62
    7
 10
770.08882270464846
 20
977.9131538174006
 11
770.10641396850235
 21
977.87818012911544
  0
LINE
  8
_2-7_ビス
  6
CONTINUOUS
 62
    7
 10
770.10641396850235
 20
977.87818012911544
 11
770.1292619339149
 21
977.84709614337191
  0
LINE
  8
_2-7_ビス
  6
CONTINUOUS
 62
    7
 10
770.1292619339149
 20
977.84709614337191
 11
770.15667237701871
 21
977.82084633134764
  0
LINE
  8
_2-7_ビス
  6
CONTINUOUS
 62
    7
 10
770.15667237701871
 20
977.82084633134764
 11
770.18781244537013
 21
977.80022828029792
  0
LINE
  8
_2-7_ビス
  6
CONTINUOUS
 62
    7
 10
770.18781244537013
 20
977.80022828029792
 11
770.22173596375023
 21
977.78586845927066
  0
LINE
  8
_2-7_ビス
  6
CONTINUOUS
 62
    7
 10
770.22173596375023
 20
977.78586845927066
 11
770.23163318074739
 21
977.78302350507704
  0
LINE
  8
_2-7_ビス
  6
CONTINUOUS
 62
    7
 10
770.12932300260104
 20
976.46372526027699
 11
770.12932300260104
 21
976.46372526027699
  0
LINE
  8
_2-7_ビス
  6
CONTINUOUS
 62
    7
 10
770.12932300260104
 20
976.46372526027699
 11
770.12865189701392
 21
976.42376710628866
  0
LINE
  8
_2-7_ビス
  6
CONTINUOUS
 62
    7
 10
770.12865189701392
 20
976.42376710628866
 11
770.13430221557803
 21
976.3842878847064
  0
LINE
  8
_2-7_ビス
  6
CONTINUOUS
 62
    7
 10
770.13430221557803
 20
976.3842878847064
 11
770.14610227622279
 21
976.34648715170056
  0
LINE
  8
_2-7_ビス
  6
CONTINUOUS
 62
    7
 10
770.14610227622279
 20
976.34648715170056
 11
770.16369354007668
 21
976.31151346341539
  0
LINE
  8
_2-7_ビス
  6
CONTINUOUS
 62
    7
 10
770.16369354007668
 20
976.31151346341539
 11
770.18654150548923
 21
976.28042947767187
  0
LINE
  8
_2-7_ビス
  6
CONTINUOUS
 62
    7
 10
770.18654150548923
 20
976.28042947767187
 11
770.21395194859304
 21
976.2541796656476
  0
LINE
  8
_2-7_ビス
  6
CONTINUOUS
 62
    7
 10
770.21395194859304
 20
976.2541796656476
 11
770.24509201694445
 21
976.23356161459787
  0
LINE
  8
_2-7_ビス
  6
CONTINUOUS
 62
    7
 10
770.24509201694445
 20
976.23356161459787
 11
770.27901553532456
 21
976.21920179357062
  0
LINE
  8
_2-7_ビス
  6
CONTINUOUS
 62
    7
 10
770.27901553532456
 20
976.21920179357062
 11
770.28891275232172
 21
976.216356839377
  0
LINE
  8
_2-7_ビス
  6
CONTINUOUS
 62
    7
 10
770.07204343102671
 20
973.33039192887691
 11
770.07204343102671
 21
973.33039192887691
  0
LINE
  8
_2-7_ビス
  6
CONTINUOUS
 62
    7
 10
770.07204343102671
 20
973.33039192887691
 11
770.0713723254396
 21
973.29043377488858
  0
LINE
  8
_2-7_ビス
  6
CONTINUOUS
 62
    7
 10
770.0713723254396
 20
973.29043377488858
 11
770.0770226440037
 21
973.25095455330631
  0
LINE
  8
_2-7_ビス
  6
CONTINUOUS
 62
    7
 10
770.0770226440037
 20
973.25095455330631
 11
770.08882270464846
 21
973.21315382030048
  0
LINE
  8
_2-7_ビス
  6
CONTINUOUS
 62
    7
 10
770.08882270464846
 20
973.21315382030048
 11
770.10641396850235
 21
973.17818013201531
  0
LINE
  8
_2-7_ビス
  6
CONTINUOUS
 62
    7
 10
770.10641396850235
 20
973.17818013201531
 11
770.1292619339149
 21
973.14709614627179
  0
LINE
  8
_2-7_ビス
  6
CONTINUOUS
 62
    7
 10
770.1292619339149
 20
973.14709614627179
 11
770.15667237701871
 21
973.12084633424752
  0
LINE
  8
_2-7_ビス
  6
CONTINUOUS
 62
    7
 10
770.15667237701871
 20
973.12084633424752
 11
770.18781244537013
 21
973.10022828319779
  0
LINE
  8
_2-7_ビス
  6
CONTINUOUS
 62
    7
 10
770.18781244537013
 20
973.10022828319779
 11
770.22173596375023
 21
973.08586846217054
  0
LINE
  8
_2-7_ビス
  6
CONTINUOUS
 62
    7
 10
770.22173596375023
 20
973.08586846217054
 11
770.23163318074739
 21
973.08302350797692
  0
LINE
  8
_2-7_ビス
  6
CONTINUOUS
 62
    7
 10
770.10432348212134
 20
971.76372526317687
 11
770.10432348212134
 21
971.76372526317687
  0
LINE
  8
_2-7_ビス
  6
CONTINUOUS
 62
    7
 10
770.10432348212134
 20
971.76372526317687
 11
770.10365237653423
 21
971.72376710918854
  0
LINE
  8
_2-7_ビス
  6
CONTINUOUS
 62
    7
 10
770.10365237653423
 20
971.72376710918854
 11
770.10930269509834
 21
971.68428788760627
  0
LINE
  8
_2-7_ビス
  6
CONTINUOUS
 62
    7
 10
770.10930269509834
 20
971.68428788760627
 11
770.1211027557431
 21
971.64648715460044
  0
LINE
  8
_2-7_ビス
  6
CONTINUOUS
 62
    7
 10
770.1211027557431
 20
971.64648715460044
 11
770.13869401959698
 21
971.61151346631527
  0
LINE
  8
_2-7_ビス
  6
CONTINUOUS
 62
    7
 10
770.13869401959698
 20
971.61151346631527
 11
770.16154198500953
 21
971.58042948057175
  0
LINE
  8
_2-7_ビス
  6
CONTINUOUS
 62
    7
 10
770.16154198500953
 20
971.58042948057175
 11
770.18895242811334
 21
971.55417966854748
  0
LINE
  8
_2-7_ビス
  6
CONTINUOUS
 62
    7
 10
770.18895242811334
 20
971.55417966854748
 11
770.22009249646476
 21
971.53356161749775
  0
LINE
  8
_2-7_ビス
  6
CONTINUOUS
 62
    7
 10
770.22009249646476
 20
971.53356161749775
 11
770.25401601484486
 21
971.5192017964705
  0
LINE
  8
_2-7_ビス
  6
CONTINUOUS
 62
    7
 10
770.25401601484486
 20
971.5192017964705
 11
770.26391323184203
 21
971.51635684227688
  0
LINE
  8
_2-7_ビス
  6
CONTINUOUS
 62
    7
 10
770.13642643492972
 20
970.19705859747683
 11
770.13642643492972
 21
970.19705859747683
  0
LINE
  8
_2-7_ビス
  6
CONTINUOUS
 62
    7
 10
770.13642643492972
 20
970.19705859747683
 11
770.1357553293426
 21
970.1571004434885
  0
LINE
  8
_2-7_ビス
  6
CONTINUOUS
 62
    7
 10
770.1357553293426
 20
970.1571004434885
 11
770.14140564790671
 21
970.11762122190623
  0
LINE
  8
_2-7_ビス
  6
CONTINUOUS
 62
    7
 10
770.14140564790671
 20
970.11762122190623
 11
770.15320570855147
 21
970.0798204889004
  0
LINE
  8
_2-7_ビス
  6
CONTINUOUS
 62
    7
 10
770.15320570855147
 20
970.0798204889004
 11
770.17079697240536
 21
970.04484680061523
  0
LINE
  8
_2-7_ビス
  6
CONTINUOUS
 62
    7
 10
770.17079697240536
 20
970.04484680061523
 11
770.19364493781791
 21
970.01376281487171
  0
LINE
  8
_2-7_ビス
  6
CONTINUOUS
 62
    7
 10
770.19364493781791
 20
970.01376281487171
 11
770.22105538092171
 21
969.98751300284744
  0
LINE
  8
_2-7_ビス
  6
CONTINUOUS
 62
    7
 10
770.22105538092171
 20
969.98751300284744
 11
770.25219544927313
 21
969.96689495179771
  0
LINE
  8
_2-7_ビス
  6
CONTINUOUS
 62
    7
 10
770.25219544927313
 20
969.96689495179771
 11
770.28611896765324
 21
969.95253513077046
  0
LINE
  8
_2-7_ビス
  6
CONTINUOUS
 62
    7
 10
770.28611896765324
 20
969.95253513077046
 11
770.2960161846504
 21
969.94969017657684
  0
LINE
  8
_2-7_ビス
  6
CONTINUOUS
 62
    7
 10
770.15874136595926
 20
968.63039193177792
 11
770.15874136595926
 21
968.63039193177792
  0
LINE
  8
_2-7_ビス
  6
CONTINUOUS
 62
    7
 10
770.15874136595926
 20
968.63039193177792
 11
770.15807026037214
 21
968.5904337777896
  0
LINE
  8
_2-7_ビス
  6
CONTINUOUS
 62
    7
 10
770.15807026037214
 20
968.5904337777896
 11
770.16372057893625
 21
968.55095455620733
  0
LINE
  8
_2-7_ビス
  6
CONTINUOUS
 62
    7
 10
770.16372057893625
 20
968.55095455620733
 11
770.17552063958101
 21
968.51315382320149
  0
LINE
  8
_2-7_ビス
  6
CONTINUOUS
 62
    7
 10
770.17552063958101
 20
968.51315382320149
 11
770.1931119034349
 21
968.47818013491633
  0
LINE
  8
_2-7_ビス
  6
CONTINUOUS
 62
    7
 10
770.1931119034349
 20
968.47818013491633
 11
770.21595986884745
 21
968.44709614917281
  0
LINE
  8
_2-7_ビス
  6
CONTINUOUS
 62
    7
 10
770.21595986884745
 20
968.44709614917281
 11
770.24337031195125
 21
968.42084633714853
  0
LINE
  8
_2-7_ビス
  6
CONTINUOUS
 62
    7
 10
770.24337031195125
 20
968.42084633714853
 11
770.27451038030267
 21
968.40022828609881
  0
LINE
  8
_2-7_ビス
  6
CONTINUOUS
 62
    7
 10
770.27451038030267
 20
968.40022828609881
 11
770.30843389868278
 21
968.38586846507155
  0
LINE
  8
_2-7_ビス
  6
CONTINUOUS
 62
    7
 10
770.30843389868278
 20
968.38586846507155
 11
770.31833111567994
 21
968.38302351087793
  0
LINE
  8
_2-7_ビス
  6
CONTINUOUS
 62
    7
 10
770.19224394489379
 20
967.08845358704718
 11
770.19224394489379
 21
967.08845358704718
  0
LINE
  8
_2-7_ビス
  6
CONTINUOUS
 62
    7
 10
770.19224394489379
 20
967.08845358704718
 11
770.17858179314374
 21
967.06216558507003
  0
LINE
  8
_2-7_ビス
  6
CONTINUOUS
 62
    7
 10
770.17858179314374
 20
967.06216558507003
 11
770.1692792835953
 21
967.03366869575643
  0
LINE
  8
_2-7_ビス
  6
CONTINUOUS
 62
    7
 10
770.1692792835953
 20
967.03366869575643
 11
770.16461906829386
 21
967.00382878266817
  0
LINE
  8
_2-7_ビス
  6
CONTINUOUS
 62
    7
 10
770.16461906829386
 20
967.00382878266817
 11
770.16474274552309
 21
966.97355251646457
  0
LINE
  8
_2-7_ビス
  6
CONTINUOUS
 62
    7
 10
770.16474274552309
 20
966.97355251646457
 11
770.16964655741288
 21
966.94375982617373
  0
LINE
  8
_2-7_ビス
  6
CONTINUOUS
 62
    7
 10
770.16964655741288
 20
966.94375982617373
 11
770.17918150412061
 21
966.91535594761422
  0
LINE
  8
_2-7_ビス
  6
CONTINUOUS
 62
    7
 10
770.17918150412061
 20
966.91535594761422
 11
770.19305787111534
 21
966.88920391826332
  0
LINE
  8
_2-7_ビス
  6
CONTINUOUS
 62
    7
 10
770.19305787111534
 20
966.88920391826332
 11
770.21085403200766
 21
966.86609835429897
  0
LINE
  8
_2-7_ビス
  6
CONTINUOUS
 62
    7
 10
770.21085403200766
 20
966.86609835429897
 11
770.23202925945441
 21
966.84674130659039
  0
LINE
  8
_2-7_ビス
  6
CONTINUOUS
 62
    7
 10
770.23202925945441
 20
966.84674130659039
 11
770.25594015488457
 21
966.83172092923701
  0
LINE
  8
_2-7_ビス
  6
CONTINUOUS
 62
    7
 10
770.25594015488457
 20
966.83172092923701
 11
770.28186019784005
 21
966.82149360880419
  0
LINE
  8
_2-7_ビス
  6
CONTINUOUS
 62
    7
 10
770.28186019784005
 20
966.82149360880419
 11
770.30900182093171
 21
966.81637009724773
  0
LINE
  8
_2-7_ビス
  6
CONTINUOUS
 62
    7
 10
770.30900182093171
 20
966.81637009724773
 11
770.30914793074794
 21
966.81635684517778
  0
LINE
  8
_2-7_ビス
  6
CONTINUOUS
 62
    7
 10
770.61225668074871
 20
975.72161999757748
 11
770.61225668074871
 21
975.72161999757748
  0
LINE
  8
_2-7_ビス
  6
CONTINUOUS
 62
    7
 10
770.61225668074871
 20
975.72161999757748
 11
770.52793084995494
 21
975.70936004092971
  0
LINE
  8
_2-7_ビス
  6
CONTINUOUS
 62
    7
 10
770.52793084995494
 20
975.70936004092971
 11
770.44682252849668
 21
975.68118757422258
  0
LINE
  8
_2-7_ビス
  6
CONTINUOUS
 62
    7
 10
770.44682252849668
 20
975.68118757422258
 11
770.3713961516786
 21
975.63795860360108
  0
LINE
  8
_2-7_ビス
  6
CONTINUOUS
 62
    7
 10
770.3713961516786
 20
975.63795860360108
 11
770.30394351179268
 21
975.58098661946258
  0
LINE
  8
_2-7_ビス
  6
CONTINUOUS
 62
    7
 10
770.30394351179268
 20
975.58098661946258
 11
770.24651412316928
 21
975.51200268671585
  0
LINE
  8
_2-7_ビス
  6
CONTINUOUS
 62
    7
 10
770.24651412316928
 20
975.51200268671585
 11
770.20085294872104
 21
975.43310284724998
  0
LINE
  8
_2-7_ビス
  6
CONTINUOUS
 62
    7
 10
770.20085294872104
 20
975.43310284724998
 11
770.16834738012778
 21
975.34668443276178
  0
LINE
  8
_2-7_ビス
  6
CONTINUOUS
 62
    7
 10
770.16834738012778
 20
975.34668443276178
 11
770.14998508264273
 21
975.25537322304569
  0
LINE
  8
_2-7_ビス
  6
CONTINUOUS
 62
    7
 10
770.14998508264273
 20
975.25537322304569
 11
770.14632398538311
 21
975.16194366300317
  0
LINE
  8
_2-7_ビス
  6
CONTINUOUS
 62
    7
 10
770.14632398538311
 20
975.16194366300317
 11
770.15747532893658
 21
975.06923456253855
  0
LINE
  8
_2-7_ビス
  6
CONTINUOUS
 62
    7
 10
770.15747532893658
 20
975.06923456253855
 11
770.18310028537212
 21
974.98006284075643
  0
LINE
  8
_2-7_ビス
  6
CONTINUOUS
 62
    7
 10
770.18310028537212
 20
974.98006284075643
 11
770.22242025335527
 21
974.89713793529995
  0
LINE
  8
_2-7_ビス
  6
CONTINUOUS
 62
    7
 10
770.22242025335527
 20
974.89713793529995
 11
770.27424051555579
 21
974.82297947745951
  0
LINE
  8
_2-7_ビス
  6
CONTINUOUS
 62
    7
 10
770.27424051555579
 20
974.82297947745951
 11
770.33698653952899
 21
974.75984073445045
  0
LINE
  8
_2-7_ビス
  6
CONTINUOUS
 62
    7
 10
770.33698653952899
 20
974.75984073445045
 11
770.40875181908757
 21
974.70964014502954
  0
LINE
  8
_2-7_ビス
  6
CONTINUOUS
 62
    7
 10
770.40875181908757
 20
974.70964014502954
 11
770.48735580252685
 21
974.67390302870342
  0
LINE
  8
_2-7_ビス
  6
CONTINUOUS
 62
    7
 10
770.48735580252685
 20
974.67390302870342
 11
770.5704101475859
 21
974.65371523966803
  0
LINE
  8
_2-7_ビス
  6
CONTINUOUS
 62
    7
 10
770.5704101475859
 20
974.65371523966803
 11
770.61225668074871
 21
974.64969017367741
  0
LINE
  8
_2-7_ビス
  6
CONTINUOUS
 62
    7
 10
770.61225668074871
 20
983.55495332607768
 11
770.61225668074871
 21
983.55495332607768
  0
LINE
  8
_2-7_ビス
  6
CONTINUOUS
 62
    7
 10
770.61225668074871
 20
983.55495332607768
 11
770.52793084995494
 21
983.54269336942991
  0
LINE
  8
_2-7_ビス
  6
CONTINUOUS
 62
    7
 10
770.52793084995494
 20
983.54269336942991
 11
770.44682252849668
 21
983.51452090272278
  0
LINE
  8
_2-7_ビス
  6
CONTINUOUS
 62
    7
 10
770.44682252849668
 20
983.51452090272278
 11
770.3713961516786
 21
983.47129193210128
  0
LINE
  8
_2-7_ビス
  6
CONTINUOUS
 62
    7
 10
770.3713961516786
 20
983.47129193210128
 11
770.30394351179268
 21
983.41431994796278
  0
LINE
  8
_2-7_ビス
  6
CONTINUOUS
 62
    7
 10
770.30394351179268
 20
983.41431994796278
 11
770.24651412316928
 21
983.34533601521605
  0
LINE
  8
_2-7_ビス
  6
CONTINUOUS
 62
    7
 10
770.24651412316928
 20
983.34533601521605
 11
770.20085294872104
 21
983.26643617575019
  0
LINE
  8
_2-7_ビス
  6
CONTINUOUS
 62
    7
 10
770.20085294872104
 20
983.26643617575019
 11
770.16834738012778
 21
983.18001776126198
  0
LINE
  8
_2-7_ビス
  6
CONTINUOUS
 62
    7
 10
770.16834738012778
 20
983.18001776126198
 11
770.14998508264273
 21
983.0887065515459
  0
LINE
  8
_2-7_ビス
  6
CONTINUOUS
 62
    7
 10
770.14998508264273
 20
983.0887065515459
 11
770.14632398538311
 21
982.99527699150337
  0
LINE
  8
_2-7_ビス
  6
CONTINUOUS
 62
    7
 10
770.14632398538311
 20
982.99527699150337
 11
770.15747532893658
 21
982.90256789103876
  0
LINE
  8
_2-7_ビス
  6
CONTINUOUS
 62
    7
 10
770.15747532893658
 20
982.90256789103876
 11
770.18310028537212
 21
982.81339616925663
  0
LINE
  8
_2-7_ビス
  6
CONTINUOUS
 62
    7
 10
770.18310028537212
 20
982.81339616925663
 11
770.22242025335527
 21
982.73047126380015
  0
LINE
  8
_2-7_ビス
  6
CONTINUOUS
 62
    7
 10
770.22242025335527
 20
982.73047126380015
 11
770.27424051555579
 21
982.65631280595971
  0
LINE
  8
_2-7_ビス
  6
CONTINUOUS
 62
    7
 10
770.27424051555579
 20
982.65631280595971
 11
770.33698653952899
 21
982.59317406295065
  0
LINE
  8
_2-7_ビス
  6
CONTINUOUS
 62
    7
 10
770.33698653952899
 20
982.59317406295065
 11
770.40875181908757
 21
982.54297347352974
  0
LINE
  8
_2-7_ビス
  6
CONTINUOUS
 62
    7
 10
770.40875181908757
 20
982.54297347352974
 11
770.48735580252685
 21
982.50723635720362
  0
LINE
  8
_2-7_ビス
  6
CONTINUOUS
 62
    7
 10
770.48735580252685
 20
982.50723635720362
 11
770.5704101475859
 21
982.48704856816823
  0
LINE
  8
_2-7_ビス
  6
CONTINUOUS
 62
    7
 10
770.5704101475859
 20
982.48704856816823
 11
770.61225668074871
 21
982.48302350217762
  0
LINE
  8
_2-7_ビス
  6
CONTINUOUS
 62
    7
 10
770.28703986994628
 20
964.4251287764771
 11
770.28703986994628
 21
964.4251287764771
  0
LINE
  8
_2-7_ビス
  6
CONTINUOUS
 62
    7
 10
770.28703986994628
 20
964.4251287764771
 11
770.25085465604445
 21
964.29154444970993
  0
LINE
  8
_2-7_ビス
  6
CONTINUOUS
 62
    7
 10
770.25085465604445
 20
964.29154444970993
 11
770.23631828010321
 21
964.15308139749447
  0
LINE
  8
_2-7_ビス
  6
CONTINUOUS
 62
    7
 10
770.23631828010321
 20
964.15308139749447
 11
770.23676453685812
 21
964.09530421527711
  0
LINE
  8
_2-7_ビス
  6
CONTINUOUS
 62
    7
 10
769.72922243074845
 20
962.11635684807743
 11
769.72922243074845
 21
962.11635684807743
  0
LINE
  8
_2-7_ビス
  6
CONTINUOUS
 62
    7
 10
769.72922243074845
 20
962.11635684807743
 11
769.72318165320564
 21
962.17188742325527
  0
LINE
  8
_2-7_ビス
  6
CONTINUOUS
 62
    7
 10
769.72318165320564
 20
962.17188742325527
 11
769.70846181925594
 21
962.22542111063979
  0
LINE
  8
_2-7_ビス
  6
CONTINUOUS
 62
    7
 10
769.70846181925594
 20
962.22542111063979
 11
769.6855101836054
 21
962.2753313162292
  0
LINE
  8
_2-7_ビス
  6
CONTINUOUS
 62
    7
 10
769.6855101836054
 20
962.2753313162292
 11
769.65502412008925
 21
962.32010154368265
  0
LINE
  8
_2-7_ビス
  6
CONTINUOUS
 62
    7
 10
769.65502412008925
 20
962.32010154368265
 11
769.61792993232064
 21
962.35837147229358
  0
LINE
  8
_2-7_ビス
  6
CONTINUOUS
 62
    7
 10
769.61792993232064
 20
962.35837147229358
 11
769.57535470842436
 21
962.38897828964673
  0
LINE
  8
_2-7_ビス
  6
CONTINUOUS
 62
    7
 10
769.57535470842436
 20
962.38897828964673
 11
769.52859207503434
 21
962.41099202308465
  0
LINE
  8
_2-7_ビス
  6
CONTINUOUS
 62
    7
 10
769.52859207503434
 20
962.41099202308465
 11
769.47906289110324
 21
962.42374379645628
  0
LINE
  8
_2-7_ビス
  6
CONTINUOUS
 62
    7
 10
769.47906289110324
 20
962.42374379645628
 11
769.42827207582172
 21
962.42684615358053
  0
LINE
  8
_2-7_ビス
  6
CONTINUOUS
 62
    7
 10
769.42827207582172
 20
962.42684615358053
 11
769.37776288241082
 21
962.42020483090585
  0
LINE
  8
_2-7_ビス
  6
CONTINUOUS
 62
    7
 10
769.37776288241082
 20
962.42020483090585
 11
769.3290700071534
 21
962.40402162166129
  0
LINE
  8
_2-7_ビス
  6
CONTINUOUS
 62
    7
 10
769.3290700071534
 20
962.40402162166129
 11
769.28367295842429
 21
962.37878824447034
  0
LINE
  8
_2-7_ビス
  6
CONTINUOUS
 62
    7
 10
769.28367295842429
 20
962.37878824447034
 11
769.24295110257719
 21
962.34527140273053
  0
LINE
  8
_2-7_ビス
  6
CONTINUOUS
 62
    7
 10
769.24295110257719
 20
962.34527140273053
 11
769.20814175259579
 21
962.30448948871765
  0
LINE
  8
_2-7_ビス
  6
CONTINUOUS
 62
    7
 10
769.20814175259579
 20
962.30448948871765
 11
769.18030257296482
 21
962.25768164025237
  0
LINE
  8
_2-7_ビス
  6
CONTINUOUS
 62
    7
 10
769.18030257296482
 20
962.25768164025237
 11
769.16027944307007
 21
962.20627009012446
  0
LINE
  8
_2-7_ビス
  6
CONTINUOUS
 62
    7
 10
769.16027944307007
 20
962.20627009012446
 11
769.14868075558127
 21
962.15181695226886
  0
LINE
  8
_2-7_ビス
  6
CONTINUOUS
 62
    7
 10
769.14868075558127
 20
962.15181695226886
 11
769.14585893074855
 21
962.09597675772488
  0
LINE
  8
_2-7_ビス
  6
CONTINUOUS
 62
    7
 10
769.14585893074855
 20
962.09597675772488
 11
769.14585893074855
 21
962.09597675772477
  0
LINE
  8
_2-7_ビス
  6
CONTINUOUS
 62
    7
 10
764.4435066807473
 20
999.08402954456562
 11
764.4435066807473
 21
1003.1795147174779
  0
LINE
  8
_2-7_ビス
  6
CONTINUOUS
 62
    7
 10
764.4435066807473
 20
1003.1795147174779
 11
767.44350668074799
 21
1003.1795147174779
  0
LINE
  8
_2-7_ビス
  6
CONTINUOUS
 62
    7
 10
764.4435066807473
 20
999.08402954456562
 11
763.69350668074799
 21
998.25946862436183
  0
LINE
  8
_2-7_ビス
  6
CONTINUOUS
 62
    7
 10
763.69350668074799
 20
998.25946862436183
 11
763.69350668074799
 21
996.16086289724706
  0
LINE
  8
_2-7_ビス
  6
CONTINUOUS
 62
    7
 10
763.69350668074799
 20
996.16086289724706
 11
764.24172593074854
 21
992.04326958399804
  0
LINE
  8
_2-7_ビス
  6
CONTINUOUS
 62
    7
 10
764.24172593074854
 20
992.04326958399804
 11
764.48364968074839
 21
991.6356550754773
  0
LINE
  8
_2-7_ビス
  6
CONTINUOUS
 62
    7
 10
764.48364968074839
 20
991.6356550754773
 11
764.4435066807473
 21
991.6356550754773
  0
LINE
  8
_2-7_ビス
  6
CONTINUOUS
 62
    7
 10
764.4435066807473
 20
991.6356550754773
 11
764.4435066807473
 21
989.82161998887761
  0
LINE
  8
_2-7_ビス
  6
CONTINUOUS
 62
    7
 10
764.4435066807473
 20
989.82161998887761
 11
764.87651924131524
 21
988.99705858587765
  0
LINE
  8
_2-7_ビス
  6
CONTINUOUS
 62
    7
 10
764.74661543074785
 20
988.74969016497687
 11
763.76850668074849
 21
988.74969016497687
  0
LINE
  8
_2-7_ビス
  6
CONTINUOUS
 62
    7
 10
763.76850668074849
 20
988.74969016497687
 11
763.76850668074849
 21
984.51629957109787
  0
LINE
  8
_2-7_ビス
  6
CONTINUOUS
 62
    7
 10
763.76850668074849
 20
984.51629957109787
 11
764.26997618074847
 21
983.55495332607745
  0
LINE
  8
_2-7_ビス
  6
CONTINUOUS
 62
    7
 10
764.26997618074847
 20
983.55495332607745
 11
764.27475668074817
 21
983.55495332607745
  0
LINE
  8
_2-7_ビス
  6
CONTINUOUS
 62
    7
 10
764.27476085403282
 20
983.55495367985952
 11
764.27475668074817
 21
983.55495332607745
  0
LINE
  8
_2-7_ビス
  6
CONTINUOUS
 62
    7
 10
764.27476085403282
 20
983.55495367985952
 11
764.27475668074817
 21
983.55495332607745
  0
LINE
  8
_2-7_ビス
  6
CONTINUOUS
 62
    7
 10
764.30734793074816
 20
982.48302350217784
 11
763.76850668074849
 21
982.48302350217784
  0
LINE
  8
_2-7_ビス
  6
CONTINUOUS
 62
    7
 10
763.76850668074849
 20
982.48302350217784
 11
763.76850668074849
 21
976.68579036540393
  0
LINE
  8
_2-7_ビス
  6
CONTINUOUS
 62
    7
 10
763.76850668074849
 20
976.68579036540393
 11
764.27475386780952
 21
975.72163899563918
  0
LINE
  8
_2-7_ビス
  6
CONTINUOUS
 62
    7
 10
764.27475668074817
 20
975.72161999757725
 11
764.27834831110385
 21
976.19907139481768
  0
LINE
  8
_2-7_ビス
  6
CONTINUOUS
 62
    7
 10
764.27834831110385
 20
976.19907139481768
 11
764.59902831872751
 21
976.21635683937768
  0
LINE
  8
_2-7_ビス
  6
CONTINUOUS
 62
    7
 10
764.75769035889539
 20
976.46372526027733
 11
764.30734793074816
 21
977.28828666327729
  0
LINE
  8
_2-7_ビス
  6
CONTINUOUS
 62
    7
 10
764.30734793074816
 20
977.28828666327729
 11
764.30734777862494
 21
977.7657381322723
  0
LINE
  8
_2-7_ビス
  6
CONTINUOUS
 62
    7
 10
764.30734777862494
 20
977.7657381322723
 11
764.65538018074835
 21
977.78302350507772
  0
LINE
  8
_2-7_ビス
  6
CONTINUOUS
 62
    7
 10
764.81496993046858
 20
978.03039192597737
 11
764.30734793074816
 21
978.85495332897733
  0
LINE
  8
_2-7_ビス
  6
CONTINUOUS
 62
    7
 10
764.30734793074816
 20
978.85495332897733
 11
764.30734793074816
 21
979.33240489008597
  0
LINE
  8
_2-7_ビス
  6
CONTINUOUS
 62
    7
 10
764.30734793074816
 20
979.33240489008597
 11
764.65538018074835
 21
979.34969017077776
  0
LINE
  8
_2-7_ビス
  6
CONTINUOUS
 62
    7
 10
764.81496993046858
 20
979.59705859167741
 11
764.30734793074816
 21
980.42161999467737
  0
LINE
  8
_2-7_ビス
  6
CONTINUOUS
 62
    7
 10
764.30734793074816
 20
980.42161999467737
 11
764.30734793074816
 21
980.89907155578601
  0
LINE
  8
_2-7_ビス
  6
CONTINUOUS
 62
    7
 10
764.30734793074816
 20
980.89907155578601
 11
764.65538018074835
 21
980.9163568364778
  0
LINE
  8
_2-7_ビス
  6
CONTINUOUS
 62
    7
 10
764.81496993046858
 20
981.16372525737745
 11
764.30734777862494
 21
981.98828666037741
  0
LINE
  8
_2-7_ビス
  6
CONTINUOUS
 62
    7
 10
764.30734777862494
 20
981.98828666037741
 11
764.30734793074816
 21
982.48302350217784
  0
LINE
  8
_2-7_ビス
  6
CONTINUOUS
 62
    7
 10
764.27476085403282
 20
983.55495367985952
 11
764.27844605527821
 21
984.0324051488534
  0
LINE
  8
_2-7_ビス
  6
CONTINUOUS
 62
    7
 10
764.27844605527821
 20
984.0324051488534
 11
764.59589093074737
 21
984.04969016787788
  0
LINE
  8
_2-7_ビス
  6
CONTINUOUS
 62
    7
 10
764.75798307106925
 20
984.29705858877753
 11
764.30734777862494
 21
985.12161999177749
  0
LINE
  8
_2-7_ビス
  6
CONTINUOUS
 62
    7
 10
764.30734777862494
 20
985.12161999177749
 11
764.30734777862494
 21
985.59907146077137
  0
LINE
  8
_2-7_ビス
  6
CONTINUOUS
 62
    7
 10
764.30734777862494
 20
985.59907146077137
 11
764.65538018074835
 21
985.61635683357792
  0
LINE
  8
_2-7_ビス
  6
CONTINUOUS
 62
    7
 10
764.81496993046858
 20
985.86372525447757
 11
764.30734793074816
 21
986.68828665747753
  0
LINE
  8
_2-7_ビス
  6
CONTINUOUS
 62
    7
 10
764.30734793074816
 20
986.68828665747753
 11
764.30734777862494
 21
987.16573812647141
  0
LINE
  8
_2-7_ビス
  6
CONTINUOUS
 62
    7
 10
764.30734777862494
 20
987.16573812647141
 11
764.65626627323627
 21
987.18325508043733
  0
LINE
  8
_2-7_ビス
  6
CONTINUOUS
 62
    7
 10
764.81496993046858
 20
987.43039192017761
 11
764.30734777862494
 21
988.25495332317757
  0
LINE
  8
_2-7_ビス
  6
CONTINUOUS
 62
    7
 10
764.30734777862494
 20
988.25495332317757
 11
764.30734793625516
 21
988.74969016497687
  0
LINE
  8
_2-7_ビス
  6
CONTINUOUS
 62
    7
 10
764.30734793074816
 20
974.64969017367764
 11
763.76850668074849
 21
974.64969017367764
  0
LINE
  8
_2-7_ビス
  6
CONTINUOUS
 62
    7
 10
763.76850668074849
 20
974.64969017367764
 11
763.76850668074849
 21
971.40144843884002
  0
LINE
  8
_2-7_ビス
  6
CONTINUOUS
 62
    7
 10
763.76850668074849
 20
971.40144843884002
 11
764.27429243074766
 21
967.88828666907705
  0
LINE
  8
_2-7_ビス
  6
CONTINUOUS
 62
    7
 10
764.27429243074766
 20
967.88828666907705
 11
764.27502694841178
 21
968.36573775321824
  0
LINE
  8
_2-7_ビス
  6
CONTINUOUS
 62
    7
 10
764.27502694841178
 20
968.36573775321824
 11
764.58371543074873
 21
968.38302351087748
  0
LINE
  8
_2-7_ビス
  6
CONTINUOUS
 62
    7
 10
764.27429243074766
 20
967.88828666907705
 11
764.70776924131496
 21
967.06372526607709
  0
LINE
  8
_2-7_ビス
  6
CONTINUOUS
 62
    7
 10
764.72827199553603
 20
968.63039193177713
 11
764.27766966207582
 21
969.45495333477709
  0
LINE
  8
_2-7_ビス
  6
CONTINUOUS
 62
    7
 10
764.27766966207582
 20
969.45495333477709
 11
764.27975456633772
 21
969.93240441891714
  0
LINE
  8
_2-7_ビス
  6
CONTINUOUS
 62
    7
 10
764.27975456633772
 20
969.93240441891714
 11
764.60208143074806
 21
969.94969017657752
  0
LINE
  8
_2-7_ビス
  6
CONTINUOUS
 62
    7
 10
764.75058692656671
 20
970.19705859747717
 11
764.2867190672423
 21
971.02161961562331
  0
LINE
  8
_2-7_ビス
  6
CONTINUOUS
 62
    7
 10
764.2867190672423
 20
971.02161961562331
 11
764.29078190793871
 21
971.49907108461832
  0
LINE
  8
_2-7_ビス
  6
CONTINUOUS
 62
    7
 10
764.29078190793871
 20
971.49907108461832
 11
764.62543526320769
 21
971.51635684227756
  0
LINE
  8
_2-7_ビス
  6
CONTINUOUS
 62
    7
 10
764.78268987937508
 20
971.76372526317721
 11
764.30248725516958
 21
972.58828628132335
  0
LINE
  8
_2-7_ビス
  6
CONTINUOUS
 62
    7
 10
764.30248725516958
 20
972.58828628132335
 11
764.30734793074816
 21
973.06573822728581
  0
LINE
  8
_2-7_ビス
  6
CONTINUOUS
 62
    7
 10
764.30734793074816
 20
973.06573822728581
 11
764.65538018074835
 21
973.0830235079776
  0
LINE
  8
_2-7_ビス
  6
CONTINUOUS
 62
    7
 10
764.81496993046858
 20
973.33039192887725
 11
764.30734777862494
 21
974.15495333187721
  0
LINE
  8
_2-7_ビス
  6
CONTINUOUS
 62
    7
 10
764.30734777862494
 20
974.15495333187721
 11
764.30734793074816
 21
974.64969017367764
  0
LINE
  8
_2-7_ビス
  6
CONTINUOUS
 62
    7
 10
764.57786543074872
 20
966.81635684517744
 11
764.4435066807473
 21
966.81635684517744
  0
LINE
  8
_2-7_ビス
  6
CONTINUOUS
 62
    7
 10
764.4435066807473
 20
966.81635684517744
 11
764.4435066807473
 21
966.03302351232685
  0
LINE
  8
_2-7_ビス
  6
CONTINUOUS
 62
    7
 10
764.4435066807473
 20
966.03302351232685
 11
764.59350668074831
 21
966.03302351232685
  0
LINE
  8
_2-7_ビス
  6
CONTINUOUS
 62
    7
 10
764.59350668074831
 20
966.03302351232685
 11
764.59350668074831
 21
964.42512877647744
  0
LINE
  8
_2-7_ビス
  6
CONTINUOUS
 62
    7
 10
764.59350668074831
 20
964.42512877647744
 11
764.59997349154901
 21
964.42512877647744
  0
LINE
  8
_2-7_ビス
  6
CONTINUOUS
 62
    7
 10
764.65024868074761
 20
964.09530421527791
 11
764.65024882728653
 21
958.14486262245794
  0
LINE
  8
_2-7_ビス
  6
CONTINUOUS
 62
    7
 10
764.65024882728653
 20
958.14486262245794
 11
765.09068618074775
 21
957.49344179829848
  0
LINE
  8
_2-7_ビス
  6
CONTINUOUS
 62
    7
 10
765.09068618074775
 20
957.49344179829848
 11
766.09350668074808
 21
956.17951474647782
  0
LINE
  8
_2-7_ビス
  6
CONTINUOUS
 62
    7
 10
766.09350668074808
 20
956.17951474647782
 11
766.24288516024262
 21
956.17951474647782
  0
LINE
  8
_2-7_ビス
  6
CONTINUOUS
 62
    7
 10
766.24288516024262
 20
956.17951474647782
 11
765.15779105092815
 21
958.14486262245794
  0
LINE
  8
_2-7_ビス
  6
CONTINUOUS
 62
    7
 10
765.15779105092815
 20
958.14486262245794
 11
765.15779093074752
 21
962.11635684807732
  0
LINE
  8
_2-7_ビス
  6
CONTINUOUS
 62
    7
 10
765.74115443074743
 20
962.11635684807732
 11
765.7411541573158
 21
958.14486277515641
  0
LINE
  8
_2-7_ビス
  6
CONTINUOUS
 62
    7
 10
765.7411541573158
 20
958.14486277515641
 11
766.82624852254958
 21
956.17951474647782
  0
LINE
  8
_2-7_ビス
  6
CONTINUOUS
 62
    7
 10
766.82624852254958
 20
956.17951474647782
 11
767.44350668074799
 21
956.17951474647782
  0
LINE
  8
_2-7_ビス
  6
CONTINUOUS
 62
    7
 10
764.74661543074785
 20
988.74969016497687
 11
764.74661543074785
 21
988.74969016497687
  0
LINE
  8
_2-7_ビス
  6
CONTINUOUS
 62
    7
 10
764.74661543074785
 20
988.74969016497687
 11
764.77357388164842
 21
988.75434394969204
  0
LINE
  8
_2-7_ビス
  6
CONTINUOUS
 62
    7
 10
764.77357388164842
 20
988.75434394969204
 11
764.79938772666151
 21
988.76407370982201
  0
LINE
  8
_2-7_ビス
  6
CONTINUOUS
 62
    7
 10
764.79938772666151
 20
988.76407370982201
 11
764.8232726251689
 21
988.77858381152862
  0
LINE
  8
_2-7_ビス
  6
CONTINUOUS
 62
    7
 10
764.8232726251689
 20
988.77858381152862
 11
764.84450284661568
 21
988.79743337271384
  0
LINE
  8
_2-7_ビス
  6
CONTINUOUS
 62
    7
 10
764.84450284661568
 20
988.79743337271384
 11
764.86243332146626
 21
988.82004965899966
  0
LINE
  8
_2-7_ビス
  6
CONTINUOUS
 62
    7
 10
764.86243332146626
 20
988.82004965899966
 11
764.87651924131558
 21
988.84574548597152
  0
LINE
  8
_2-7_ビス
  6
CONTINUOUS
 62
    7
 10
764.87651924131558
 20
988.84574548597152
 11
764.8863326126168
 21
988.8737400989296
  0
LINE
  8
_2-7_ビス
  6
CONTINUOUS
 62
    7
 10
764.8863326126168
 20
988.8737400989296
 11
764.89157526104873
 21
988.90318289572519
  0
LINE
  8
_2-7_ビス
  6
CONTINUOUS
 62
    7
 10
764.89157526104873
 20
988.90318289572519
 11
764.89208789139172
 21
988.93317927187638
  0
LINE
  8
_2-7_ビス
  6
CONTINUOUS
 62
    7
 10
764.89208789139172
 20
988.93317927187638
 11
764.88785492763213
 21
988.96281780267282
  0
LINE
  8
_2-7_ビス
  6
CONTINUOUS
 62
    7
 10
764.88785492763213
 20
988.96281780267282
 11
764.87900498623196
 21
988.99119793635384
  0
LINE
  8
_2-7_ビス
  6
CONTINUOUS
 62
    7
 10
764.87900498623196
 20
988.99119793635384
 11
764.86580696818214
 21
989.01745735691884
  0
LINE
  8
_2-7_ビス
  6
CONTINUOUS
 62
    7
 10
764.86580696818214
 20
989.01745735691884
 11
764.86580657566481
 21
989.01745799854302
  0
LINE
  8
_2-7_ビス
  6
CONTINUOUS
 62
    7
 10
764.65538018074858
 20
987.18302349927728
 11
764.65538018074858
 21
987.18302349927728
  0
LINE
  8
_2-7_ビス
  6
CONTINUOUS
 62
    7
 10
764.65538018074858
 20
987.18302349927728
 11
764.68990340908363
 21
987.19553704953637
  0
LINE
  8
_2-7_ビス
  6
CONTINUOUS
 62
    7
 10
764.68990340908363
 20
987.19553704953637
 11
764.72192568743674
 21
987.21445137031446
  0
LINE
  8
_2-7_ビス
  6
CONTINUOUS
 62
    7
 10
764.72192568743674
 20
987.21445137031446
 11
764.75047403508427
 21
987.23919175954597
  0
LINE
  8
_2-7_ビス
  6
CONTINUOUS
 62
    7
 10
764.75047403508427
 20
987.23919175954597
 11
764.77468102492912
 21
987.26900649302308
  0
LINE
  8
_2-7_ビス
  6
CONTINUOUS
 62
    7
 10
764.77468102492912
 20
987.26900649302308
 11
764.79381113983413
 21
987.30298966515636
  0
LINE
  8
_2-7_ビス
  6
CONTINUOUS
 62
    7
 10
764.79381113983413
 20
987.30298966515636
 11
764.80728312093834
 21
987.34010871445673
  0
LINE
  8
_2-7_ビス
  6
CONTINUOUS
 62
    7
 10
764.80728312093834
 20
987.34010871445673
 11
764.81468762891302
 21
987.37923579739424
  0
LINE
  8
_2-7_ビス
  6
CONTINUOUS
 62
    7
 10
764.81468762891302
 20
987.37923579739424
 11
764.81579968153005
 21
987.41918205735328
  0
LINE
  8
_2-7_ビス
  6
CONTINUOUS
 62
    7
 10
764.81579968153005
 20
987.41918205735328
 11
764.81496993046926
 21
987.43039192017727
  0
LINE
  8
_2-7_ビス
  6
CONTINUOUS
 62
    7
 10
764.65538018074858
 20
985.61635683357724
 11
764.65538018074858
 21
985.61635683357724
  0
LINE
  8
_2-7_ビス
  6
CONTINUOUS
 62
    7
 10
764.65538018074858
 20
985.61635683357724
 11
764.68990340908363
 21
985.62887038383633
  0
LINE
  8
_2-7_ビス
  6
CONTINUOUS
 62
    7
 10
764.68990340908363
 20
985.62887038383633
 11
764.72192568743674
 21
985.64778470461442
  0
LINE
  8
_2-7_ビス
  6
CONTINUOUS
 62
    7
 10
764.72192568743674
 20
985.64778470461442
 11
764.75047403508427
 21
985.67252509384593
  0
LINE
  8
_2-7_ビス
  6
CONTINUOUS
 62
    7
 10
764.75047403508427
 20
985.67252509384593
 11
764.77468102492912
 21
985.70233982732304
  0
LINE
  8
_2-7_ビス
  6
CONTINUOUS
 62
    7
 10
764.77468102492912
 20
985.70233982732304
 11
764.79381113983413
 21
985.73632299945632
  0
LINE
  8
_2-7_ビス
  6
CONTINUOUS
 62
    7
 10
764.79381113983413
 20
985.73632299945632
 11
764.80728312093834
 21
985.77344204875669
  0
LINE
  8
_2-7_ビス
  6
CONTINUOUS
 62
    7
 10
764.80728312093834
 20
985.77344204875669
 11
764.81468762891302
 21
985.8125691316942
  0
LINE
  8
_2-7_ビス
  6
CONTINUOUS
 62
    7
 10
764.81468762891302
 20
985.8125691316942
 11
764.81579968153005
 21
985.85251539165324
  0
LINE
  8
_2-7_ビス
  6
CONTINUOUS
 62
    7
 10
764.81579968153005
 20
985.85251539165324
 11
764.81496993046926
 21
985.86372525447723
  0
LINE
  8
_2-7_ビス
  6
CONTINUOUS
 62
    7
 10
764.59839332134698
 20
984.0496901678772
 11
764.59839332134698
 21
984.0496901678772
  0
LINE
  8
_2-7_ビス
  6
CONTINUOUS
 62
    7
 10
764.59839332134698
 20
984.0496901678772
 11
764.63291654968202
 21
984.06220371813629
  0
LINE
  8
_2-7_ビス
  6
CONTINUOUS
 62
    7
 10
764.63291654968202
 20
984.06220371813629
 11
764.66493882803513
 21
984.08111803891438
  0
LINE
  8
_2-7_ビス
  6
CONTINUOUS
 62
    7
 10
764.66493882803513
 20
984.08111803891438
 11
764.69348717568266
 21
984.10585842814589
  0
LINE
  8
_2-7_ビス
  6
CONTINUOUS
 62
    7
 10
764.69348717568266
 20
984.10585842814589
 11
764.71769416552752
 21
984.135673161623
  0
LINE
  8
_2-7_ビス
  6
CONTINUOUS
 62
    7
 10
764.71769416552752
 20
984.135673161623
 11
764.73682428043253
 21
984.16965633375628
  0
LINE
  8
_2-7_ビス
  6
CONTINUOUS
 62
    7
 10
764.73682428043253
 20
984.16965633375628
 11
764.75029626153673
 21
984.20677538305665
  0
LINE
  8
_2-7_ビス
  6
CONTINUOUS
 62
    7
 10
764.75029626153673
 20
984.20677538305665
 11
764.75770076951142
 21
984.24590246599416
  0
LINE
  8
_2-7_ビス
  6
CONTINUOUS
 62
    7
 10
764.75770076951142
 20
984.24590246599416
 11
764.75881282212845
 21
984.2858487259532
  0
LINE
  8
_2-7_ビス
  6
CONTINUOUS
 62
    7
 10
764.75881282212845
 20
984.2858487259532
 11
764.75798307106766
 21
984.29705858877719
  0
LINE
  8
_2-7_ビス
  6
CONTINUOUS
 62
    7
 10
764.65538018074858
 20
980.91635683647712
 11
764.65538018074858
 21
980.91635683647712
  0
LINE
  8
_2-7_ビス
  6
CONTINUOUS
 62
    7
 10
764.65538018074858
 20
980.91635683647712
 11
764.68990340908363
 21
980.92887038673621
  0
LINE
  8
_2-7_ビス
  6
CONTINUOUS
 62
    7
 10
764.68990340908363
 20
980.92887038673621
 11
764.72192568743674
 21
980.9477847075143
  0
LINE
  8
_2-7_ビス
  6
CONTINUOUS
 62
    7
 10
764.72192568743674
 20
980.9477847075143
 11
764.75047403508427
 21
980.97252509674581
  0
LINE
  8
_2-7_ビス
  6
CONTINUOUS
 62
    7
 10
764.75047403508427
 20
980.97252509674581
 11
764.77468102492912
 21
981.00233983022292
  0
LINE
  8
_2-7_ビス
  6
CONTINUOUS
 62
    7
 10
764.77468102492912
 20
981.00233983022292
 11
764.79381113983413
 21
981.0363230023562
  0
LINE
  8
_2-7_ビス
  6
CONTINUOUS
 62
    7
 10
764.79381113983413
 20
981.0363230023562
 11
764.80728312093834
 21
981.07344205165657
  0
LINE
  8
_2-7_ビス
  6
CONTINUOUS
 62
    7
 10
764.80728312093834
 20
981.07344205165657
 11
764.81468762891302
 21
981.11256913459408
  0
LINE
  8
_2-7_ビス
  6
CONTINUOUS
 62
    7
 10
764.81468762891302
 20
981.11256913459408
 11
764.81579968153005
 21
981.15251539455312
  0
LINE
  8
_2-7_ビス
  6
CONTINUOUS
 62
    7
 10
764.81579968153005
 20
981.15251539455312
 11
764.81496993046926
 21
981.16372525737711
  0
LINE
  8
_2-7_ビス
  6
CONTINUOUS
 62
    7
 10
764.65538018074858
 20
979.34969017077708
 11
764.65538018074858
 21
979.34969017077708
  0
LINE
  8
_2-7_ビス
  6
CONTINUOUS
 62
    7
 10
764.65538018074858
 20
979.34969017077708
 11
764.68990340908363
 21
979.36220372103617
  0
LINE
  8
_2-7_ビス
  6
CONTINUOUS
 62
    7
 10
764.68990340908363
 20
979.36220372103617
 11
764.72192568743674
 21
979.38111804181426
  0
LINE
  8
_2-7_ビス
  6
CONTINUOUS
 62
    7
 10
764.72192568743674
 20
979.38111804181426
 11
764.75047403508427
 21
979.40585843104577
  0
LINE
  8
_2-7_ビス
  6
CONTINUOUS
 62
    7
 10
764.75047403508427
 20
979.40585843104577
 11
764.77468102492912
 21
979.43567316452288
  0
LINE
  8
_2-7_ビス
  6
CONTINUOUS
 62
    7
 10
764.77468102492912
 20
979.43567316452288
 11
764.79381113983413
 21
979.46965633665616
  0
LINE
  8
_2-7_ビス
  6
CONTINUOUS
 62
    7
 10
764.79381113983413
 20
979.46965633665616
 11
764.80728312093834
 21
979.50677538595653
  0
LINE
  8
_2-7_ビス
  6
CONTINUOUS
 62
    7
 10
764.80728312093834
 20
979.50677538595653
 11
764.81468762891302
 21
979.54590246889404
  0
LINE
  8
_2-7_ビス
  6
CONTINUOUS
 62
    7
 10
764.81468762891302
 20
979.54590246889404
 11
764.81579968153005
 21
979.58584872885308
  0
LINE
  8
_2-7_ビス
  6
CONTINUOUS
 62
    7
 10
764.81579968153005
 20
979.58584872885308
 11
764.81496993046926
 21
979.59705859167707
  0
LINE
  8
_2-7_ビス
  6
CONTINUOUS
 62
    7
 10
764.65538018074858
 20
977.78302350507704
 11
764.65538018074858
 21
977.78302350507704
  0
LINE
  8
_2-7_ビス
  6
CONTINUOUS
 62
    7
 10
764.65538018074858
 20
977.78302350507704
 11
764.68990340908363
 21
977.79553705533613
  0
LINE
  8
_2-7_ビス
  6
CONTINUOUS
 62
    7
 10
764.68990340908363
 20
977.79553705533613
 11
764.72192568743674
 21
977.81445137611422
  0
LINE
  8
_2-7_ビス
  6
CONTINUOUS
 62
    7
 10
764.72192568743674
 20
977.81445137611422
 11
764.75047403508427
 21
977.83919176534573
  0
LINE
  8
_2-7_ビス
  6
CONTINUOUS
 62
    7
 10
764.75047403508427
 20
977.83919176534573
 11
764.77468102492912
 21
977.86900649882284
  0
LINE
  8
_2-7_ビス
  6
CONTINUOUS
 62
    7
 10
764.77468102492912
 20
977.86900649882284
 11
764.79381113983413
 21
977.90298967095612
  0
LINE
  8
_2-7_ビス
  6
CONTINUOUS
 62
    7
 10
764.79381113983413
 20
977.90298967095612
 11
764.80728312093834
 21
977.94010872025649
  0
LINE
  8
_2-7_ビス
  6
CONTINUOUS
 62
    7
 10
764.80728312093834
 20
977.94010872025649
 11
764.81468762891302
 21
977.979235803194
  0
LINE
  8
_2-7_ビス
  6
CONTINUOUS
 62
    7
 10
764.81468762891302
 20
977.979235803194
 11
764.81579968153005
 21
978.01918206315304
  0
LINE
  8
_2-7_ビス
  6
CONTINUOUS
 62
    7
 10
764.81579968153005
 20
978.01918206315304
 11
764.81496993046926
 21
978.03039192597703
  0
LINE
  8
_2-7_ビス
  6
CONTINUOUS
 62
    7
 10
764.59810060917425
 20
976.216356839377
 11
764.59810060917425
 21
976.216356839377
  0
LINE
  8
_2-7_ビス
  6
CONTINUOUS
 62
    7
 10
764.59810060917425
 20
976.216356839377
 11
764.6326238375093
 21
976.22887038963609
  0
LINE
  8
_2-7_ビス
  6
CONTINUOUS
 62
    7
 10
764.6326238375093
 20
976.22887038963609
 11
764.66464611586241
 21
976.24778471041418
  0
LINE
  8
_2-7_ビス
  6
CONTINUOUS
 62
    7
 10
764.66464611586241
 20
976.24778471041418
 11
764.69319446350994
 21
976.27252509964569
  0
LINE
  8
_2-7_ビス
  6
CONTINUOUS
 62
    7
 10
764.69319446350994
 20
976.27252509964569
 11
764.7174014533548
 21
976.3023398331228
  0
LINE
  8
_2-7_ビス
  6
CONTINUOUS
 62
    7
 10
764.7174014533548
 20
976.3023398331228
 11
764.73653156825981
 21
976.33632300525608
  0
LINE
  8
_2-7_ビス
  6
CONTINUOUS
 62
    7
 10
764.73653156825981
 20
976.33632300525608
 11
764.75000354936401
 21
976.37344205455645
  0
LINE
  8
_2-7_ビス
  6
CONTINUOUS
 62
    7
 10
764.75000354936401
 20
976.37344205455645
 11
764.75740805733869
 21
976.41256913749396
  0
LINE
  8
_2-7_ビス
  6
CONTINUOUS
 62
    7
 10
764.75740805733869
 20
976.41256913749396
 11
764.75852010995573
 21
976.452515397453
  0
LINE
  8
_2-7_ビス
  6
CONTINUOUS
 62
    7
 10
764.75852010995573
 20
976.452515397453
 11
764.75769035889493
 21
976.46372526027699
  0
LINE
  8
_2-7_ビス
  6
CONTINUOUS
 62
    7
 10
764.65538018074858
 20
973.08302350797692
 11
764.65538018074858
 21
973.08302350797692
  0
LINE
  8
_2-7_ビス
  6
CONTINUOUS
 62
    7
 10
764.65538018074858
 20
973.08302350797692
 11
764.68990340908363
 21
973.095537058236
  0
LINE
  8
_2-7_ビス
  6
CONTINUOUS
 62
    7
 10
764.68990340908363
 20
973.095537058236
 11
764.72192568743674
 21
973.1144513790141
  0
LINE
  8
_2-7_ビス
  6
CONTINUOUS
 62
    7
 10
764.72192568743674
 20
973.1144513790141
 11
764.75047403508427
 21
973.13919176824561
  0
LINE
  8
_2-7_ビス
  6
CONTINUOUS
 62
    7
 10
764.75047403508427
 20
973.13919176824561
 11
764.77468102492912
 21
973.16900650172272
  0
LINE
  8
_2-7_ビス
  6
CONTINUOUS
 62
    7
 10
764.77468102492912
 20
973.16900650172272
 11
764.79381113983413
 21
973.202989673856
  0
LINE
  8
_2-7_ビス
  6
CONTINUOUS
 62
    7
 10
764.79381113983413
 20
973.202989673856
 11
764.80728312093834
 21
973.24010872315637
  0
LINE
  8
_2-7_ビス
  6
CONTINUOUS
 62
    7
 10
764.80728312093834
 20
973.24010872315637
 11
764.81468762891302
 21
973.27923580609388
  0
LINE
  8
_2-7_ビス
  6
CONTINUOUS
 62
    7
 10
764.81468762891302
 20
973.27923580609388
 11
764.81579968153005
 21
973.31918206605292
  0
LINE
  8
_2-7_ビス
  6
CONTINUOUS
 62
    7
 10
764.81579968153005
 20
973.31918206605292
 11
764.81496993046926
 21
973.33039192887691
  0
LINE
  8
_2-7_ビス
  6
CONTINUOUS
 62
    7
 10
764.62310012965395
 20
971.51635684227688
 11
764.62310012965395
 21
971.51635684227688
  0
LINE
  8
_2-7_ビス
  6
CONTINUOUS
 62
    7
 10
764.62310012965395
 20
971.51635684227688
 11
764.657623357989
 21
971.52887039253596
  0
LINE
  8
_2-7_ビス
  6
CONTINUOUS
 62
    7
 10
764.657623357989
 20
971.52887039253596
 11
764.68964563634211
 21
971.54778471331406
  0
LINE
  8
_2-7_ビス
  6
CONTINUOUS
 62
    7
 10
764.68964563634211
 20
971.54778471331406
 11
764.71819398398964
 21
971.57252510254557
  0
LINE
  8
_2-7_ビス
  6
CONTINUOUS
 62
    7
 10
764.71819398398964
 20
971.57252510254557
 11
764.74240097383449
 21
971.60233983602268
  0
LINE
  8
_2-7_ビス
  6
CONTINUOUS
 62
    7
 10
764.74240097383449
 20
971.60233983602268
 11
764.7615310887395
 21
971.63632300815595
  0
LINE
  8
_2-7_ビス
  6
CONTINUOUS
 62
    7
 10
764.7615310887395
 20
971.63632300815595
 11
764.77500306984371
 21
971.67344205745633
  0
LINE
  8
_2-7_ビス
  6
CONTINUOUS
 62
    7
 10
764.77500306984371
 20
971.67344205745633
 11
764.78240757781839
 21
971.71256914039384
  0
LINE
  8
_2-7_ビス
  6
CONTINUOUS
 62
    7
 10
764.78240757781839
 20
971.71256914039384
 11
764.78351963043542
 21
971.75251540035288
  0
LINE
  8
_2-7_ビス
  6
CONTINUOUS
 62
    7
 10
764.78351963043542
 20
971.75251540035288
 11
764.78268987937463
 21
971.76372526317687
  0
LINE
  8
_2-7_ビス
  6
CONTINUOUS
 62
    7
 10
764.59099717684558
 20
969.94969017657684
 11
764.59099717684558
 21
969.94969017657684
  0
LINE
  8
_2-7_ビス
  6
CONTINUOUS
 62
    7
 10
764.59099717684558
 20
969.94969017657684
 11
764.62552040518062
 21
969.96220372683592
  0
LINE
  8
_2-7_ビス
  6
CONTINUOUS
 62
    7
 10
764.62552040518062
 20
969.96220372683592
 11
764.65754268353373
 21
969.98111804761402
  0
LINE
  8
_2-7_ビス
  6
CONTINUOUS
 62
    7
 10
764.65754268353373
 20
969.98111804761402
 11
764.68609103118126
 21
970.00585843684553
  0
LINE
  8
_2-7_ビス
  6
CONTINUOUS
 62
    7
 10
764.68609103118126
 20
970.00585843684553
 11
764.71029802102612
 21
970.03567317032264
  0
LINE
  8
_2-7_ビス
  6
CONTINUOUS
 62
    7
 10
764.71029802102612
 20
970.03567317032264
 11
764.72942813593113
 21
970.06965634245591
  0
LINE
  8
_2-7_ビス
  6
CONTINUOUS
 62
    7
 10
764.72942813593113
 20
970.06965634245591
 11
764.74290011703533
 21
970.10677539175629
  0
LINE
  8
_2-7_ビス
  6
CONTINUOUS
 62
    7
 10
764.74290011703533
 20
970.10677539175629
 11
764.75030462501002
 21
970.1459024746938
  0
LINE
  8
_2-7_ビス
  6
CONTINUOUS
 62
    7
 10
764.75030462501002
 20
970.1459024746938
 11
764.75141667762705
 21
970.18584873465284
  0
LINE
  8
_2-7_ビス
  6
CONTINUOUS
 62
    7
 10
764.75141667762705
 20
970.18584873465284
 11
764.75058692656626
 21
970.19705859747683
  0
LINE
  8
_2-7_ビス
  6
CONTINUOUS
 62
    7
 10
764.56868224581603
 20
968.38302351087793
 11
764.56868224581603
 21
968.38302351087793
  0
LINE
  8
_2-7_ビス
  6
CONTINUOUS
 62
    7
 10
764.56868224581603
 20
968.38302351087793
 11
764.60320547415108
 21
968.39553706113702
  0
LINE
  8
_2-7_ビス
  6
CONTINUOUS
 62
    7
 10
764.60320547415108
 20
968.39553706113702
 11
764.63522775250419
 21
968.41445138191511
  0
LINE
  8
_2-7_ビス
  6
CONTINUOUS
 62
    7
 10
764.63522775250419
 20
968.41445138191511
 11
764.66377610015172
 21
968.43919177114662
  0
LINE
  8
_2-7_ビス
  6
CONTINUOUS
 62
    7
 10
764.66377610015172
 20
968.43919177114662
 11
764.68798308999658
 21
968.46900650462374
  0
LINE
  8
_2-7_ビス
  6
CONTINUOUS
 62
    7
 10
764.68798308999658
 20
968.46900650462374
 11
764.70711320490159
 21
968.50298967675701
  0
LINE
  8
_2-7_ビス
  6
CONTINUOUS
 62
    7
 10
764.70711320490159
 20
968.50298967675701
 11
764.72058518600579
 21
968.54010872605738
  0
LINE
  8
_2-7_ビス
  6
CONTINUOUS
 62
    7
 10
764.72058518600579
 20
968.54010872605738
 11
764.72798969398048
 21
968.57923580899489
  0
LINE
  8
_2-7_ビス
  6
CONTINUOUS
 62
    7
 10
764.72798969398048
 20
968.57923580899489
 11
764.72910174659751
 21
968.61918206895393
  0
LINE
  8
_2-7_ビス
  6
CONTINUOUS
 62
    7
 10
764.72910174659751
 20
968.61918206895393
 11
764.72827199553672
 21
968.63039193177792
  0
LINE
  8
_2-7_ビス
  6
CONTINUOUS
 62
    7
 10
764.57786543074803
 20
966.81635684517778
 11
764.57786543074803
 21
966.81635684517778
  0
LINE
  8
_2-7_ビス
  6
CONTINUOUS
 62
    7
 10
764.57786543074803
 20
966.81635684517778
 11
764.60501136668699
 21
966.82145266402654
  0
LINE
  8
_2-7_ビス
  6
CONTINUOUS
 62
    7
 10
764.60501136668699
 20
966.82145266402654
 11
764.63094003091874
 21
966.83165353583809
  0
LINE
  8
_2-7_ビス
  6
CONTINUOUS
 62
    7
 10
764.63094003091874
 20
966.83165353583809
 11
764.65486359410124
 21
966.84664951228444
  0
LINE
  8
_2-7_ビス
  6
CONTINUOUS
 62
    7
 10
764.65486359410124
 20
966.84664951228444
 11
764.67605515087314
 21
966.86598494820953
  0
LINE
  8
_2-7_ビス
  6
CONTINUOUS
 62
    7
 10
764.67605515087314
 20
966.86598494820953
 11
764.69387080650517
 21
966.88907234617704
  0
LINE
  8
_2-7_ビス
  6
CONTINUOUS
 62
    7
 10
764.69387080650517
 20
966.88907234617704
 11
764.70776924131621
 21
966.91521020728248
  0
LINE
  8
_2-7_ビス
  6
CONTINUOUS
 62
    7
 10
764.70776924131621
 20
966.91521020728248
 11
764.71732815839755
 21
966.94360434584257
  0
LINE
  8
_2-7_ビス
  6
CONTINUOUS
 62
    7
 10
764.71732815839755
 20
966.94360434584257
 11
764.72225711489068
 21
966.97339202032526
  0
LINE
  8
_2-7_ビス
  6
CONTINUOUS
 62
    7
 10
764.72225711489068
 20
966.97339202032526
 11
764.72240634694663
 21
967.00366814731478
  0
LINE
  8
_2-7_ビス
  6
CONTINUOUS
 62
    7
 10
764.72240634694663
 20
967.00366814731478
 11
764.71777132022498
 21
967.03351280201286
  0
LINE
  8
_2-7_ビス
  6
CONTINUOUS
 62
    7
 10
764.71777132022498
 20
967.03351280201286
 11
764.70849286766725
 21
967.06201916968871
  0
LINE
  8
_2-7_ビス
  6
CONTINUOUS
 62
    7
 10
764.70849286766725
 20
967.06201916968871
 11
764.69485291035926
 21
967.0883210987854
  0
LINE
  8
_2-7_ビス
  6
CONTINUOUS
 62
    7
 10
764.69485291035926
 20
967.0883210987854
 11
764.69476941660218
 21
967.08845358704718
  0
LINE
  8
_2-7_ビス
  6
CONTINUOUS
 62
    7
 10
764.2747566807484
 20
974.64969017367741
 11
764.2747566807484
 21
974.64969017367741
  0
LINE
  8
_2-7_ビス
  6
CONTINUOUS
 62
    7
 10
764.2747566807484
 20
974.64969017367741
 11
764.35908251154206
 21
974.66195013032518
  0
LINE
  8
_2-7_ビス
  6
CONTINUOUS
 62
    7
 10
764.35908251154206
 20
974.66195013032518
 11
764.44019083300043
 21
974.69012259703231
  0
LINE
  8
_2-7_ビス
  6
CONTINUOUS
 62
    7
 10
764.44019083300043
 20
974.69012259703231
 11
764.51561720981852
 21
974.73335156765381
  0
LINE
  8
_2-7_ビス
  6
CONTINUOUS
 62
    7
 10
764.51561720981852
 20
974.73335156765381
 11
764.58306984970443
 21
974.79032355179231
  0
LINE
  8
_2-7_ビス
  6
CONTINUOUS
 62
    7
 10
764.58306984970443
 20
974.79032355179231
 11
764.64049923832783
 21
974.85930748453904
  0
LINE
  8
_2-7_ビス
  6
CONTINUOUS
 62
    7
 10
764.64049923832783
 20
974.85930748453904
 11
764.68616041277608
 21
974.93820732400491
  0
LINE
  8
_2-7_ビス
  6
CONTINUOUS
 62
    7
 10
764.68616041277608
 20
974.93820732400491
 11
764.71866598136933
 21
975.02462573849311
  0
LINE
  8
_2-7_ビス
  6
CONTINUOUS
 62
    7
 10
764.71866598136933
 20
975.02462573849311
 11
764.73702827885438
 21
975.1159369482092
  0
LINE
  8
_2-7_ビス
  6
CONTINUOUS
 62
    7
 10
764.73702827885438
 20
975.1159369482092
 11
764.74068937611401
 21
975.20936650825172
  0
LINE
  8
_2-7_ビス
  6
CONTINUOUS
 62
    7
 10
764.74068937611401
 20
975.20936650825172
 11
764.72953803256053
 21
975.30207560871634
  0
LINE
  8
_2-7_ビス
  6
CONTINUOUS
 62
    7
 10
764.72953803256053
 20
975.30207560871634
 11
764.70391307612499
 21
975.39124733049846
  0
LINE
  8
_2-7_ビス
  6
CONTINUOUS
 62
    7
 10
764.70391307612499
 20
975.39124733049846
 11
764.66459310814184
 21
975.47417223595494
  0
LINE
  8
_2-7_ビス
  6
CONTINUOUS
 62
    7
 10
764.66459310814184
 20
975.47417223595494
 11
764.61277284594132
 21
975.54833069379538
  0
LINE
  8
_2-7_ビス
  6
CONTINUOUS
 62
    7
 10
764.61277284594132
 20
975.54833069379538
 11
764.55002682196812
 21
975.61146943680444
  0
LINE
  8
_2-7_ビス
  6
CONTINUOUS
 62
    7
 10
764.55002682196812
 20
975.61146943680444
 11
764.47826154240954
 21
975.66167002622535
  0
LINE
  8
_2-7_ビス
  6
CONTINUOUS
 62
    7
 10
764.47826154240954
 20
975.66167002622535
 11
764.39965755897026
 21
975.69740714255147
  0
LINE
  8
_2-7_ビス
  6
CONTINUOUS
 62
    7
 10
764.39965755897026
 20
975.69740714255147
 11
764.31660321391121
 21
975.71759493158686
  0
LINE
  8
_2-7_ビス
  6
CONTINUOUS
 62
    7
 10
764.31660321391121
 20
975.71759493158686
 11
764.2747566807484
 21
975.72161999757748
  0
LINE
  8
_2-7_ビス
  6
CONTINUOUS
 62
    7
 10
764.2747566807484
 20
982.48302350217762
 11
764.2747566807484
 21
982.48302350217762
  0
LINE
  8
_2-7_ビス
  6
CONTINUOUS
 62
    7
 10
764.2747566807484
 20
982.48302350217762
 11
764.35908251154206
 21
982.49528345882538
  0
LINE
  8
_2-7_ビス
  6
CONTINUOUS
 62
    7
 10
764.35908251154206
 20
982.49528345882538
 11
764.44019083300043
 21
982.52345592553252
  0
LINE
  8
_2-7_ビス
  6
CONTINUOUS
 62
    7
 10
764.44019083300043
 20
982.52345592553252
 11
764.51561720981852
 21
982.56668489615402
  0
LINE
  8
_2-7_ビス
  6
CONTINUOUS
 62
    7
 10
764.51561720981852
 20
982.56668489615402
 11
764.58306984970443
 21
982.62365688029251
  0
LINE
  8
_2-7_ビス
  6
CONTINUOUS
 62
    7
 10
764.58306984970443
 20
982.62365688029251
 11
764.64049923832783
 21
982.69264081303925
  0
LINE
  8
_2-7_ビス
  6
CONTINUOUS
 62
    7
 10
764.64049923832783
 20
982.69264081303925
 11
764.68616041277608
 21
982.77154065250511
  0
LINE
  8
_2-7_ビス
  6
CONTINUOUS
 62
    7
 10
764.68616041277608
 20
982.77154065250511
 11
764.71866598136933
 21
982.85795906699332
  0
LINE
  8
_2-7_ビス
  6
CONTINUOUS
 62
    7
 10
764.71866598136933
 20
982.85795906699332
 11
764.73702827885438
 21
982.9492702767094
  0
LINE
  8
_2-7_ビス
  6
CONTINUOUS
 62
    7
 10
764.73702827885438
 20
982.9492702767094
 11
764.74068937611401
 21
983.04269983675192
  0
LINE
  8
_2-7_ビス
  6
CONTINUOUS
 62
    7
 10
764.74068937611401
 20
983.04269983675192
 11
764.72953803256053
 21
983.13540893721654
  0
LINE
  8
_2-7_ビス
  6
CONTINUOUS
 62
    7
 10
764.72953803256053
 20
983.13540893721654
 11
764.70391307612499
 21
983.22458065899866
  0
LINE
  8
_2-7_ビス
  6
CONTINUOUS
 62
    7
 10
764.70391307612499
 20
983.22458065899866
 11
764.66459310814184
 21
983.30750556445514
  0
LINE
  8
_2-7_ビス
  6
CONTINUOUS
 62
    7
 10
764.66459310814184
 20
983.30750556445514
 11
764.61277284594132
 21
983.38166402229558
  0
LINE
  8
_2-7_ビス
  6
CONTINUOUS
 62
    7
 10
764.61277284594132
 20
983.38166402229558
 11
764.55002682196812
 21
983.44480276530464
  0
LINE
  8
_2-7_ビス
  6
CONTINUOUS
 62
    7
 10
764.55002682196812
 20
983.44480276530464
 11
764.47826154240954
 21
983.49500335472555
  0
LINE
  8
_2-7_ビス
  6
CONTINUOUS
 62
    7
 10
764.47826154240954
 20
983.49500335472555
 11
764.39965755897026
 21
983.53074047105167
  0
LINE
  8
_2-7_ビス
  6
CONTINUOUS
 62
    7
 10
764.39965755897026
 20
983.53074047105167
 11
764.31660321391121
 21
983.55092826008706
  0
LINE
  8
_2-7_ビス
  6
CONTINUOUS
 62
    7
 10
764.31660321391121
 20
983.55092826008706
 11
764.2747566807484
 21
983.55495332607768
  0
LINE
  8
_2-7_ビス
  6
CONTINUOUS
 62
    7
 10
764.65024882463786
 20
964.09530421527711
 11
764.65024882463786
 21
964.09530421527711
  0
LINE
  8
_2-7_ビス
  6
CONTINUOUS
 62
    7
 10
764.65024882463786
 20
964.09530421527711
 11
764.64484490021164
 21
964.23455983719236
  0
LINE
  8
_2-7_ビス
  6
CONTINUOUS
 62
    7
 10
764.64484490021164
 20
964.23455983719236
 11
764.61752821219227
 21
964.37066818227515
  0
LINE
  8
_2-7_ビス
  6
CONTINUOUS
 62
    7
 10
764.61752821219227
 20
964.37066818227515
 11
764.59997349154969
 21
964.4251287764771
  0
LINE
  8
_2-7_ビス
  6
CONTINUOUS
 62
    7
 10
765.74115443074743
 20
962.09597675772477
 11
765.74115443074743
 21
962.09597675772477
  0
LINE
  8
_2-7_ビス
  6
CONTINUOUS
 62
    7
 10
765.74115443074743
 20
962.09597675772477
 11
765.73833260591471
 21
962.15181695226875
  0
LINE
  8
_2-7_ビス
  6
CONTINUOUS
 62
    7
 10
765.73833260591471
 20
962.15181695226875
 11
765.72673391842591
 21
962.20627009012435
  0
LINE
  8
_2-7_ビス
  6
CONTINUOUS
 62
    7
 10
765.72673391842591
 20
962.20627009012435
 11
765.70671078853115
 21
962.25768164025237
  0
LINE
  8
_2-7_ビス
  6
CONTINUOUS
 62
    7
 10
765.70671078853115
 20
962.25768164025237
 11
765.67887160890018
 21
962.30448948871765
  0
LINE
  8
_2-7_ビス
  6
CONTINUOUS
 62
    7
 10
765.67887160890018
 20
962.30448948871765
 11
765.64406225891878
 21
962.34527140273053
  0
LINE
  8
_2-7_ビス
  6
CONTINUOUS
 62
    7
 10
765.64406225891878
 20
962.34527140273053
 11
765.60334040307168
 21
962.37878824447034
  0
LINE
  8
_2-7_ビス
  6
CONTINUOUS
 62
    7
 10
765.60334040307168
 20
962.37878824447034
 11
765.55794335434268
 21
962.40402162166117
  0
LINE
  8
_2-7_ビス
  6
CONTINUOUS
 62
    7
 10
765.55794335434268
 20
962.40402162166117
 11
765.50925047908515
 21
962.42020483090585
  0
LINE
  8
_2-7_ビス
  6
CONTINUOUS
 62
    7
 10
765.50925047908515
 20
962.42020483090585
 11
765.45874128567425
 21
962.42684615358053
  0
LINE
  8
_2-7_ビス
  6
CONTINUOUS
 62
    7
 10
765.45874128567425
 20
962.42684615358053
 11
765.40795047039285
 21
962.42374379645628
  0
LINE
  8
_2-7_ビス
  6
CONTINUOUS
 62
    7
 10
765.40795047039285
 20
962.42374379645628
 11
765.35842128646175
 21
962.41099202308465
  0
LINE
  8
_2-7_ビス
  6
CONTINUOUS
 62
    7
 10
765.35842128646175
 20
962.41099202308465
 11
765.31165865307173
 21
962.38897828964673
  0
LINE
  8
_2-7_ビス
  6
CONTINUOUS
 62
    7
 10
765.31165865307173
 20
962.38897828964673
 11
765.26908342917545
 21
962.35837147229358
  0
LINE
  8
_2-7_ビス
  6
CONTINUOUS
 62
    7
 10
765.26908342917545
 20
962.35837147229358
 11
765.23198924140684
 21
962.32010154368265
  0
LINE
  8
_2-7_ビス
  6
CONTINUOUS
 62
    7
 10
765.23198924140684
 20
962.32010154368265
 11
765.20150317789057
 21
962.27533131622931
  0
LINE
  8
_2-7_ビス
  6
CONTINUOUS
 62
    7
 10
765.20150317789057
 20
962.27533131622931
 11
765.17855154224003
 21
962.22542111063979
  0
LINE
  8
_2-7_ビス
  6
CONTINUOUS
 62
    7
 10
765.17855154224003
 20
962.22542111063979
 11
765.16383170829033
 21
962.17188742325527
  0
LINE
  8
_2-7_ビス
  6
CONTINUOUS
 62
    7
 10
765.16383170829033
 20
962.17188742325527
 11
765.15779093074752
 21
962.11635684807754
  0
LINE
  8
_2-7_ビス
  6
CONTINUOUS
 62
    7
 10
765.15779093074752
 20
962.11635684807754
 11
765.15779093074752
 21
962.11635684807743
  0
LINE
  8
_2-7_ビス
  6
CONTINUOUS
 62
    7
 10
769.56850750554634
 20
1043.1795147174803
 11
765.31850585594736
 21
1043.1795147174803
  0
LINE
  8
_2-7_ビス
  6
CONTINUOUS
 62
    7
 10
762.44350255675056
 20
1046.0545180166805
 11
765.31850585594736
 21
1043.1795147174803
  0
LINE
  8
_2-7_ビス
  6
CONTINUOUS
 62
    7
 10
772.44351080474428
 20
1046.0545180166805
 11
762.44350255675056
 21
1046.0545180166805
  0
LINE
  8
_2-7_ビス
  6
CONTINUOUS
 62
    7
 10
762.44350255675056
 20
1046.5545444102595
 11
762.44350255675056
 21
1046.0545180166805
  0
LINE
  8
_2-7_ビス
  6
CONTINUOUS
 62
    7
 10
772.44351080474428
 20
1046.0545180166805
 11
772.44351080474428
 21
1046.5545444102595
  0
LINE
  8
_2-7_ビス
  6
CONTINUOUS
 62
    7
 10
772.44351080474428
 20
1046.5545444102595
 11
762.44350255675056
 21
1046.5545444102595
  0
LINE
  8
_2-7_ビス
  6
CONTINUOUS
 62
    7
 10
772.44351080474428
 20
1046.0545180166805
 11
769.56850750554634
 21
1043.1795147174803
  0
ARC
  8
_2-7_ビス
  6
DASHED3
 62
    7
 10
767.44350668074742
 20
1045.2900774286304
 40
1.8403175392666382
 50
217.11750793457031
 51
322.88247680664062
  0
LINE
  8
_2-7_ビス
  6
DASHED3
 62
    7
 10
769.99352251689641
 20
1046.0545180166805
 11
768.91099803684949
 21
1044.1794932726971
  0
LINE
  8
_2-7_ビス
  6
DASHED3
 62
    7
 10
764.89352796057244
 20
1046.0545180166805
 11
765.97605244061822
 21
1044.1794932726971
  0
LINE
  8
_2-7_ビス
  6
DASHED3
 62
    7
 10
764.89352796057244
 20
1046.0545180166805
 11
764.89352796057244
 21
1046.5545444102595
  0
LINE
  8
_2-7_ビス
  6
DASHED3
 62
    7
 10
769.99352251689641
 20
1046.0545180166805
 11
769.99352251689641
 21
1046.5545444102595
  0
LINE
  8
_2-6_鋼板__アングル
  6
CONTINUOUS
 62
    2
 10
737.44350668074628
 20
1045.4795147174805
 11
760.4464504058991
 21
1045.4795147174805
  0
LINE
  8
_2-6_鋼板__アングル
  6
CONTINUOUS
 62
    2
 10
774.44056295559574
 20
1045.4795147174805
 11
797.44350668074628
 21
1045.4795147174805
  0
LINE
  8
_2-6_鋼板__アングル
  6
CONTINUOUS
 62
    2
 10
797.44350668074628
 20
1046.6795147174817
 11
737.44350668074628
 21
1046.6795147174817
  0
LINE
  8
_2-6_鋼板__アングル
  6
CONTINUOUS
 62
    2
 10
760.94350668074765
 20
1046.6795147174817
 11
764.44350668074674
 21
1043.1795147174803
  0
LINE
  8
_2-6_鋼板__アングル
  6
CONTINUOUS
 62
    2
 10
773.94350668074719
 20
1046.6795147174817
 11
770.4435066807481
 21
1043.1795147174803
  0
LINE
  8
_2-6_鋼板__アングル
  6
CONTINUOUS
 62
    2
 10
760.4464504058991
 20
1045.4795147174805
 11
762.74645040589928
 21
1043.1795147174803
  0
LINE
  8
_2-6_鋼板__アングル
  6
CONTINUOUS
 62
    2
 10
774.44056295559574
 20
1045.4795147174805
 11
772.14056295559556
 21
1043.1795147174803
  0
LINE
  8
_2-6_鋼板__アングル
  6
CONTINUOUS
 62
    2
 10
762.74645040589928
 20
1043.1795147174803
 11
772.14056295559556
 21
1043.1795147174803
  0
LINE
  8
_2-6_鋼板__アングル
  6
CONTINUOUS
 62
    2
 10
797.44350668074628
 20
1046.6795147174817
 11
797.44350668074628
 21
1045.4795147174805
  0
LINE
  8
_2-6_鋼板__アングル
  6
CONTINUOUS
 62
    2
 10
737.44350668074628
 20
1046.6795147174817
 11
737.44350668074628
 21
1045.4795147174805
  0
LINE
  8
_2-2_in_line
  6
CONTINUOUS
 62
    7
 10
737.44350668074856
 20
1046.6795147174817
 11
731.38132885425773
 21
1043.1795147174803
  0
LINE
  8
_2-2_in_line
  6
CONTINUOUS
 62
    7
 10
797.97940506560724
 20
1048.6795147174821
 11
736.90760829588771
 21
1048.6795147174821
  0
LINE
  8
_2-2_in_line
  6
CONTINUOUS
 62
    7
 10
803.50568450723711
 20
1043.1795147174803
 11
804.50568450723711
 21
1044.9115655250484
  0
LINE
  8
_2-2_in_line
  6
CONTINUOUS
 62
    7
 10
797.44350668074628
 20
1046.6795147174817
 11
803.50568450723711
 21
1043.1795147174803
  0
LINE
  8
_2-2_in_line
  6
CONTINUOUS
 62
    7
 10
731.38132885425773
 20
1043.1795147174803
 11
730.38132885425784
 21
1044.9115655250484
  0
LINE
  8
_2-2_in_line
  6
CONTINUOUS
 62
    7
 10
797.97940506560724
 20
1048.6795147174821
 11
807.50568450723461
 21
1043.1795147174803
  0
LINE
  8
_2-2_in_line
  6
CONTINUOUS
 62
    7
 10
736.90760829588771
 20
1048.6795147174821
 11
727.38132885426
 21
1043.1795147174803
  0
LINE
  8
_2-4_out_line
  6
CONTINUOUS
 62
    2
 10
799.31915102776304
 20
1053.6795147174821
 11
735.56786233373191
 21
1053.6795147174821
  0
LINE
  8
_2-d_ハッチ他
  6
CONTINUOUS
 62
    4
 10
801.26528240132313
 20
1044.4730114764211
 11
802.72938401646127
 21
1045.9371130915592
  0
LINE
  8
_2-d_ハッチ他
  6
CONTINUOUS
 62
    4
 10
799.02384372090421
 20
1045.7671067019355
 11
800.48794533604121
 21
1047.2312083170727
  0
LINE
  8
_2-d_ハッチ他
  6
CONTINUOUS
 62
    4
 10
796.40071783051565
 20
1046.6795147174803
 11
798.24650665562115
 21
1048.5253035425858
  0
LINE
  8
_2-d_ハッチ他
  6
CONTINUOUS
 62
    4
 10
792.86518392458288
 20
1046.6795147174817
 11
794.8651839245839
 21
1048.6795147174821
  0
LINE
  8
_2-d_ハッチ他
  6
CONTINUOUS
 62
    4
 10
789.32965001864955
 20
1046.6795147174817
 11
791.32965001865
 21
1048.6795147174821
  0
LINE
  8
_2-d_ハッチ他
  6
CONTINUOUS
 62
    4
 10
785.79411611271678
 20
1046.6795147174817
 11
787.7941161127178
 21
1048.6795147174821
  0
LINE
  8
_2-d_ハッチ他
  6
CONTINUOUS
 62
    4
 10
782.2585822067806
 20
1046.6795147174794
 11
784.25858220678447
 21
1048.6795147174821
  0
LINE
  8
_2-d_ハッチ他
  6
CONTINUOUS
 62
    4
 10
778.72304830085068
 20
1046.6795147174817
 11
780.72304830085113
 21
1048.6795147174821
  0
LINE
  8
_2-d_ハッチ他
  6
CONTINUOUS
 62
    4
 10
775.18751439491393
 20
1046.6795147174794
 11
777.18751439491837
 21
1048.679514717483
  0
LINE
  8
_2-d_ハッチ他
  6
CONTINUOUS
 62
    4
 10
771.65198048899083
 20
1046.6795147174794
 11
773.65198048899299
 21
1048.6795147174821
  0
LINE
  8
_2-d_ハッチ他
  6
CONTINUOUS
 62
    4
 10
768.11644658304783
 20
1046.6795147174794
 11
770.11644658305056
 21
1048.6795147174821
  0
LINE
  8
_2-d_ハッチ他
  6
CONTINUOUS
 62
    4
 10
764.58091267712302
 20
1046.6795147174794
 11
766.58091267712746
 21
1048.679514717483
  0
LINE
  8
_2-d_ハッチ他
  6
CONTINUOUS
 62
    4
 10
761.04537877119481
 20
1046.6795147174839
 11
763.04537877119185
 21
1048.6795147174807
  0
LINE
  8
_2-d_ハッチ他
  6
CONTINUOUS
 62
    4
 10
757.50984486525692
 20
1046.6795147174794
 11
759.50984486525908
 21
1048.6795147174821
  0
LINE
  8
_2-d_ハッチ他
  6
CONTINUOUS
 62
    4
 10
753.974310959327
 20
1046.6795147174826
 11
755.97431095932575
 21
1048.6795147174821
  0
LINE
  8
_2-d_ハッチ他
  6
CONTINUOUS
 62
    4
 10
750.43877705339196
 20
1046.6795147174817
 11
752.43877705339298
 21
1048.6795147174821
  0
LINE
  8
_2-d_ハッチ他
  6
CONTINUOUS
 62
    4
 10
746.9032431474609
 20
1046.6795147174839
 11
748.90324314746022
 21
1048.6795147174821
  0
LINE
  8
_2-d_ハッチ他
  6
CONTINUOUS
 62
    4
 10
743.36770924152302
 20
1046.6795147174794
 11
745.36770924152688
 21
1048.6795147174821
  0
LINE
  8
_2-d_ハッチ他
  6
CONTINUOUS
 62
    4
 10
739.83217533559196
 20
1046.6795147174817
 11
741.83217533559412
 21
1048.679514717483
  0
LINE
  8
_2-d_ハッチ他
  6
CONTINUOUS
 62
    4
 10
734.72999436194937
 20
1045.1128676497724
 11
738.29664142965851
 21
1048.6795147174807
  0
LINE
  8
_2-d_ハッチ他
  6
CONTINUOUS
 62
    4
 10
730.60527398563647
 20
1044.523681179392
 11
731.82893293970335
 21
1045.7473401334591
  0
LINE
  8
_2-4_out_line
  6
CONTINUOUS
 62
    2
 10
808.84543046939439
 20
1048.179514717478
 11
1031.8203617335851
 21
1048.179514717478
  0
LINE
  8
_2-4_out_line
  6
CONTINUOUS
 62
    2
 10
799.31915102776304
 20
1053.6795147174821
 11
808.84543046939439
 21
1048.179514717478
  0
LINE
  8
_2-4_out_line
  6
CONTINUOUS
 62
    2
 10
735.56786233373191
 20
1053.6795147174821
 11
726.04158289210022
 21
1048.179514717478
  0
LINE
  8
_2-4_out_line
  6
CONTINUOUS
 62
    2
 10
667.44350668074742
 20
1048.179514717478
 11
726.04158289210022
 21
1048.179514717478
  0
TEXT
  8
_2-a_moji
 62
    7
 10
902.60432817807566
 20
1223.468393337716
 40
15
 41
1
 50
0
  1
ロンテープＭ
  0
LINE
  8
_2-a_moji
  6
CONTINUOUS
 62
    7
 10
892.60432817807566
 20
1230.968393337716
 11
858.38396861473041
 21
1230.968393337716
  0
LINE
  8
_2-a_moji
  6
CONTINUOUS
 62
    7
 10
751.98473493468225
 20
1046.6795147174794
 11
858.38396861473041
 21
1230.968393337716
  0
LINE
  8
ADD_LINE
  6
DOT
 62
  136
 10
1542.4435066807473
 20
1453.179514717478
 11
542.44350668074514
 21
1453.179514717478
  0
TEXT
  8
_2-a_moji
 62
    7
 10
925.82392030206745
 20
1123.468393337716
 40
15
 41
1
 50
0
  1
ＱＮパネル
  0
TEXT
  8
_2-a_moji
 62
    7
 10
1215.2531361988249
 20
1148.468393337716
 40
15
 41
1
 50
0
  1
〈ＱＮパネルジョイント部〉
  0
TEXT
  8
_2-a_moji
 62
    7
 10
1255.1480143350661
 20
1078.468393337716
 40
15
 41
1
 50
0
  1
(ＱＮパネル面 片面塗り)
  0
ENDSEC
  0
EOF
