  0
SECTION
  2
HEADER
  9
$ACADVER
  1
AC1009
  9
$INSBASE
 10
0
 20
0
 30
0
  9
$EXTMIN
 10
0
 20
0
  9
$EXTMAX
 10
2100
 20
1485
  9
$LIMMIN
 10
0
 20
0
  9
$LIMMAX
 10
2100
 20
1485
  9
$LTSCALE
 40
5
  0
ENDSEC
  0
SECTION
  2
TABLES
  0
TABLE
  2
LTYPE
 70
     9
  0
LTYPE
  2
CONTINUOUS
 70
    64
  3
実線
 72
    65
 73
     0
 40
0.0
  0
LTYPE
  2
DASHED1
 70
    64
  3
--  --  --  --  --  --  --  --  
 72
    65
 73
     2
 40
2.5
 49
1.25
 49
-1.25
  0
LTYPE
  2
DASHED2
 70
    64
  3
----    ----    ----    ----    
 72
    65
 73
     2
 40
5.0
 49
2.5
 49
-2.5
  0
LTYPE
  2
DASHED3
 70
    64
  3
------  ------  ------  ------  
 72
    65
 73
     2
 40
5.0
 49
3.75
 49
-1.25
  0
LTYPE
  2
CENTER1
 70
    64
  3
----- - ----- - ----- - ----- - 
 72
    65
 73
     4
 40
10.0
 49
6.25
 49
-1.25
 49
1.25
 49
-1.25
  0
LTYPE
  2
CENTER2
 70
    64
  3
----------  --  ----------  --  
 72
    65
 73
     4
 40
20.0
 49
12.5
 49
-2.5
 49
2.5
 49
-2.5
  0
LTYPE
  2
PHANTOM1
 70
    64
  3
--- - - --- - - --- - - --- - - 
 72
    65
 73
     6
 40
10.0
 49
3.25
 49
-1.25
 49
1.25
 49
-1.25
 49
1.25
 49
-1.25
  0
LTYPE
  2
PHANTOM2
 70
    64
  3
--------  -  -  --------  -  -  
 72
    65
 73
     6
 40
20.0
 49
10.0
 49
-2.5
 49
1.25
 49
-2.5
 49
1.25
 49
-2.5
  0
LTYPE
  2
DOT
 70
    64
  3
-   -   -   -   -   -   -   -   
 72
    65
 73
     2
 40
2.5
 49
0.625
 49
-1.875
  0
LTYPE
  2
DUMMY
 70
    64
  3
ダミー
 72
    65
 73
     0
 40
0.0
  0
LTYPE
  2
RAND1
 70
    64
  3
ランダム線1
 72
    65
 73
     4
 40
10.0
 49
1.0
 49
-2.0
 49
3.0
 49
-4.0
  0
LTYPE
  2
RAND2
 70
    64
  3
ランダム線2
 72
    65
 73
     4
 40
14.0
 49
2.0
 49
-3.0
 49
4.0
 49
-5.0
  0
LTYPE
  2
RAND3
 70
    64
  3
ランダム線3
 72
    65
 73
     4
 40
18.0
 49
3.0
 49
-4.0
 49
5.0
 49
-6.0
  0
LTYPE
  2
RAND4
 70
    64
  3
ランダム線4
 72
    65
 73
     4
 40
22.0
 49
4.0
 49
-5.0
 49
6.0
 49
-7.0
  0
LTYPE
  2
RAND5
 70
    64
  3
ランダム線5
 72
    65
 73
     4
 40
26.0
 49
5.0
 49
-6.0
 49
7.0
 49
-8.0
  0
LTYPE
  2
LONG1
 70
    64
  3
----------  --  ----------  --  
 72
    65
 73
     4
 40
40.0
 49
32.5
 49
-2.5
 49
2.5
 49
-2.5
  0
LTYPE
  2
LONG2
 70
    64
  3
--------  -  -  --------  -  -  
 72
    65
 73
     6
 40
40.0
 49
30.0
 49
-2.5
 49
1.25
 49
-2.5
 49
1.25
 49
-2.5
  0
LTYPE
  2
LONG3
 70
    64
  3
+++++++++++++++..+++++++++++++++
 72
    65
 73
     2
 40
40.0
 49
37.5
 49
-2.5
  0
LTYPE
  2
LONG4
 70
    64
  3
+++++++++++++++..+++++++++++++++
 72
    65
 73
     2
 40
80.0
 49
75.0
 49
-5.0
  0
LTYPE
  2
LONG5
 70
    64
  3
----------  --  ----------  --  
 72
    65
 73
     4
 40
60.0
 49
37.5
 49
-7.5
 49
7.5
 49
-7.5
  0
LTYPE
  2
dashed
 70
   64
  3
-------   -------------   ------
 72
   65
 73
    2
 40
7.5
 49
6
 49
-1.5
  0
LTYPE
  2
dashed_spaced
 70
   64
  3
----        --------        ----
 72
   65
 73
    2
 40
12
 49
6
 49
-6
  0
LTYPE
  2
long_dashed_dotted
 70
   64
  3
------------- --- --------------
 72
   65
 73
    4
 40
15.25
 49
12
 49
-1.5
 49
0.25
 49
-1.5
  0
LTYPE
  2
long_dashed_double-dotted
 70
   64
  3
----------- --- --- ------------
 72
   65
 73
    6
 40
17
 49
12
 49
-1.5
 49
0.25
 49
-1.5
 49
0.25
 49
-1.5
  0
LTYPE
  2
long_dashed_triplicate-dotted
 70
   64
  3
--------- --- --- --- ----------
 72
   65
 73
    8
 40
18.75
 49
12
 49
-1.5
 49
0.25
 49
-1.5
 49
0.25
 49
-1.5
 49
0.25
 49
-1.5
  0
LTYPE
  2
dotted
 70
   64
  3
   -       -       -       -    
 72
   65
 73
    2
 40
1.75
 49
0.25
 49
-1.5
  0
LTYPE
  2
chain
 70
   64
  3
-------------- -- --------------
 72
   65
 73
    4
 40
18.5
 49
12
 49
-1.5
 49
3.5
 49
-1.5
  0
LTYPE
  2
chain_double_dash
 70
   64
  3
------------ -- -- -------------
 72
   65
 73
    6
 40
23.5
 49
12
 49
-1.5
 49
3.5
 49
-1.5
 49
3.5
 49
-1.5
  0
LTYPE
  2
dashed_dotted
 70
   64
  3
-----------     -     ----------
 72
   65
 73
    4
 40
9.25
 49
6
 49
-1.5
 49
0.25
 49
-1.5
  0
LTYPE
  2
double-dashed_dotted
 70
   64
  3
------   -----------   -   -----
 72
   65
 73
    6
 40
16.75
 49
6
 49
-1.5
 49
6
 49
-1.5
 49
0.25
 49
-1.5
  0
LTYPE
  2
dashed_double-dotted
 70
   64
  3
---------    -    -    ---------
 72
   65
 73
    6
 40
11
 49
6
 49
-1.5
 49
0.25
 49
-1.5
 49
0.25
 49
-1.5
  0
LTYPE
  2
double-dashed_double-dotted
 70
   64
  3
-----   ---------   -   -   ----
 72
   65
 73
    8
 40
18.5
 49
6
 49
-1.5
 49
6
 49
-1.5
 49
0.25
 49
-1.5
 49
0.25
 49
-1.5
  0
LTYPE
  2
dashed_triplicate-dotted
 70
   64
  3
-------    -    -    -    ------
 72
   65
 73
    8
 40
12.75
 49
6
 49
-1.5
 49
0.25
 49
-1.5
 49
0.25
 49
-1.5
 49
0.25
 49
-1.5
  0
LTYPE
  2
double-dashed_triplicate-dotted
 70
   64
  3
-----  ---------  -  -  -  -----
 72
   65
 73
   10
 40
20.25
 49
6
 49
-1.5
 49
6
 49
-1.5
 49
0.25
 49
-1.5
 49
0.25
 49
-1.5
 49
0.25
 49
-1.5
  0
LTYPE
  2
undefined
 70
   64
  3
--------------------------------
 72
   65
 73
    0
 40
0
  0
LTYPE
  2
_
 70
   64
  3
                                
 72
   65
 73
    0
 40
0
  0
LTYPE
  2
__18
 70
   64
  3
                                
 72
   65
 73
    0
 40
0
  0
LTYPE
  2
__19
 70
   64
  3
                                
 72
   65
 73
    0
 40
0
  0
LTYPE
  2
__20
 70
   64
  3
                                
 72
   65
 73
    0
 40
0
  0
LTYPE
  2
__21
 70
   64
  3
                                
 72
   65
 73
    0
 40
0
  0
LTYPE
  2
__22
 70
   64
  3
                                
 72
   65
 73
    0
 40
0
  0
LTYPE
  2
__23
 70
   64
  3
                                
 72
   65
 73
    0
 40
0
  0
LTYPE
  2
__24
 70
   64
  3
                                
 72
   65
 73
    0
 40
0
  0
LTYPE
  2
__25
 70
   64
  3
                                
 72
   65
 73
    0
 40
0
  0
LTYPE
  2
__26
 70
   64
  3
                                
 72
   65
 73
    0
 40
0
  0
LTYPE
  2
__27
 70
   64
  3
                                
 72
   65
 73
    0
 40
0
  0
LTYPE
  2
__28
 70
   64
  3
                                
 72
   65
 73
    0
 40
0
  0
LTYPE
  2
__29
 70
   64
  3
                                
 72
   65
 73
    0
 40
0
  0
LTYPE
  2
__30
 70
   64
  3
                                
 72
   65
 73
    0
 40
0
  0
LTYPE
  2
__31
 70
   64
  3
                                
 72
   65
 73
    0
 40
0
  0
LTYPE
  2
__32
 70
   64
  3
                                
 72
   65
 73
    0
 40
0
  0
ENDTAB
  0
TABLE
  2
STYLE
  5
3
100
AcDbSymbolTable
 70
     1
  0
STYLE
  5
10
100
AcDbSymbolTableRecord
100
AcDbTextStyleTableRecord
  2
STANDARD
 70
     0
 40
0.0
 41
1.0
 50
0.0
 71
     0
 42
0.2
  3
txt
  4
bigfont.shx
  0
STYLE
  5
26
100
AcDbSymbolTableRecord
100
AcDbTextStyleTableRecord
  2
TATEGAKI
 70
    68
 40
0.0
 41
1.0
 50
0.0
 71
     0
 42
1.0
  3
txt
  4
bigfont.shx
  0
ENDTAB
  0
TABLE
  2
LAYER
 70
   16
  0
LAYER
  2
_4-2_
 70
   64
 62
    7
  6
CONTINUOUS
  0
LAYER
  2
_4-3_
 70
   64
 62
    7
  6
CONTINUOUS
  0
LAYER
  2
_4-4_
 70
   64
 62
    7
  6
CONTINUOUS
  0
LAYER
  2
_4-5_
 70
   64
 62
    7
  6
CONTINUOUS
  0
LAYER
  2
_4-6_
 70
   64
 62
    7
  6
CONTINUOUS
  0
LAYER
  2
_4-7_
 70
   64
 62
    7
  6
CONTINUOUS
  0
LAYER
  2
_4-a_
 70
   64
 62
    7
  6
CONTINUOUS
  0
LAYER
  2
_4-b_
 70
   64
 62
    7
  6
CONTINUOUS
  0
LAYER
  2
_4-d_
 70
   64
 62
    7
  6
CONTINUOUS
  0
LAYER
  2
_4-e_
 70
   64
 62
    7
  6
CONTINUOUS
  0
LAYER
  2
_f-2_
 70
   64
 62
    7
  6
CONTINUOUS
  0
LAYER
  2
_f-5_
 70
   64
 62
    7
  6
CONTINUOUS
  0
LAYER
  2
_f-7_
 70
   64
 62
    7
  6
CONTINUOUS
  0
LAYER
  2
_f-8_
 70
   64
 62
    7
  6
CONTINUOUS
  0
LAYER
  2
_f-a_
 70
   64
 62
    7
  6
CONTINUOUS
  0
LAYER
  2
ADD_LINE
 70
   64
 62
    7
  6
CONTINUOUS
  0
ENDTAB
  0
ENDSEC
  0
SECTION
  2
BLOCKS
  0
ENDSEC
  0
SECTION
  2
ENTITIES
  0
LINE
  8
ADD_LINE
  6
DOT
 62
  136
 10
642.36507530819665
 20
1463.0071689711942
 11
642.36507530819665
 21
33.007168971194858
  0
LINE
  8
ADD_LINE
  6
DOT
 62
  136
 10
642.36507530819665
 20
1463.0071689711942
 11
1642.3650753081965
 21
1463.0071689711942
  0
LINE
  8
ADD_LINE
  6
DOT
 62
  136
 10
1642.3650753081965
 20
1463.0071689711942
 11
1642.3650753081965
 21
33.007168971194858
  0
LINE
  8
ADD_LINE
  6
DOT
 62
  136
 10
1642.3650753081965
 20
33.007168971194858
 11
642.36507530819438
 21
33.007168971194858
  0
LINE
  8
_f-7_
  6
CONTINUOUS
 62
    1
 10
742.36507530819665
 20
1363.0071689711942
 11
1542.3650753081965
 21
1363.0071689711942
  0
LINE
  8
_f-7_
  6
CONTINUOUS
 62
    1
 10
742.36507530819665
 20
773.00716897119423
 11
1542.3650753081965
 21
773.00716897119423
  0
LINE
  8
_f-7_
  6
CONTINUOUS
 62
    1
 10
1542.3650753081965
 20
1363.0071689711942
 11
1542.3650753081965
 21
773.00716897119423
  0
LINE
  8
_f-7_
  6
CONTINUOUS
 62
    1
 10
742.36507530819665
 20
1363.0071689711942
 11
742.36507530819665
 21
773.00716897119423
  0
LINE
  8
ADD_LINE
  6
DOT
 62
  136
 10
742.36507530819665
 20
793.00716897119423
 11
1542.3650753081965
 21
793.00716897119423
  0
LINE
  8
_f-5_
  6
CONTINUOUS
 62
    6
 10
742.36507530819665
 20
813.00716897119423
 11
1542.3650753081965
 21
813.00716897119423
  0
LINE
  8
ADD_LINE
  6
DOT
 62
  136
 10
762.36507530819665
 20
813.00716897119423
 11
762.36507530819665
 21
773.00716897119423
  0
LINE
  8
_f-2_
  6
CONTINUOUS
 62
    7
 10
1112.3650753081965
 20
813.00716897119423
 11
1112.3650753081965
 21
773.00716897119423
  0
LINE
  8
ADD_LINE
  6
DOT
 62
  136
 10
1127.3650753081965
 20
813.00716897119423
 11
1127.3650753081965
 21
773.00716897119423
  0
LINE
  8
ADD_LINE
  6
DOT
 62
  136
 10
977.36507530819665
 20
813.00716897119423
 11
977.36507530819665
 21
773.00716897119423
  0
TEXT
  8
_f-a_
 62
    7
 10
977.36507530819665
 20
783.00716897119423
 40
17.5
 41
1
 50
0
  1
下地：ＲＣ
  0
LINE
  8
_f-5_
  6
CONTINUOUS
 62
    6
 10
962.36507530819665
 20
813.00716897119423
 11
962.36507530819665
 21
773.00716897119423
  0
LINE
  8
_f-5_
  6
CONTINUOUS
 62
    6
 10
959.86507530819665
 20
813.00716897119423
 11
959.86507530819665
 21
773.00716897119423
  0
TEXT
  8
_f-a_
 62
    7
 10
762.36507530819665
 20
783.00716897119423
 40
20
 41
1
 50
0
  1
１２５・１２７仕様
  0
LINE
  8
ADD_LINE
  6
DOT
 62
  136
 10
1427.3650753081965
 20
813.00716897119423
 11
1427.3650753081965
 21
773.00716897119423
  0
LINE
  8
_f-2_
  6
CONTINUOUS
 62
    7
 10
1412.3650753081965
 20
813.00716897119423
 11
1412.3650753081965
 21
773.00716897119423
  0
LINE
  8
ADD_LINE
  6
DOT
 62
  136
 10
1322.3650753081965
 20
813.00716897119423
 11
1322.3650753081965
 21
773.00716897119423
  0
LINE
  8
_f-2_
  6
CONTINUOUS
 62
    7
 10
1307.3650753081965
 20
813.00716897119423
 11
1307.3650753081965
 21
773.00716897119423
  0
TEXT
  8
_f-a_
 62
    7
 10
1427.3650753081965
 20
783.00716897119423
 40
15
 41
1
 50
0
  1
図番
  0
TEXT
  8
_f-a_
 62
    7
 10
1322.3650753081965
 20
783.00716897119423
 40
15
 41
1
 50
0
  1
Ｓ＝１：８
  0
TEXT
  8
_f-a_
 62
    7
 10
1473.7827440323035
 20
783.00716897119423
 40
15
 41
1
 50
0
  1
３－７
  0
TEXT
  8
_f-a_
 62
    7
 10
1127.3650753081965
 20
783.00716897119423
 40
17.5
 41
1
 50
0
  1
部位：パイプ廻り
  0
LINE
  8
_4-4_
  6
CONTINUOUS
 62
    2
 10
1142.3650753081965
 20
987.69322243909778
 11
1142.3650753081965
 21
990.81822243909778
  0
LINE
  8
_4-2_
  6
CONTINUOUS
 62
    7
 10
1079.8650753081965
 20
987.69322243909778
 11
1142.3650753081965
 21
987.69322243909778
  0
LINE
  8
_4-2_
  6
CONTINUOUS
 62
    7
 10
1079.8650753081965
 20
1228.3182224390978
 11
1085.4900753081956
 21
1228.3182224390978
  0
LINE
  8
_4-d_
  6
CONTINUOUS
 62
    7
 10
1081.1150753081965
 20
1228.3182224390978
 11
1081.1150753081965
 21
1207.280563665445
  0
LINE
  8
_4-d_
  6
CONTINUOUS
 62
    7
 10
1081.1150753081965
 20
1207.280563665445
 11
1079.8650753081965
 21
1205.1155001559848
  0
LINE
  8
_4-d_
  6
CONTINUOUS
 62
    4
 10
1085.4556065115394
 20
1228.3182224390955
 11
1085.4742564907774
 21
1228.3368724183335
  0
LINE
  8
_4-d_
  6
CONTINUOUS
 62
    4
 10
1082.8039560820916
 20
1228.3182224390978
 11
1084.2981035101666
 21
1229.8123698671704
  0
LINE
  8
_4-d_
  6
CONTINUOUS
 62
    4
 10
1080.1523056526462
 20
1228.3182224390978
 11
1083.2037142277723
 21
1231.3696310142225
  0
LINE
  8
_4-d_
  6
CONTINUOUS
 62
    4
 10
1079.8650753081965
 20
1230.6826425240959
 11
1082.1937392700643
 21
1233.0113064859645
  0
LINE
  8
_4-d_
  6
CONTINUOUS
 62
    4
 10
1079.8650753081943
 20
1233.3342929535527
 11
1081.271985038557
 21
1234.7412026839154
  0
LINE
  8
_4-d_
  6
CONTINUOUS
 62
    4
 10
1079.865075308192
 20
1235.9859433829981
 11
1080.4436639157639
 21
1236.5645319905709
  0
LINE
  8
_4-d_
  6
CONTINUOUS
 62
    4
 10
1079.8650753081965
 20
1206.6554136117295
 11
1080.4287227526293
 21
1206.0917661672968
  0
LINE
  8
_4-d_
  6
CONTINUOUS
 62
    4
 10
1079.8650753081943
 20
1210.1909475176606
 11
1081.1150753081965
 21
1208.9409475176583
  0
LINE
  8
_4-d_
  6
CONTINUOUS
 62
    4
 10
1079.8650753081943
 20
1213.7264814235984
 11
1081.1150753082002
 21
1212.4764814235916
  0
LINE
  8
_4-d_
  6
CONTINUOUS
 62
    4
 10
1079.8650753081956
 20
1217.2620153295227
 11
1081.1150753081956
 21
1216.0120153295227
  0
LINE
  8
_4-d_
  6
CONTINUOUS
 62
    4
 10
1079.8650753081965
 20
1220.7975492354583
 11
1081.1150753081988
 21
1219.5475492354583
  0
LINE
  8
_4-d_
  6
CONTINUOUS
 62
    4
 10
1079.865075308192
 20
1224.3330831413916
 11
1081.1150753081988
 21
1223.0830831413848
  0
LINE
  8
_4-d_
  6
CONTINUOUS
 62
    4
 10
1079.8650753081956
 20
1227.868617047325
 11
1081.1150753081965
 21
1226.618617047325
  0
LINE
  8
_4-2_
  6
CONTINUOUS
 62
    7
 10
1017.3650753081967
 20
1228.3182224390978
 11
1011.7400753081967
 21
1228.3182224390978
  0
LINE
  8
_4-d_
  6
CONTINUOUS
 62
    7
 10
1016.1150753081967
 20
1228.3182224390978
 11
1016.1150753081967
 21
1207.280563665445
  0
LINE
  8
_4-d_
  6
CONTINUOUS
 62
    7
 10
1016.1150753081967
 20
1207.280563665445
 11
1017.3650753081967
 21
1205.1155001559848
  0
LINE
  8
_4-d_
  6
CONTINUOUS
 62
    4
 10
1011.7745441048515
 20
1228.3182224390955
 11
1011.7558941256146
 21
1228.3368724183335
  0
LINE
  8
_4-d_
  6
CONTINUOUS
 62
    4
 10
1014.4261945342993
 20
1228.3182224390978
 11
1012.9320471062255
 21
1229.8123698671704
  0
LINE
  8
_4-d_
  6
CONTINUOUS
 62
    4
 10
1017.077844963747
 20
1228.3182224390978
 11
1014.02643638862
 21
1231.3696310142225
  0
LINE
  8
_4-d_
  6
CONTINUOUS
 62
    4
 10
1017.3650753081967
 20
1230.6826425240959
 11
1015.036411346328
 21
1233.0113064859645
  0
LINE
  8
_4-d_
  6
CONTINUOUS
 62
    4
 10
1017.3650753081989
 20
1233.3342929535527
 11
1015.9581655778351
 21
1234.7412026839154
  0
LINE
  8
_4-d_
  6
CONTINUOUS
 62
    4
 10
1017.3650753082012
 20
1235.9859433829981
 11
1016.7864867006284
 21
1236.5645319905709
  0
LINE
  8
_4-d_
  6
CONTINUOUS
 62
    4
 10
1017.3650753081955
 20
1206.6554136117295
 11
1016.8014278637617
 21
1206.0917661672968
  0
LINE
  8
_4-d_
  6
CONTINUOUS
 62
    4
 10
1017.3650753081978
 20
1210.1909475176606
 11
1016.1150753081955
 21
1208.9409475176583
  0
LINE
  8
_4-d_
  6
CONTINUOUS
 62
    4
 10
1017.3650753081978
 20
1213.7264814235984
 11
1016.1150753081932
 21
1212.4764814235916
  0
LINE
  8
_4-d_
  6
CONTINUOUS
 62
    4
 10
1017.3650753081967
 20
1217.2620153295227
 11
1016.1150753081967
 21
1216.0120153295227
  0
LINE
  8
_4-d_
  6
CONTINUOUS
 62
    4
 10
1017.3650753081967
 20
1220.7975492354583
 11
1016.1150753081944
 21
1219.5475492354583
  0
LINE
  8
_4-d_
  6
CONTINUOUS
 62
    4
 10
1017.3650753081989
 20
1224.3330831413916
 11
1016.1150753081944
 21
1223.0830831413848
  0
LINE
  8
_4-d_
  6
CONTINUOUS
 62
    4
 10
1017.3650753081967
 20
1227.868617047325
 11
1016.1150753081944
 21
1226.618617047325
  0
LINE
  8
_4-2_
  6
CONTINUOUS
 62
    7
 10
1017.3650753081967
 20
959.56822243909778
 11
767.36507530819665
 21
959.56822243909778
  0
LINE
  8
_4-d_
  6
CONTINUOUS
 62
    4
 10
1079.8650753081979
 20
972.53199424460968
 11
1092.8288471137107
 21
959.56822243909551
  0
LINE
  8
_4-d_
  6
CONTINUOUS
 62
    4
 10
1100.5953514081984
 20
978.31822243909778
 11
1119.3453514081948
 21
959.56822243910005
  0
LINE
  8
_4-d_
  6
CONTINUOUS
 62
    4
 10
1127.1118557026984
 20
978.31822243909778
 11
1145.8618557026994
 21
959.56822243909551
  0
LINE
  8
_4-d_
  6
CONTINUOUS
 62
    4
 10
1153.6283599971971
 20
978.31822243909778
 11
1172.3783599971994
 21
959.56822243909551
  0
LINE
  8
_4-d_
  6
CONTINUOUS
 62
    4
 10
1180.1448642916857
 20
978.31822243909778
 11
1198.8948642916835
 21
959.56822243910005
  0
LINE
  8
_4-d_
  6
CONTINUOUS
 62
    4
 10
1206.661368586188
 20
978.31822243909551
 11
1225.411368586188
 21
959.56822243909551
  0
LINE
  8
_4-d_
  6
CONTINUOUS
 62
    4
 10
1233.1778728806757
 20
978.31822243909778
 11
1251.9278728806735
 21
959.56822243909778
  0
LINE
  8
_4-d_
  6
CONTINUOUS
 62
    4
 10
1259.6943771751758
 20
978.31822243909778
 11
1278.4443771751767
 21
959.56822243909551
  0
LINE
  8
_4-d_
  6
CONTINUOUS
 62
    4
 10
1286.2108814696744
 20
978.31822243909778
 11
1304.9608814696758
 21
959.56822243909778
  0
LINE
  8
_4-d_
  6
CONTINUOUS
 62
    4
 10
1312.727385764163
 20
978.31822243909778
 11
1331.4773857641608
 21
959.56822243910005
  0
LINE
  8
_4-d_
  6
CONTINUOUS
 62
    4
 10
1339.2438900586644
 20
978.31822243909778
 11
1357.9938900586667
 21
959.56822243909323
  0
LINE
  8
_4-d_
  6
CONTINUOUS
 62
    4
 10
1365.7603943531531
 20
978.31822243909778
 11
1384.5103943531517
 21
959.56822243909778
  0
LINE
  8
_4-d_
  6
CONTINUOUS
 62
    4
 10
1392.2768986476531
 20
978.31822243909778
 11
1411.026898647654
 21
959.56822243909551
  0
LINE
  8
_4-d_
  6
CONTINUOUS
 62
    4
 10
1418.7934029421517
 20
978.31822243909778
 11
1437.543402942154
 21
959.56822243909551
  0
LINE
  8
_4-d_
  6
CONTINUOUS
 62
    4
 10
1445.3099072366404
 20
978.31822243909778
 11
1464.0599072366404
 21
959.56822243909778
  0
LINE
  8
_4-d_
  6
CONTINUOUS
 62
    4
 10
1471.8264115311426
 20
978.31822243909551
 11
1490.576411531144
 21
959.56822243909323
  0
LINE
  8
_4-d_
  6
CONTINUOUS
 62
    4
 10
1478.1436168736154
 20
959.56822243909778
 11
1496.8936168736132
 21
978.31822243909551
  0
LINE
  8
_4-d_
  6
CONTINUOUS
 62
    4
 10
1451.6271125791131
 20
959.56822243909551
 11
1470.3771125791154
 21
978.31822243909778
  0
LINE
  8
_4-d_
  6
CONTINUOUS
 62
    4
 10
1425.1106082846291
 20
959.56822243909778
 11
1443.8606082846268
 21
978.31822243909778
  0
LINE
  8
_4-d_
  6
CONTINUOUS
 62
    4
 10
1398.5941039901268
 20
959.56822243909778
 11
1417.3441039901245
 21
978.31822243909551
  0
LINE
  8
_4-d_
  6
CONTINUOUS
 62
    4
 10
1372.0775996956381
 20
959.56822243909778
 11
1390.8275996956395
 21
978.31822243909778
  0
LINE
  8
_4-d_
  6
CONTINUOUS
 62
    4
 10
1345.5610954011381
 20
959.56822243909778
 11
1364.3110954011358
 21
978.31822243909551
  0
LINE
  8
_4-d_
  6
CONTINUOUS
 62
    4
 10
1319.0445911066358
 20
959.56822243909323
 11
1337.7945911066372
 21
978.31822243909551
  0
LINE
  8
_4-d_
  6
CONTINUOUS
 62
    4
 10
1292.5280868121508
 20
959.56822243909778
 11
1311.2780868121486
 21
978.31822243909551
  0
LINE
  8
_4-d_
  6
CONTINUOUS
 62
    4
 10
1266.0115825176495
 20
959.56822243909778
 11
1284.7615825176472
 21
978.31822243909551
  0
LINE
  8
_4-d_
  6
CONTINUOUS
 62
    4
 10
1239.4950782231608
 20
959.56822243909778
 11
1258.2450782231622
 21
978.31822243909778
  0
LINE
  8
_4-d_
  6
CONTINUOUS
 62
    4
 10
1212.9785739286622
 20
959.56822243909778
 11
1231.7285739286599
 21
978.31822243909551
  0
LINE
  8
_4-d_
  6
CONTINUOUS
 62
    4
 10
1186.4620696341585
 20
959.56822243909323
 11
1205.2120696341599
 21
978.31822243909551
  0
LINE
  8
_4-d_
  6
CONTINUOUS
 62
    4
 10
1159.9455653396735
 20
959.56822243909778
 11
1178.6955653396712
 21
978.31822243909551
  0
LINE
  8
_4-d_
  6
CONTINUOUS
 62
    4
 10
1133.4290610451721
 20
959.56822243909778
 11
1152.1790610451699
 21
978.31822243909551
  0
LINE
  8
_4-d_
  6
CONTINUOUS
 62
    4
 10
1106.9125567506835
 20
959.56822243909778
 11
1125.6625567506849
 21
978.31822243909778
  0
LINE
  8
_4-d_
  6
CONTINUOUS
 62
    4
 10
974.33003527820517
 20
959.56822243909551
 11
993.08003527820631
 21
978.31822243909778
  0
LINE
  8
_4-d_
  6
CONTINUOUS
 62
    4
 10
947.8135309837063
 20
959.56822243909778
 11
966.56353098370516
 21
978.31822243909551
  0
LINE
  8
_4-d_
  6
CONTINUOUS
 62
    4
 10
921.29702668920515
 20
959.56822243909551
 11
940.04702668920743
 21
978.31822243909778
  0
LINE
  8
_4-d_
  6
CONTINUOUS
 62
    4
 10
894.78052239471765
 20
959.56822243909778
 11
913.53052239471992
 21
978.31822243909778
  0
LINE
  8
_4-d_
  6
CONTINUOUS
 62
    4
 10
868.26401810021878
 20
959.56822243909778
 11
887.0140181002165
 21
978.31822243909551
  0
LINE
  8
_4-d_
  6
CONTINUOUS
 62
    4
 10
841.747513805729
 20
959.56822243909778
 11
860.497513805729
 21
978.31822243909778
  0
LINE
  8
_4-d_
  6
CONTINUOUS
 62
    4
 10
815.23100951122785
 20
959.56822243909551
 11
833.98100951122672
 21
978.31822243909323
  0
LINE
  8
_4-d_
  6
CONTINUOUS
 62
    4
 10
788.71450521672671
 20
959.56822243909551
 11
807.46450521672898
 21
978.31822243909778
  0
LINE
  8
_4-d_
  6
CONTINUOUS
 62
    4
 10
767.36507530819665
 20
964.73529682505182
 11
780.94800092224261
 21
978.31822243910005
  0
LINE
  8
_4-d_
  6
CONTINUOUS
 62
    4
 10
767.36507530819665
 20
966.83394271065504
 11
774.63079557975391
 21
959.56822243909778
  0
LINE
  8
_4-d_
  6
CONTINUOUS
 62
    4
 10
782.39729987425392
 20
978.31822243909778
 11
801.14729987425164
 21
959.56822243910005
  0
LINE
  8
_4-d_
  6
CONTINUOUS
 62
    4
 10
808.91380416875506
 20
978.31822243909778
 11
827.6638041687562
 21
959.56822243909551
  0
LINE
  8
_4-d_
  6
CONTINUOUS
 62
    4
 10
835.43030846324484
 20
978.31822243909551
 11
854.18030846324257
 21
959.56822243909778
  0
LINE
  8
_4-d_
  6
CONTINUOUS
 62
    4
 10
861.94681275774258
 20
978.31822243909778
 11
880.69681275774485
 21
959.56822243909551
  0
LINE
  8
_4-d_
  6
CONTINUOUS
 62
    4
 10
888.46331705224145
 20
978.31822243909778
 11
907.21331705224372
 21
959.56822243909778
  0
LINE
  8
_4-d_
  6
CONTINUOUS
 62
    4
 10
914.9798213467335
 20
978.31822243909551
 11
933.72982134673009
 21
959.56822243909778
  0
LINE
  8
_4-d_
  6
CONTINUOUS
 62
    4
 10
941.49632564123124
 20
978.31822243909778
 11
960.24632564123351
 21
959.56822243909551
  0
LINE
  8
_4-d_
  6
CONTINUOUS
 62
    4
 10
968.01282993571988
 20
978.31822243909778
 11
986.7628299357176
 21
959.56822243910005
  0
LINE
  8
_4-4_
  6
CONTINUOUS
 62
    2
 10
1084.2400753081965
 20
1206.4432224390978
 11
1082.9900753081965
 21
1204.2781589296376
  0
LINE
  8
_4-d_
  6
CONTINUOUS
 62
    7
 10
1084.2400753081965
 20
1228.3182224390978
 11
1084.2400753081965
 21
1209.5682224390978
  0
LINE
  8
_4-4_
  6
CONTINUOUS
 62
    2
 10
1084.2400753081965
 20
1209.5682224390978
 11
1084.2400753081965
 21
1206.4432224390978
  0
LINE
  8
_4-4_
  6
CONTINUOUS
 62
    2
 10
1084.2400753081965
 20
1209.5682224390978
 11
1085.4900753081956
 21
1209.5682224390978
  0
LINE
  8
_4-4_
  6
CONTINUOUS
 62
    2
 10
1085.4900753081956
 20
1228.3182224390978
 11
1085.4900753081956
 21
1209.5682224390978
  0
ARC
  8
_4-4_
  6
CONTINUOUS
 62
    2
 10
1109.4121174347715
 20
1248.6248104288236
 40
31.378680904240849
 50
199.67323310579363
 51
220.32676689420452
  0
LINE
  8
_4-d_
  6
CONTINUOUS
 62
    7
 10
1012.9900753081967
 20
1228.3182224390978
 11
1012.9900753081967
 21
1209.5682224390978
  0
LINE
  8
_4-4_
  6
CONTINUOUS
 62
    2
 10
1012.9900753081967
 20
1206.4432224390978
 11
1014.2400753081967
 21
1204.2781589296376
  0
LINE
  8
_4-4_
  6
CONTINUOUS
 62
    2
 10
1012.9900753081967
 20
1209.5682224390978
 11
1012.9900753081967
 21
1206.4432224390978
  0
LINE
  8
_4-4_
  6
CONTINUOUS
 62
    2
 10
1011.7400753081967
 20
1228.3182224390978
 11
1011.7400753081967
 21
1209.5682224390978
  0
LINE
  8
_4-4_
  6
CONTINUOUS
 62
    2
 10
1012.9900753081967
 20
1209.5682224390978
 11
1011.7400753081967
 21
1209.5682224390978
  0
ARC
  8
_4-4_
  6
CONTINUOUS
 62
    2
 10
987.81803318162076
 20
1248.6248104288236
 40
31.378680904240849
 50
319.67323310579548
 51
340.32676689420634
  0
LINE
  8
_4-2_
  6
CONTINUOUS
 62
    7
 10
1017.3650753081967
 20
984.56822243909778
 11
767.36507530819665
 21
984.56822243909778
  0
ARC
  8
_4-2_
  6
CONTINUOUS
 62
    7
 10
1084.8650753081965
 20
994.88072243910005
 40
5
 50
180
 51
270
  0
ARC
  8
_4-4_
  6
CONTINUOUS
 62
    2
 10
1084.8650753081965
 20
994.88072243910005
 40
1.875
 50
180
 51
270
  0
LINE
  8
_4-4_
  6
CONTINUOUS
 62
    2
 10
1082.9900753081965
 20
994.88072243910005
 11
1082.9900753081965
 21
1204.2781589296376
  0
ARC
  8
_4-2_
  6
CONTINUOUS
 62
    7
 10
1012.3650753081955
 20
994.88072243910005
 40
5
 50
270
 51
0
  0
ARC
  8
_4-4_
  6
CONTINUOUS
 62
    2
 10
1012.3650753081955
 20
994.88072243910005
 40
1.875
 50
270
 51
0
  0
LINE
  8
_4-4_
  6
CONTINUOUS
 62
    2
 10
1014.2400753081967
 20
994.88072243910005
 11
1014.2400753081967
 21
1204.2781589296376
  0
LINE
  8
_4-d_
  6
CONTINUOUS
 62
    4
 10
1079.8650753081965
 20
978.87915826861695
 11
1085.5541394786774
 21
984.56822243909778
  0
LINE
  8
_4-d_
  6
CONTINUOUS
 62
    4
 10
1331.2109302763979
 20
978.31822243910233
 11
1337.4609302763934
 21
984.56822243909778
  0
LINE
  8
_4-d_
  6
CONTINUOUS
 62
    4
 10
1251.6614173929024
 20
978.31822243909778
 11
1257.9114173929001
 21
984.56822243909778
  0
LINE
  8
_4-d_
  6
CONTINUOUS
 62
    4
 10
1238.4031652456538
 20
978.31822243910005
 11
1244.6531652456501
 21
984.56822243909778
  0
LINE
  8
_4-d_
  6
CONTINUOUS
 62
    4
 10
1225.1449130984024
 20
978.31822243909778
 11
1231.3949130984015
 21
984.56822243909778
  0
LINE
  8
_4-d_
  6
CONTINUOUS
 62
    4
 10
1211.8866609511592
 20
978.31822243909778
 11
1218.1366609511592
 21
984.56822243909778
  0
LINE
  8
_4-d_
  6
CONTINUOUS
 62
    4
 10
1198.6284088039115
 20
978.31822243910005
 11
1204.8784088039092
 21
984.56822243909778
  0
LINE
  8
_4-d_
  6
CONTINUOUS
 62
    4
 10
1185.3701566566638
 20
978.31822243910005
 11
1191.6201566566592
 21
984.56822243909778
  0
LINE
  8
_4-d_
  6
CONTINUOUS
 62
    4
 10
1172.1119045094115
 20
978.31822243909778
 11
1178.3619045094092
 21
984.56822243909778
  0
LINE
  8
_4-d_
  6
CONTINUOUS
 62
    4
 10
1145.5954002149206
 20
978.31822243910005
 11
1151.8454002149183
 21
984.56822243909778
  0
LINE
  8
_4-d_
  6
CONTINUOUS
 62
    4
 10
1132.3371480676706
 20
978.31822243910005
 11
1138.5871480676683
 21
984.56822243909778
  0
LINE
  8
_4-d_
  6
CONTINUOUS
 62
    4
 10
1119.0788959204206
 20
978.31822243909778
 11
1125.3288959204183
 21
984.56822243909778
  0
LINE
  8
_4-d_
  6
CONTINUOUS
 62
    4
 10
1158.8536523621592
 20
978.31822243909778
 11
1165.1036523621592
 21
984.56822243909778
  0
LINE
  8
_4-d_
  6
CONTINUOUS
 62
    4
 10
1317.952678129147
 20
978.31822243910005
 11
1324.2026781291434
 21
984.56822243909778
  0
LINE
  8
_4-d_
  6
CONTINUOUS
 62
    4
 10
1304.6944259819038
 20
978.31822243910005
 11
1310.9444259819015
 21
984.56822243909778
  0
LINE
  8
_4-d_
  6
CONTINUOUS
 62
    4
 10
1291.4361738346547
 20
978.31822243910233
 11
1297.6861738346515
 21
984.56822243909778
  0
LINE
  8
_4-d_
  6
CONTINUOUS
 62
    4
 10
1278.177921687407
 20
978.31822243910233
 11
1284.4279216874015
 21
984.56822243909778
  0
LINE
  8
_4-d_
  6
CONTINUOUS
 62
    4
 10
1264.9196695401547
 20
978.31822243910005
 11
1271.1696695401515
 21
984.56822243909778
  0
LINE
  8
_4-d_
  6
CONTINUOUS
 62
    4
 10
1105.8206437731787
 20
978.31822243909778
 11
1112.0706437731774
 21
984.56822243909778
  0
LINE
  8
_4-d_
  6
CONTINUOUS
 62
    4
 10
1463.7934517488834
 20
978.31822243910233
 11
1470.0434517488789
 21
984.56822243910005
  0
LINE
  8
_4-d_
  6
CONTINUOUS
 62
    4
 10
1384.2439388653888
 20
978.31822243910233
 11
1390.4939388653866
 21
984.56822243910005
  0
LINE
  8
_4-d_
  6
CONTINUOUS
 62
    4
 10
1370.9856867181388
 20
978.31822243910233
 11
1377.2356867181365
 21
984.56822243910005
  0
LINE
  8
_4-d_
  6
CONTINUOUS
 62
    4
 10
1357.7274345708888
 20
978.31822243910233
 11
1363.9774345708865
 21
984.56822243910005
  0
LINE
  8
_4-d_
  6
CONTINUOUS
 62
    4
 10
1344.4691824236456
 20
978.31822243910005
 11
1350.7191824236456
 21
984.56822243910005
  0
LINE
  8
_4-d_
  6
CONTINUOUS
 62
    4
 10
1450.535199601632
 20
978.31822243910233
 11
1456.7851996016298
 21
984.56822243910005
  0
LINE
  8
_4-d_
  6
CONTINUOUS
 62
    4
 10
1437.2769474543888
 20
978.31822243910233
 11
1443.5269474543866
 21
984.56822243910005
  0
LINE
  8
_4-d_
  6
CONTINUOUS
 62
    4
 10
1424.0186953071411
 20
978.31822243910233
 11
1430.2686953071366
 21
984.56822243910005
  0
LINE
  8
_4-d_
  6
CONTINUOUS
 62
    4
 10
1410.7604431598934
 20
978.3182224391046
 11
1417.0104431598866
 21
984.56822243910005
  0
LINE
  8
_4-d_
  6
CONTINUOUS
 62
    4
 10
1397.5021910126411
 20
978.31822243910233
 11
1403.7521910126366
 21
984.56822243910005
  0
LINE
  8
_4-d_
  6
CONTINUOUS
 62
    4
 10
1503.5682081906252
 20
978.3182224391046
 11
1509.818208190623
 21
984.56822243910233
  0
LINE
  8
_4-d_
  6
CONTINUOUS
 62
    4
 10
1490.3099560433752
 20
978.31822243910233
 11
1496.5599560433729
 21
984.56822243910233
  0
LINE
  8
_4-d_
  6
CONTINUOUS
 62
    4
 10
1477.051703896132
 20
978.31822243910233
 11
1483.3017038961311
 21
984.56822243910233
  0
LINE
  8
_4-d_
  6
CONTINUOUS
 62
    4
 10
768.71093027639802
 20
978.31822243910233
 11
774.96093027639347
 21
984.56822243909778
  0
LINE
  8
_4-d_
  6
CONTINUOUS
 62
    4
 10
901.29345174888329
 20
978.31822243910233
 11
907.54345174887874
 21
984.56822243910005
  0
LINE
  8
_4-d_
  6
CONTINUOUS
 62
    4
 10
821.74393886538894
 20
978.31822243910233
 11
827.99393886538667
 21
984.56822243910005
  0
LINE
  8
_4-d_
  6
CONTINUOUS
 62
    4
 10
808.48568671813894
 20
978.31822243910233
 11
814.73568671813666
 21
984.56822243910005
  0
LINE
  8
_4-d_
  6
CONTINUOUS
 62
    4
 10
795.22743457088893
 20
978.31822243910233
 11
801.47743457088666
 21
984.56822243910005
  0
LINE
  8
_4-d_
  6
CONTINUOUS
 62
    4
 10
781.96918242364575
 20
978.31822243910005
 11
788.21918242364575
 21
984.56822243910005
  0
LINE
  8
_4-d_
  6
CONTINUOUS
 62
    4
 10
888.03519960163214
 20
978.31822243910233
 11
894.28519960162987
 21
984.56822243910005
  0
LINE
  8
_4-d_
  6
CONTINUOUS
 62
    4
 10
874.77694745438896
 20
978.31822243910233
 11
881.02694745438669
 21
984.56822243910005
  0
LINE
  8
_4-d_
  6
CONTINUOUS
 62
    4
 10
861.51869530714123
 20
978.31822243910233
 11
867.76869530713668
 21
984.56822243910005
  0
LINE
  8
_4-d_
  6
CONTINUOUS
 62
    4
 10
848.2604431598935
 20
978.3182224391046
 11
854.51044315988668
 21
984.56822243910005
  0
LINE
  8
_4-d_
  6
CONTINUOUS
 62
    4
 10
835.00219101264122
 20
978.31822243910233
 11
841.25219101263667
 21
984.56822243910005
  0
LINE
  8
_4-d_
  6
CONTINUOUS
 62
    4
 10
954.32646033787535
 20
978.31822243910233
 11
960.57646033787307
 21
984.56822243910233
  0
LINE
  8
_4-d_
  6
CONTINUOUS
 62
    4
 10
941.06820819062534
 20
978.3182224391046
 11
947.31820819062307
 21
984.56822243910233
  0
LINE
  8
_4-d_
  6
CONTINUOUS
 62
    4
 10
927.80995604337534
 20
978.31822243910233
 11
934.05995604337306
 21
984.56822243910233
  0
LINE
  8
_4-d_
  6
CONTINUOUS
 62
    4
 10
914.55170389613215
 20
978.31822243910233
 11
920.80170389613102
 21
984.56822243910233
  0
LINE
  8
_4-d_
  6
CONTINUOUS
 62
    4
 10
1007.3594689268754
 20
978.31822243910233
 11
1013.6094689268731
 21
984.56822243910233
  0
LINE
  8
_4-d_
  6
CONTINUOUS
 62
    4
 10
994.1012167796265
 20
978.31822243910688
 11
1000.3512167796231
 21
984.56822243910233
  0
LINE
  8
_4-d_
  6
CONTINUOUS
 62
    4
 10
980.84296463237877
 20
978.31822243910688
 11
987.09296463237308
 21
984.56822243910233
  0
LINE
  8
_4-d_
  6
CONTINUOUS
 62
    4
 10
967.58471248512649
 20
978.3182224391046
 11
973.83471248512308
 21
984.56822243910233
  0
LINE
  8
_4-3_
  6
CONTINUOUS
 62
    3
 10
1017.3650753081967
 20
865.81822243909778
 11
767.36507530819665
 21
865.81822243909778
  0
ARC
  8
_4-2_
  6
CONTINUOUS
 62
    7
 10
1032.9900753081965
 20
863.39692120419863
 40
29.812415927818094
 50
238.391618658765
 51
301.60838134123497
  0
ARC
  8
_4-2_
  6
CONTINUOUS
 62
    7
 10
1032.9900753081965
 20
812.61741673819438
 40
29.812415927818083
 50
58.391618658765005
 51
121.608381341235
  0
ARC
  8
_4-2_
  6
CONTINUOUS
 62
    7
 10
1064.2400753081965
 20
863.39692120419863
 40
29.812415927818094
 50
238.391618658765
 51
301.60838134123497
  0
LINE
  8
_4-2_
  6
CONTINUOUS
 62
    7
 10
1079.8650753081965
 20
1238.0610082316732
 11
1079.8650753081965
 21
838.00716897119423
  0
LINE
  8
_4-2_
  6
CONTINUOUS
 62
    7
 10
1017.3650753081967
 20
1238.0610082316732
 11
1017.3650753081967
 21
838.00716897119423
  0
ARC
  8
_4-2_
  6
CONTINUOUS
 62
    7
 10
1032.9900753081965
 20
1338.3969212041964
 40
29.812415927818094
 50
238.391618658765
 51
301.60838134123497
  0
LINE
  8
_4-4_
  6
CONTINUOUS
 62
    2
 10
1079.8650753081965
 20
1313.0071689711942
 11
1079.8650753081965
 21
1238.0610082316732
  0
LINE
  8
_4-4_
  6
CONTINUOUS
 62
    2
 10
1017.3650753081967
 20
1313.0071689711942
 11
1017.3650753081967
 21
1238.0610082316732
  0
ARC
  8
_4-4_
  6
CONTINUOUS
 62
    2
 10
1064.2400753081965
 20
1287.6174167381921
 40
29.812415927818094
 50
58.391618658765012
 51
121.608381341235
  0
ARC
  8
_4-4_
  6
CONTINUOUS
 62
    2
 10
1032.9900753081965
 20
1287.6174167381921
 40
29.812415927818094
 50
58.391618658765005
 51
121.608381341235
  0
LINE
  8
_4-3_
  6
CONTINUOUS
 62
    3
 10
1079.8650753081965
 20
865.81822243909778
 11
1517.3650753081965
 21
865.81822243909778
  0
LINE
  8
_4-2_
  6
CONTINUOUS
 62
    7
 10
1079.8650753081965
 20
959.56822243909778
 11
1517.3650753081965
 21
959.56822243909778
  0
LINE
  8
_4-d_
  6
CONTINUOUS
 62
    4
 10
1498.3429158256313
 20
978.31822243909551
 11
1517.3650753081965
 21
959.29606295653025
  0
LINE
  8
_4-d_
  6
CONTINUOUS
 62
    4
 10
1504.6601211681154
 20
959.56822243909778
 11
1517.3650753081965
 21
972.27317657917888
  0
LINE
  8
_4-e_
  6
CONTINUOUS
 62
    4
 10
982.60393700518932
 20
865.81822243909778
 11
1017.3650753081967
 21
900.57936074210397
  0
LINE
  8
_4-e_
  6
CONTINUOUS
 62
    4
 10
996.74607262891925
 20
865.81822243909778
 11
1017.3650753081967
 21
886.43722511837518
  0
LINE
  8
_4-e_
  6
CONTINUOUS
 62
    4
 10
989.67500481705486
 20
865.81822243909778
 11
1017.3650753081967
 21
893.50829293023958
  0
LINE
  8
_4-e_
  6
CONTINUOUS
 62
    4
 10
1361.4425335369669
 20
865.81822243909778
 11
1455.1925335369669
 21
959.56822243909778
  0
LINE
  8
_4-e_
  6
CONTINUOUS
 62
    4
 10
1347.3003979132382
 20
865.81822243909778
 11
1441.0503979132382
 21
959.56822243909778
  0
LINE
  8
_4-e_
  6
CONTINUOUS
 62
    4
 10
1354.3714657251035
 20
865.81822243909778
 11
1448.1214657251035
 21
959.56822243909778
  0
LINE
  8
_4-e_
  6
CONTINUOUS
 62
    4
 10
782.6039370051916
 20
865.81822243909778
 11
876.35393700518819
 21
959.56822243909778
  0
LINE
  8
_4-e_
  6
CONTINUOUS
 62
    4
 10
796.74607262891925
 20
865.81822243909778
 11
890.49607262891925
 21
959.56822243909778
  0
LINE
  8
_4-e_
  6
CONTINUOUS
 62
    4
 10
789.67500481705486
 20
865.81822243909778
 11
883.42500481705486
 21
959.56822243909778
  0
TEXT
  8
_4-a_
 62
    7
 10
1155.3330712449797
 20
1173.2661573385351
 40
15
 41
1
 50
0
  1
塩ビシート 接着工法
  0
LINE
  8
_4-a_
  6
CONTINUOUS
 62
    7
 10
1145.3330712449797
 20
1180.7661573385351
 11
1120.4437801807235
 21
1180.7661573385351
  0
LINE
  8
_4-a_
  6
CONTINUOUS
 62
    7
 10
1081.9405660161733
 20
1114.076634150829
 11
1120.4437801807235
 21
1180.7661573385351
  0
LINE
  8
_4-a_
  6
CONTINUOUS
 62
    7
 10
1080.5339886707911
 20
1207.5949133259271
 11
1108.345669368669
 21
1255.7661573385351
  0
LINE
  8
_4-a_
  6
CONTINUOUS
 62
    7
 10
1085.0801626095658
 20
1226.6595137143397
 11
1116.3186478709422
 21
1280.7661573385351
  0
LINE
  8
_4-a_
  6
CONTINUOUS
 62
    7
 10
1080.5339886707911
 20
1234.8719569585799
 11
1121.4647743441419
 21
1305.7661573385351
  0
TEXT
  8
_4-a_
 62
    7
 10
1155.3330712449797
 20
1298.2661573385351
 40
15
 41
1
 50
0
  1
ロンシーラントＳ
  0
TEXT
  8
_4-a_
 62
    7
 10
1155.3330712449797
 20
1248.2661573385351
 40
15
 41
1
 50
0
  1
ロンシーラントＴＢ
  0
TEXT
  8
_4-a_
 62
    7
 10
1155.3330712449797
 20
1273.2661573385351
 40
15
 41
1
 50
0
  1
ステンレスバンド
  0
LINE
  8
_4-a_
  6
CONTINUOUS
 62
    7
 10
1145.3330712449797
 20
1255.7661573385351
 11
1108.345669368669
 21
1255.7661573385351
  0
LINE
  8
_4-a_
  6
CONTINUOUS
 62
    7
 10
1145.3330712449797
 20
1280.7661573385351
 11
1116.3186478709422
 21
1280.7661573385351
  0
LINE
  8
_4-a_
  6
CONTINUOUS
 62
    7
 10
1145.3330712449797
 20
1305.7661573385351
 11
1121.4647743441419
 21
1305.7661573385351
  0
LINE
  8
_4-6_
  6
CONTINUOUS
 62
    2
 10
1111.1150753081965
 20
989.88072243909778
 11
1111.1150753081965
 21
989.1307224390905
  0
LINE
  8
_4-2_
  6
CONTINUOUS
 62
    7
 10
1111.1150753081965
 20
989.88072243909778
 11
1114.9039364497553
 21
987.69322243909778
  0
LINE
  8
_4-2_
  6
CONTINUOUS
 62
    7
 10
1138.6168677663641
 20
990.81822243909778
 11
1138.6282545085651
 21
990.90003803077275
  0
LINE
  8
_4-2_
  6
CONTINUOUS
 62
    7
 10
1138.6282545085651
 20
990.90003803077275
 11
1138.6489212458532
 21
991.04070924016037
  0
LINE
  8
_4-2_
  6
CONTINUOUS
 62
    7
 10
1138.6489212458532
 20
991.04070924016037
 11
1138.6724613807683
 21
991.18029668407212
  0
LINE
  8
_4-2_
  6
CONTINUOUS
 62
    7
 10
1138.6724613807683
 20
991.18029668407212
 11
1138.700693519409
 21
991.31811443499168
  0
LINE
  8
_4-2_
  6
CONTINUOUS
 62
    7
 10
1138.700693519409
 20
991.31811443499168
 11
1138.7354362678666
 21
991.45347656540275
  0
LINE
  8
_4-2_
  6
CONTINUOUS
 62
    7
 10
1138.7354362678666
 20
991.45347656540275
 11
1138.7785082322334
 21
991.58569714778901
  0
LINE
  8
_4-2_
  6
CONTINUOUS
 62
    7
 10
1138.7785082322334
 20
991.58569714778901
 11
1138.8080230436667
 21
991.66067533715955
  0
LINE
  8
_4-2_
  6
CONTINUOUS
 62
    7
 10
1138.8080230436667
 20
991.66067533715955
 11
1138.833611206956
 21
991.71824836190376
  0
LINE
  8
_4-2_
  6
CONTINUOUS
 62
    7
 10
1138.833611206956
 20
991.71824836190376
 11
1138.8826206898834
 21
991.81556980128812
  0
LINE
  8
_4-2_
  6
CONTINUOUS
 62
    7
 10
1138.8826206898834
 20
991.81556980128812
 11
1138.937062573837
 21
991.91057205308675
  0
LINE
  8
_4-2_
  6
CONTINUOUS
 62
    7
 10
1138.937062573837
 20
991.91057205308675
 11
1138.9960531920547
 21
992.00341737546319
  0
LINE
  8
_4-2_
  6
CONTINUOUS
 62
    7
 10
1138.9960531920547
 20
992.00341737546319
 11
1139.0587088777697
 21
992.09426802656958
  0
LINE
  8
_4-2_
  6
CONTINUOUS
 62
    7
 10
1139.0587088777697
 20
992.09426802656958
 11
1139.1241459642179
 21
992.18328626456719
  0
LINE
  8
_4-2_
  6
CONTINUOUS
 62
    7
 10
1139.1241459642179
 20
992.18328626456719
 11
1139.1630257015167
 21
992.23414116906974
  0
LINE
  8
_4-2_
  6
CONTINUOUS
 62
    7
 10
1139.1630257015167
 20
992.23414116906974
 11
1139.2094108727265
 21
992.29331841457247
  0
LINE
  8
_4-2_
  6
CONTINUOUS
 62
    7
 10
1139.2094108727265
 20
992.29331841457247
 11
1139.2908014602931
 21
992.39376766073542
  0
LINE
  8
_4-2_
  6
CONTINUOUS
 62
    7
 10
1139.2908014602931
 20
992.39376766073542
 11
1139.3738338473036
 21
992.49243438722965
  0
LINE
  8
_4-2_
  6
CONTINUOUS
 62
    7
 10
1139.3738338473036
 20
992.49243438722965
 11
1139.458332683635
 21
992.58957219564559
  0
LINE
  8
_4-2_
  6
CONTINUOUS
 62
    7
 10
1139.458332683635
 20
992.58957219564559
 11
1139.5441226191501
 21
992.68543468757593
  0
LINE
  8
_4-2_
  6
CONTINUOUS
 62
    7
 10
1139.5441226191501
 20
992.68543468757593
 11
1139.631028303716
 21
992.78027546461112
  0
LINE
  8
_4-2_
  6
CONTINUOUS
 62
    7
 10
1139.631028303716
 20
992.78027546461112
 11
1139.6818757399119
 21
992.83491489773974
  0
LINE
  8
_4-2_
  6
CONTINUOUS
 62
    7
 10
1139.6818757399119
 20
992.83491489773974
 11
1139.7353976607956
 21
992.89183375673952
  0
LINE
  8
_4-2_
  6
CONTINUOUS
 62
    7
 10
1139.7353976607956
 20
992.89183375673952
 11
1139.8286460097374
 21
992.98914734975847
  0
LINE
  8
_4-2_
  6
CONTINUOUS
 62
    7
 10
1139.8286460097374
 20
992.98914734975847
 11
1139.92348989322
 21
993.08498858625876
  0
LINE
  8
_4-2_
  6
CONTINUOUS
 62
    7
 10
1139.92348989322
 20
993.08498858625876
 11
1140.0203580679095
 21
993.17885586058333
  0
LINE
  8
_4-2_
  6
CONTINUOUS
 62
    7
 10
1140.0203580679095
 20
993.17885586058333
 11
1140.1196792904757
 21
993.2702475670842
  0
LINE
  8
_4-2_
  6
CONTINUOUS
 62
    7
 10
1140.1196792904757
 20
993.2702475670842
 11
1140.221882317589
 21
993.35866210009976
  0
LINE
  8
_4-2_
  6
CONTINUOUS
 62
    7
 10
1140.221882317589
 20
993.35866210009976
 11
1140.2826494685819
 21
993.40838072965221
  0
LINE
  8
_4-2_
  6
CONTINUOUS
 62
    7
 10
1140.2826494685819
 20
993.40838072965221
 11
1140.3374330307956
 21
993.45133407496201
  0
LINE
  8
_4-2_
  6
CONTINUOUS
 62
    7
 10
1140.3374330307956
 20
993.45133407496201
 11
1140.4340662182453
 21
993.5227170548344
  0
LINE
  8
_4-2_
  6
CONTINUOUS
 62
    7
 10
1140.4340662182453
 20
993.5227170548344
 11
1140.5334194327388
 21
993.59019998541748
  0
LINE
  8
_4-2_
  6
CONTINUOUS
 62
    7
 10
1140.5334194327388
 20
993.59019998541748
 11
1140.6354485935053
 21
993.65318450505833
  0
LINE
  8
_4-2_
  6
CONTINUOUS
 62
    7
 10
1140.6354485935053
 20
993.65318450505833
 11
1140.7401096197741
 21
993.71107225211313
  0
LINE
  8
_4-2_
  6
CONTINUOUS
 62
    7
 10
1140.7401096197741
 20
993.71107225211313
 11
1140.8473584307767
 21
993.76326486493122
  0
LINE
  8
_4-2_
  6
CONTINUOUS
 62
    7
 10
1140.8473584307767
 20
993.76326486493122
 11
1140.9107310940071
 21
993.79069128425749
  0
LINE
  8
_4-2_
  6
CONTINUOUS
 62
    7
 10
1140.9107310940071
 20
993.79069128425749
 11
1140.9819220269701
 21
993.81852173004768
  0
LINE
  8
_4-2_
  6
CONTINUOUS
 62
    7
 10
1140.9819220269701
 20
993.81852173004768
 11
1141.1068523131285
 21
993.86059087280523
  0
LINE
  8
_4-2_
  6
CONTINUOUS
 62
    7
 10
1141.1068523131285
 20
993.86059087280523
 11
1141.2341661249166
 21
993.89596809249292
  0
LINE
  8
_4-2_
  6
CONTINUOUS
 62
    7
 10
1141.2341661249166
 20
993.89596809249292
 11
1141.3634155479194
 21
993.92557738857272
  0
LINE
  8
_4-2_
  6
CONTINUOUS
 62
    7
 10
1141.3634155479194
 20
993.92557738857272
 11
1141.494152667738
 21
993.95034276051797
  0
LINE
  8
_4-2_
  6
CONTINUOUS
 62
    7
 10
1141.494152667738
 20
993.95034276051797
 11
1141.625929569962
 21
993.97118820778837
  0
LINE
  8
_4-2_
  6
CONTINUOUS
 62
    7
 10
1141.625929569962
 20
993.97118820778837
 11
1141.7026600999798
 21
993.98184656156013
  0
LINE
  8
_4-2_
  6
CONTINUOUS
 62
    7
 10
1141.7026600999798
 20
993.98184656156013
 11
1141.7954457062801
 21
993.99354468610477
  0
LINE
  8
_4-2_
  6
CONTINUOUS
 62
    7
 10
1141.7954457062801
 20
993.99354468610477
 11
1141.9556458720849
 21
994.01036141178361
  0
LINE
  8
_4-2_
  6
CONTINUOUS
 62
    7
 10
1141.9556458720849
 20
994.01036141178361
 11
1142.1158929524477
 21
994.02214781634507
  0
LINE
  8
_4-2_
  6
CONTINUOUS
 62
    7
 10
1142.1158929524477
 20
994.02214781634507
 11
1142.2759103503431
 21
994.02798912333787
  0
LINE
  8
_4-2_
  6
CONTINUOUS
 62
    7
 10
1142.2759103503431
 20
994.02798912333787
 11
1142.4354214687382
 21
994.02697055630847
  0
LINE
  8
_4-2_
  6
CONTINUOUS
 62
    7
 10
1142.4354214687382
 20
994.02697055630847
 11
1142.5941497106082
 21
994.01817733880785
  0
LINE
  8
_4-2_
  6
CONTINUOUS
 62
    7
 10
1142.5941497106082
 20
994.01817733880785
 11
1142.6857443832564
 21
994.00915445831765
  0
LINE
  8
_4-2_
  6
CONTINUOUS
 62
    7
 10
1142.6857443832564
 20
994.00915445831765
 11
1142.7528345029846
 21
994.00059834201579
  0
LINE
  8
_4-2_
  6
CONTINUOUS
 62
    7
 10
1142.7528345029846
 20
994.00059834201579
 11
1142.8681157909655
 21
993.98249857249107
  0
LINE
  8
_4-2_
  6
CONTINUOUS
 62
    7
 10
1142.8681157909655
 20
993.98249857249107
 11
1142.9830975768668
 21
993.96105139652741
  0
LINE
  8
_4-2_
  6
CONTINUOUS
 62
    7
 10
1142.9830975768668
 20
993.96105139652741
 11
1143.0980075992766
 21
993.93729213026086
  0
LINE
  8
_4-2_
  6
CONTINUOUS
 62
    7
 10
1143.0980075992766
 20
993.93729213026086
 11
1143.2130735967899
 21
993.91225608982063
  0
LINE
  8
_4-2_
  6
CONTINUOUS
 62
    7
 10
1143.2130735967899
 20
993.91225608982063
 11
1143.3285233079964
 21
993.88697859133595
  0
LINE
  8
_4-2_
  6
CONTINUOUS
 62
    7
 10
1143.3285233079964
 20
993.88697859133595
 11
1143.3957496989551
 21
993.87261497453005
  0
LINE
  8
_4-2_
  6
CONTINUOUS
 62
    7
 10
1143.3957496989551
 20
993.87261497453005
 11
1143.4720692185356
 21
993.85681889859393
  0
LINE
  8
_4-2_
  6
CONTINUOUS
 62
    7
 10
1143.4720692185356
 20
993.85681889859393
 11
1143.6038179832626
 21
993.8297254509464
  0
LINE
  8
_4-2_
  6
CONTINUOUS
 62
    7
 10
1143.6038179832626
 20
993.8297254509464
 11
1143.7348837481609
 21
993.8008922271049
  0
LINE
  8
_4-2_
  6
CONTINUOUS
 62
    7
 10
1143.7348837481609
 20
993.8008922271049
 11
1143.8642318414527
 21
993.76808845104074
  0
LINE
  8
_4-2_
  6
CONTINUOUS
 62
    7
 10
1143.8642318414527
 20
993.76808845104074
 11
1143.9908275913631
 21
993.72908334672752
  0
LINE
  8
_4-2_
  6
CONTINUOUS
 62
    7
 10
1143.9908275913631
 20
993.72908334672752
 11
1144.113636326113
 21
993.68164613814338
  0
LINE
  8
_4-2_
  6
CONTINUOUS
 62
    7
 10
1144.113636326113
 20
993.68164613814338
 11
1144.182722467438
 21
993.64938992523571
  0
LINE
  8
_4-2_
  6
CONTINUOUS
 62
    7
 10
1144.182722467438
 20
993.64938992523571
 11
1144.2447988619238
 21
993.61621150528231
  0
LINE
  8
_4-2_
  6
CONTINUOUS
 62
    7
 10
1144.2447988619238
 20
993.61621150528231
 11
1144.3481888089177
 21
993.55165757959435
  0
LINE
  8
_4-2_
  6
CONTINUOUS
 62
    7
 10
1144.3481888089177
 20
993.55165757959435
 11
1144.4469710410185
 21
993.47881405976318
  0
LINE
  8
_4-2_
  6
CONTINUOUS
 62
    7
 10
1144.4469710410185
 20
993.47881405976318
 11
1144.5411429450296
 21
993.39885988893934
  0
LINE
  8
_4-2_
  6
CONTINUOUS
 62
    7
 10
1144.5411429450296
 20
993.39885988893934
 11
1144.6307019077567
 21
993.31297401028701
  0
LINE
  8
_4-2_
  6
CONTINUOUS
 62
    7
 10
1144.6307019077567
 20
993.31297401028701
 11
1144.7156453160101
 21
993.22233536695671
  0
LINE
  8
_4-2_
  6
CONTINUOUS
 62
    7
 10
1144.7156453160101
 20
993.22233536695671
 11
1144.7627966160012
 21
993.16805180195638
  0
LINE
  8
_4-2_
  6
CONTINUOUS
 62
    7
 10
1144.7627966160012
 20
993.16805180195638
 11
1144.8154810062333
 21
993.10394718446355
  0
LINE
  8
_4-2_
  6
CONTINUOUS
 62
    7
 10
1144.8154810062333
 20
993.10394718446355
 11
1144.9018384182768
 21
992.99064405337754
  0
LINE
  8
_4-2_
  6
CONTINUOUS
 62
    7
 10
1144.9018384182768
 20
992.99064405337754
 11
1144.9831573351635
 21
992.87425363173975
  0
LINE
  8
_4-2_
  6
CONTINUOUS
 62
    7
 10
1144.9831573351635
 20
992.87425363173975
 11
1145.0601697739039
 21
992.75527484355985
  0
LINE
  8
_4-2_
  6
CONTINUOUS
 62
    7
 10
1145.0601697739039
 20
992.75527484355985
 11
1145.1336077515116
 21
992.63420661284522
  0
LINE
  8
_4-2_
  6
CONTINUOUS
 62
    7
 10
1145.1336077515116
 20
992.63420661284522
 11
1145.2042032849913
 21
992.51154786360553
  0
LINE
  8
_4-2_
  6
CONTINUOUS
 62
    7
 10
1145.2042032849913
 20
992.51154786360553
 11
1145.2441347392796
 21
992.43987361546283
  0
LINE
  8
_4-2_
  6
CONTINUOUS
 62
    7
 10
1145.2441347392796
 20
992.43987361546283
 11
1145.2861768439693
 21
992.36295699537573
  0
LINE
  8
_4-2_
  6
CONTINUOUS
 62
    7
 10
1145.2861768439693
 20
992.36295699537573
 11
1145.3574151197249
 21
992.22970277264744
  0
LINE
  8
_4-2_
  6
CONTINUOUS
 62
    7
 10
1145.3574151197249
 20
992.22970277264744
 11
1145.4274867124518
 21
992.09576714793479
  0
LINE
  8
_4-2_
  6
CONTINUOUS
 62
    7
 10
1145.4274867124518
 20
992.09576714793479
 11
1145.4968720932316
 21
991.96129885976484
  0
LINE
  8
_4-2_
  6
CONTINUOUS
 62
    7
 10
1145.4968720932316
 20
991.96129885976484
 11
1145.5660517331426
 21
991.82644664665099
  0
LINE
  8
_4-2_
  6
CONTINUOUS
 62
    7
 10
1145.5660517331426
 20
991.82644664665099
 11
1145.6355061032668
 21
991.69135924711577
  0
LINE
  8
_4-2_
  6
CONTINUOUS
 62
    7
 10
1145.6355061032668
 20
991.69135924711577
 11
1145.6761048499111
 21
991.61295940367859
  0
LINE
  8
_4-2_
  6
CONTINUOUS
 62
    7
 10
1145.6761048499111
 20
991.61295940367859
 11
1145.731363258772
 21
991.50744178929949
  0
LINE
  8
_4-2_
  6
CONTINUOUS
 62
    7
 10
1145.731363258772
 20
991.50744178929949
 11
1145.8291787687272
 21
991.32656943561892
  0
LINE
  8
_4-2_
  6
CONTINUOUS
 62
    7
 10
1145.8291787687272
 20
991.32656943561892
 11
1145.9318172644935
 21
991.14862682546368
  0
LINE
  8
_4-2_
  6
CONTINUOUS
 62
    7
 10
1145.9318172644935
 20
991.14862682546368
 11
1146.0411447566098
 21
990.97546843295299
  0
LINE
  8
_4-2_
  6
CONTINUOUS
 62
    7
 10
1146.0411447566098
 20
990.97546843295299
 11
1146.1590272556105
 21
990.80894873221064
  0
LINE
  8
_4-2_
  6
CONTINUOUS
 62
    7
 10
1146.1590272556105
 20
990.80894873221064
 11
1146.2873307720333
 21
990.65092219736266
  0
LINE
  8
_4-2_
  6
CONTINUOUS
 62
    7
 10
1146.2873307720333
 20
990.65092219736266
 11
1146.3672570269232
 21
990.56388913500109
  0
LINE
  8
_4-2_
  6
CONTINUOUS
 62
    7
 10
1146.3672570269232
 20
990.56388913500109
 11
1146.3961415096132
 21
990.53444850630535
  0
LINE
  8
_4-2_
  6
CONTINUOUS
 62
    7
 10
1146.3961415096132
 20
990.53444850630535
 11
1146.4472035480771
 21
990.48485782190733
  0
LINE
  8
_4-2_
  6
CONTINUOUS
 62
    7
 10
1146.4472035480771
 20
990.48485782190733
 11
1146.4998300432835
 21
990.43685775350718
  0
LINE
  8
_4-2_
  6
CONTINUOUS
 62
    7
 10
1146.4998300432835
 20
990.43685775350718
 11
1146.5539837779675
 21
990.39057718892786
  0
LINE
  8
_4-2_
  6
CONTINUOUS
 62
    7
 10
1146.5539837779675
 20
990.39057718892786
 11
1146.6096275348655
 21
990.34614501599685
  0
LINE
  8
_4-2_
  6
CONTINUOUS
 62
    7
 10
1146.6096275348655
 20
990.34614501599685
 11
1146.6667240967099
 21
990.30369012254164
  0
LINE
  8
_4-2_
  6
CONTINUOUS
 62
    7
 10
1146.6667240967099
 20
990.30369012254164
 11
1146.700491112269
 21
990.28002306229632
  0
LINE
  8
_4-2_
  6
CONTINUOUS
 62
    7
 10
1146.700491112269
 20
990.28002306229632
 11
1146.7564919941997
 21
990.24296513081049
  0
LINE
  8
_4-2_
  6
CONTINUOUS
 62
    7
 10
1146.7564919941997
 20
990.24296513081049
 11
1146.8553616468062
 21
990.18270684068989
  0
LINE
  8
_4-2_
  6
CONTINUOUS
 62
    7
 10
1146.8553616468062
 20
990.18270684068989
 11
1146.9562437012023
 21
990.12562658502043
  0
LINE
  8
_4-2_
  6
CONTINUOUS
 62
    7
 10
1146.9562437012023
 20
990.12562658502043
 11
1147.058068668885
 21
990.07006989223805
  0
LINE
  8
_4-2_
  6
CONTINUOUS
 62
    7
 10
1147.058068668885
 20
990.07006989223805
 11
1147.1597670613555
 21
990.01438229077871
  0
LINE
  8
_4-2_
  6
CONTINUOUS
 62
    7
 10
1147.1597670613555
 20
990.01438229077871
 11
1147.2602693901131
 21
989.95690930907608
  0
LINE
  8
_4-2_
  6
CONTINUOUS
 62
    7
 10
1147.2602693901131
 20
989.95690930907608
 11
1147.3175912703159
 21
989.92210497063093
  0
LINE
  8
_4-2_
  6
CONTINUOUS
 62
    7
 10
1147.3175912703159
 20
989.92210497063093
 11
1147.3753481405656
 21
989.88500198946008
  0
LINE
  8
_4-2_
  6
CONTINUOUS
 62
    7
 10
1147.3753481405656
 20
989.88500198946008
 11
1147.4728125169104
 21
989.81781338835412
  0
LINE
  8
_4-2_
  6
CONTINUOUS
 62
    7
 10
1147.4728125169104
 20
989.81781338835412
 11
1147.5680141057996
 21
989.74719889462472
  0
LINE
  8
_4-2_
  6
CONTINUOUS
 62
    7
 10
1147.5680141057996
 20
989.74719889462472
 11
1147.6614369112604
 21
989.67391136187894
  0
LINE
  8
_4-2_
  6
CONTINUOUS
 62
    7
 10
1147.6614369112604
 20
989.67391136187894
 11
1147.7535649373185
 21
989.59870364372387
  0
LINE
  8
_4-2_
  6
CONTINUOUS
 62
    7
 10
1147.7535649373185
 20
989.59870364372387
 11
1147.8448821880038
 21
989.52232859376886
  0
LINE
  8
_4-2_
  6
CONTINUOUS
 62
    7
 10
1147.8448821880038
 20
989.52232859376886
 11
1147.89766541888
 21
989.4777928568376
  0
LINE
  8
_4-2_
  6
CONTINUOUS
 62
    7
 10
1147.89766541888
 20
989.4777928568376
 11
1147.9638165836427
 21
989.42186749189909
  0
LINE
  8
_4-2_
  6
CONTINUOUS
 62
    7
 10
1147.9638165836427
 20
989.42186749189909
 11
1148.0772995700868
 21
989.32494058327643
  0
LINE
  8
_4-2_
  6
CONTINUOUS
 62
    7
 10
1148.0772995700868
 20
989.32494058327643
 11
1148.1892837279752
 21
989.22657235312522
  0
LINE
  8
_4-2_
  6
CONTINUOUS
 62
    7
 10
1148.1892837279752
 20
989.22657235312522
 11
1148.2988663068663
 21
989.12582847942326
  0
LINE
  8
_4-2_
  6
CONTINUOUS
 62
    7
 10
1148.2988663068663
 20
989.12582847942326
 11
1148.4051445563096
 21
989.02177464014153
  0
LINE
  8
_4-2_
  6
CONTINUOUS
 62
    7
 10
1148.4051445563096
 20
989.02177464014153
 11
1148.5072157258587
 21
988.91347651326009
  0
LINE
  8
_4-2_
  6
CONTINUOUS
 62
    7
 10
1148.5072157258587
 20
988.91347651326009
 11
1148.5641335895712
 21
988.84835069562791
  0
LINE
  8
_4-2_
  6
CONTINUOUS
 62
    7
 10
1148.5641335895712
 20
988.84835069562791
 11
1148.5964206349699
 21
988.80954614842744
  0
LINE
  8
_4-2_
  6
CONTINUOUS
 62
    7
 10
1148.5964206349699
 20
988.80954614842744
 11
1148.6503738289098
 21
988.74112568602891
  0
LINE
  8
_4-2_
  6
CONTINUOUS
 62
    7
 10
1148.6503738289098
 20
988.74112568602891
 11
1148.7018487489927
 21
988.67081239992808
  0
LINE
  8
_4-2_
  6
CONTINUOUS
 62
    7
 10
1148.7018487489927
 20
988.67081239992808
 11
1148.7504866807076
 21
988.59863681698494
  0
LINE
  8
_4-2_
  6
CONTINUOUS
 62
    7
 10
1148.7504866807076
 20
988.59863681698494
 11
1148.7959289095493
 21
988.52462946405035
  0
LINE
  8
_4-2_
  6
CONTINUOUS
 62
    7
 10
1148.7959289095493
 20
988.52462946405035
 11
1148.8378167210026
 21
988.44882086798657
  0
LINE
  8
_4-2_
  6
CONTINUOUS
 62
    7
 10
1148.8378167210026
 20
988.44882086798657
 11
1148.8603416654332
 21
988.40403858183458
  0
LINE
  8
_4-2_
  6
CONTINUOUS
 62
    7
 10
1148.8603416654332
 20
988.40403858183458
 11
1148.8894990737826
 21
988.34061614992856
  0
LINE
  8
_4-2_
  6
CONTINUOUS
 62
    7
 10
1148.8894990737826
 20
988.34061614992856
 11
1148.9341782977526
 21
988.22888841302324
  0
LINE
  8
_4-2_
  6
CONTINUOUS
 62
    7
 10
1148.9341782977526
 20
988.22888841302324
 11
1148.9728978843896
 21
988.11462565167881
  0
LINE
  8
_4-2_
  6
CONTINUOUS
 62
    7
 10
1148.9728978843896
 20
988.11462565167881
 11
1149.0069590645594
 21
987.99838136468475
  0
LINE
  8
_4-2_
  6
CONTINUOUS
 62
    7
 10
1149.0069590645594
 20
987.99838136468475
 11
1149.0376630691135
 21
987.880709050826
  0
LINE
  8
_4-2_
  6
CONTINUOUS
 62
    7
 10
1149.0376630691135
 20
987.880709050826
 11
1149.0663111289127
 21
987.76216220888523
  0
LINE
  8
_4-2_
  6
CONTINUOUS
 62
    7
 10
1149.0663111289127
 20
987.76216220888523
 11
1149.0824977223319
 21
987.69322243909778
  0
LINE
  8
_4-4_
  6
CONTINUOUS
 62
    2
 10
1084.8650753081965
 20
993.00572243909778
 11
1111.9524165345429
 21
993.00572243909778
  0
LINE
  8
_4-4_
  6
CONTINUOUS
 62
    2
 10
1111.9524165345429
 20
993.00572243909778
 11
1115.7412776761039
 21
990.81822243909778
  0
LINE
  8
_4-4_
  6
CONTINUOUS
 62
    2
 10
1115.7412776761039
 20
990.81822243909778
 11
1142.3650753081965
 21
990.81822243909778
  0
POINT
  8
_4-b_
 62
    1
 10
1114.9039364497553
 20
934.648070971896
  0
LINE
  8
_4-b_
  6
CONTINUOUS
 62
    7
 10
1114.9039364497553
 20
973.66572229106646
 11
1114.9039364497553
 21
934.648070971896
  0
LINE
  8
_4-b_
  6
CONTINUOUS
 62
    7
 10
1114.9039364497553
 20
934.648070971896
 11
1142.3650753081965
 21
934.648070971896
  0
LINE
  8
_4-b_
  6
CONTINUOUS
 62
    7
 10
1142.3650753081965
 20
973.66572229106646
 11
1142.3650753081965
 21
934.648070971896
  0
POINT
  8
_4-b_
 62
    1
 10
1142.3650753081965
 20
934.648070971896
  0
LINE
  8
_4-6_
  6
CONTINUOUS
 62
    2
 10
1097.3650753081783
 20
987.69322243909778
 11
1099.5525753081797
 21
989.88072243909778
  0
LINE
  8
_4-6_
  6
CONTINUOUS
 62
    2
 10
1093.6150753081783
 20
987.69322243909778
 11
1091.4275753081943
 21
989.88072243909778
  0
LINE
  8
_4-6_
  6
CONTINUOUS
 62
    2
 10
1099.8632354799888
 20
989.1307224390905
 11
1111.1150753081965
 21
989.1307224390905
  0
LINE
  8
_4-6_
  6
CONTINUOUS
 62
    2
 10
1098.425735479977
 20
987.69322243909778
 11
1099.8632354799888
 21
989.1307224390905
  0
LINE
  8
_4-6_
  6
CONTINUOUS
 62
    2
 10
1092.5544151364129
 20
987.69322243909778
 11
1091.1169151364193
 21
989.1307224390905
  0
LINE
  8
_4-6_
  6
CONTINUOUS
 62
    2
 10
1092.5544151364129
 20
987.69322243909778
 11
1098.425735479977
 21
987.69322243909778
  0
LINE
  8
_4-7_
  6
CONTINUOUS
 62
    7
 10
1096.8182008236959
 20
987.69322243909778
 11
1094.1619497926949
 21
987.69322243909778
  0
LINE
  8
_4-7_
  6
CONTINUOUS
 62
    7
 10
1092.3650727306976
 20
989.49009950109507
 11
1094.1619497926949
 21
987.69322243909778
  0
LINE
  8
_4-7_
  6
CONTINUOUS
 62
    7
 10
1098.6150778856932
 20
989.49009950109507
 11
1092.3650727306976
 21
989.49009950109507
  0
LINE
  8
_4-7_
  6
CONTINUOUS
 62
    7
 10
1092.3650727306976
 20
989.80261599708479
 11
1092.3650727306976
 21
989.49009950109507
  0
LINE
  8
_4-7_
  6
CONTINUOUS
 62
    7
 10
1098.6150778856932
 20
989.49009950109507
 11
1098.6150778856932
 21
989.80261599708479
  0
LINE
  8
_4-7_
  6
CONTINUOUS
 62
    7
 10
1098.6150778856932
 20
989.80261599708479
 11
1092.3650727306976
 21
989.80261599708479
  0
LINE
  8
_4-7_
  6
CONTINUOUS
 62
    7
 10
1098.6150778856932
 20
989.49009950109507
 11
1096.8182008236959
 21
987.69322243909778
  0
ARC
  8
_4-7_
  6
DASHED3
 62
    7
 10
1095.4900753081965
 20
989.01232413356433
 40
1.150198462041649
 50
217.11750793457031
 51
322.88247680664062
  0
LINE
  8
_4-7_
  6
DASHED3
 62
    7
 10
1097.0838352057881
 20
989.49009950109507
 11
1096.40725740576
 21
988.31820903610628
  0
LINE
  8
_4-7_
  6
DASHED3
 62
    7
 10
1093.8963386080873
 20
989.49009950109507
 11
1094.5729164081145
 21
988.31820903610628
  0
LINE
  8
_4-7_
  6
DASHED3
 62
    7
 10
1093.8963386080873
 20
989.49009950109507
 11
1093.8963386080873
 21
989.80261599708479
  0
LINE
  8
_4-7_
  6
DASHED3
 62
    7
 10
1097.0838352057881
 20
989.49009950109507
 11
1097.0838352057881
 21
989.80261599708479
  0
LINE
  8
_4-7_
  6
CONTINUOUS
 62
    7
 10
1096.7400753081965
 20
987.69322243909778
 11
1096.7400753081965
 21
959.56822243909778
  0
LINE
  8
_4-7_
  6
CONTINUOUS
 62
    7
 10
1094.2400753081956
 20
987.69322243909778
 11
1094.2400753081956
 21
959.56822243909778
  0
LINE
  8
_4-2_
  6
CONTINUOUS
 62
    7
 10
1079.8650753081965
 20
984.56822243909778
 11
1094.2400753081956
 21
984.56822243909778
  0
LINE
  8
_4-2_
  6
CONTINUOUS
 62
    7
 10
1079.8650753081965
 20
978.31822243909778
 11
1094.2400753081956
 21
978.31822243909778
  0
LINE
  8
_4-2_
  6
CONTINUOUS
 62
    7
 10
1096.7400753081965
 20
984.56822243909778
 11
1517.3650753081965
 21
984.56822243909778
  0
LINE
  8
_4-2_
  6
CONTINUOUS
 62
    7
 10
1096.7400753081965
 20
978.31822243909778
 11
1517.3650753081965
 21
978.31822243909778
  0
LINE
  8
_4-6_
  6
CONTINUOUS
 62
    2
 10
986.11507530819665
 20
989.88072243909778
 11
986.11507530819665
 21
989.1307224390905
  0
LINE
  8
_4-2_
  6
CONTINUOUS
 62
    7
 10
986.11507530819665
 20
989.88072243909778
 11
982.32621416663562
 21
987.69322243909778
  0
LINE
  8
_4-2_
  6
CONTINUOUS
 62
    7
 10
958.61328285002912
 20
990.81822243909778
 11
958.60189610782697
 21
990.90003803077275
  0
LINE
  8
_4-2_
  6
CONTINUOUS
 62
    7
 10
958.60189610782697
 20
990.90003803077275
 11
958.58122937053906
 21
991.04070924016037
  0
LINE
  8
_4-2_
  6
CONTINUOUS
 62
    7
 10
958.58122937053906
 20
991.04070924016037
 11
958.55768923562266
 21
991.18029668407212
  0
LINE
  8
_4-2_
  6
CONTINUOUS
 62
    7
 10
958.55768923562266
 20
991.18029668407212
 11
958.5294570969819
 21
991.31811443499168
  0
LINE
  8
_4-2_
  6
CONTINUOUS
 62
    7
 10
958.5294570969819
 20
991.31811443499168
 11
958.49471434852546
 21
991.45347656540275
  0
LINE
  8
_4-2_
  6
CONTINUOUS
 62
    7
 10
958.49471434852546
 20
991.45347656540275
 11
958.45164238415748
 21
991.58569714778901
  0
LINE
  8
_4-2_
  6
CONTINUOUS
 62
    7
 10
958.45164238415748
 20
991.58569714778901
 11
958.42212757272421
 21
991.66067533715955
  0
LINE
  8
_4-2_
  6
CONTINUOUS
 62
    7
 10
958.42212757272421
 20
991.66067533715955
 11
958.39653940943492
 21
991.71824836190376
  0
LINE
  8
_4-2_
  6
CONTINUOUS
 62
    7
 10
958.39653940943492
 20
991.71824836190376
 11
958.34752992650976
 21
991.81556980128812
  0
LINE
  8
_4-2_
  6
CONTINUOUS
 62
    7
 10
958.34752992650976
 20
991.81556980128812
 11
958.29308804255504
 21
991.91057205308675
  0
LINE
  8
_4-2_
  6
CONTINUOUS
 62
    7
 10
958.29308804255504
 20
991.91057205308675
 11
958.23409742433626
 21
992.00341737546319
  0
LINE
  8
_4-2_
  6
CONTINUOUS
 62
    7
 10
958.23409742433626
 20
992.00341737546319
 11
958.17144173862232
 21
992.09426802656958
  0
LINE
  8
_4-2_
  6
CONTINUOUS
 62
    7
 10
958.17144173862232
 20
992.09426802656958
 11
958.10600465217419
 21
992.18328626456719
  0
LINE
  8
_4-2_
  6
CONTINUOUS
 62
    7
 10
958.10600465217419
 20
992.18328626456719
 11
958.06712491487531
 21
992.23414116906974
  0
LINE
  8
_4-2_
  6
CONTINUOUS
 62
    7
 10
958.06712491487531
 20
992.23414116906974
 11
958.02073974366579
 21
992.29331841457247
  0
LINE
  8
_4-2_
  6
CONTINUOUS
 62
    7
 10
958.02073974366579
 20
992.29331841457247
 11
957.93934915610009
 21
992.39376766073542
  0
LINE
  8
_4-2_
  6
CONTINUOUS
 62
    7
 10
957.93934915610009
 20
992.39376766073542
 11
957.85631676908736
 21
992.49243438722965
  0
LINE
  8
_4-2_
  6
CONTINUOUS
 62
    7
 10
957.85631676908736
 20
992.49243438722965
 11
957.77181793275588
 21
992.58957219564559
  0
LINE
  8
_4-2_
  6
CONTINUOUS
 62
    7
 10
957.77181793275588
 20
992.58957219564559
 11
957.68602799724306
 21
992.68543468757593
  0
LINE
  8
_4-2_
  6
CONTINUOUS
 62
    7
 10
957.68602799724306
 20
992.68543468757593
 11
957.59912231267492
 21
992.78027546461112
  0
LINE
  8
_4-2_
  6
CONTINUOUS
 62
    7
 10
957.59912231267492
 20
992.78027546461112
 11
957.54827487648015
 21
992.83491489773974
  0
LINE
  8
_4-2_
  6
CONTINUOUS
 62
    7
 10
957.54827487648015
 20
992.83491489773974
 11
957.49475295559535
 21
992.89183375673952
  0
LINE
  8
_4-2_
  6
CONTINUOUS
 62
    7
 10
957.49475295559535
 20
992.89183375673952
 11
957.40150460665348
 21
992.98914734975847
  0
LINE
  8
_4-2_
  6
CONTINUOUS
 62
    7
 10
957.40150460665348
 20
992.98914734975847
 11
957.3066607231732
 21
993.08498858625876
  0
LINE
  8
_4-2_
  6
CONTINUOUS
 62
    7
 10
957.3066607231732
 20
993.08498858625876
 11
957.2097925484826
 21
993.17885586058333
  0
LINE
  8
_4-2_
  6
CONTINUOUS
 62
    7
 10
957.2097925484826
 20
993.17885586058333
 11
957.11047132591659
 21
993.2702475670842
  0
LINE
  8
_4-2_
  6
CONTINUOUS
 62
    7
 10
957.11047132591659
 20
993.2702475670842
 11
957.00826829880327
 21
993.35866210009976
  0
LINE
  8
_4-2_
  6
CONTINUOUS
 62
    7
 10
957.00826829880327
 20
993.35866210009976
 11
956.94750114781129
 21
993.40838072965221
  0
LINE
  8
_4-2_
  6
CONTINUOUS
 62
    7
 10
956.94750114781129
 20
993.40838072965221
 11
956.89271758559642
 21
993.45133407496201
  0
LINE
  8
_4-2_
  6
CONTINUOUS
 62
    7
 10
956.89271758559642
 20
993.45133407496201
 11
956.79608439814672
 21
993.5227170548344
  0
LINE
  8
_4-2_
  6
CONTINUOUS
 62
    7
 10
956.79608439814672
 20
993.5227170548344
 11
956.69673118365438
 21
993.59019998541748
  0
LINE
  8
_4-2_
  6
CONTINUOUS
 62
    7
 10
956.69673118365438
 20
993.59019998541748
 11
956.5947020228856
 21
993.65318450505833
  0
LINE
  8
_4-2_
  6
CONTINUOUS
 62
    7
 10
956.5947020228856
 20
993.65318450505833
 11
956.49004099661681
 21
993.71107225211313
  0
LINE
  8
_4-2_
  6
CONTINUOUS
 62
    7
 10
956.49004099661681
 20
993.71107225211313
 11
956.38279218561422
 21
993.76326486493122
  0
LINE
  8
_4-2_
  6
CONTINUOUS
 62
    7
 10
956.38279218561422
 20
993.76326486493122
 11
956.31941952238378
 21
993.79069128425749
  0
LINE
  8
_4-2_
  6
CONTINUOUS
 62
    7
 10
956.31941952238378
 20
993.79069128425749
 11
956.24822858942196
 21
993.81852173004768
  0
LINE
  8
_4-2_
  6
CONTINUOUS
 62
    7
 10
956.24822858942196
 20
993.81852173004768
 11
956.12329830326473
 21
993.86059087280523
  0
LINE
  8
_4-2_
  6
CONTINUOUS
 62
    7
 10
956.12329830326473
 20
993.86059087280523
 11
955.99598449147663
 21
993.89596809249292
  0
LINE
  8
_4-2_
  6
CONTINUOUS
 62
    7
 10
955.99598449147663
 20
993.89596809249292
 11
955.86673506847148
 21
993.92557738857272
  0
LINE
  8
_4-2_
  6
CONTINUOUS
 62
    7
 10
955.86673506847148
 20
993.92557738857272
 11
955.73599794865288
 21
993.95034276051797
  0
LINE
  8
_4-2_
  6
CONTINUOUS
 62
    7
 10
955.73599794865288
 20
993.95034276051797
 11
955.6042210464301
 21
993.97118820778837
  0
LINE
  8
_4-2_
  6
CONTINUOUS
 62
    7
 10
955.6042210464301
 20
993.97118820778837
 11
955.52749051641342
 21
993.98184656156013
  0
LINE
  8
_4-2_
  6
CONTINUOUS
 62
    7
 10
955.52749051641342
 20
993.98184656156013
 11
955.43470491011078
 21
993.99354468610477
  0
LINE
  8
_4-2_
  6
CONTINUOUS
 62
    7
 10
955.43470491011078
 20
993.99354468610477
 11
955.27450474430736
 21
994.01036141178361
  0
LINE
  8
_4-2_
  6
CONTINUOUS
 62
    7
 10
955.27450474430736
 20
994.01036141178361
 11
955.11425766394325
 21
994.02214781634507
  0
LINE
  8
_4-2_
  6
CONTINUOUS
 62
    7
 10
955.11425766394325
 20
994.02214781634507
 11
954.95424026605008
 21
994.02798912333787
  0
LINE
  8
_4-2_
  6
CONTINUOUS
 62
    7
 10
954.95424026605008
 20
994.02798912333787
 11
954.79472914765267
 21
994.02697055630847
  0
LINE
  8
_4-2_
  6
CONTINUOUS
 62
    7
 10
954.79472914765267
 20
994.02697055630847
 11
954.63600090578382
 21
994.01817733880785
  0
LINE
  8
_4-2_
  6
CONTINUOUS
 62
    7
 10
954.63600090578382
 20
994.01817733880785
 11
954.54440623313587
 21
994.00915445831765
  0
LINE
  8
_4-2_
  6
CONTINUOUS
 62
    7
 10
954.54440623313587
 20
994.00915445831765
 11
954.47731611340771
 21
994.00059834201579
  0
LINE
  8
_4-2_
  6
CONTINUOUS
 62
    7
 10
954.47731611340771
 20
994.00059834201579
 11
954.3620348254268
 21
993.98249857249107
  0
LINE
  8
_4-2_
  6
CONTINUOUS
 62
    7
 10
954.3620348254268
 20
993.98249857249107
 11
954.24705303952521
 21
993.96105139652741
  0
LINE
  8
_4-2_
  6
CONTINUOUS
 62
    7
 10
954.24705303952521
 20
993.96105139652741
 11
954.13214301711548
 21
993.93729213026086
  0
LINE
  8
_4-2_
  6
CONTINUOUS
 62
    7
 10
954.13214301711548
 20
993.93729213026086
 11
954.01707701960106
 21
993.91225608982063
  0
LINE
  8
_4-2_
  6
CONTINUOUS
 62
    7
 10
954.01707701960106
 20
993.91225608982063
 11
953.90162730839677
 21
993.88697859133595
  0
LINE
  8
_4-2_
  6
CONTINUOUS
 62
    7
 10
953.90162730839677
 20
993.88697859133595
 11
953.83440091743694
 21
993.87261497453005
  0
LINE
  8
_4-2_
  6
CONTINUOUS
 62
    7
 10
953.83440091743694
 20
993.87261497453005
 11
953.75808139785647
 21
993.85681889859393
  0
LINE
  8
_4-2_
  6
CONTINUOUS
 62
    7
 10
953.75808139785647
 20
993.85681889859393
 11
953.62633263312944
 21
993.8297254509464
  0
LINE
  8
_4-2_
  6
CONTINUOUS
 62
    7
 10
953.62633263312944
 20
993.8297254509464
 11
953.4952668682314
 21
993.8008922271049
  0
LINE
  8
_4-2_
  6
CONTINUOUS
 62
    7
 10
953.4952668682314
 20
993.8008922271049
 11
953.36591877493959
 21
993.76808845104074
  0
LINE
  8
_4-2_
  6
CONTINUOUS
 62
    7
 10
953.36591877493959
 20
993.76808845104074
 11
953.2393230250301
 21
993.72908334672752
  0
LINE
  8
_4-2_
  6
CONTINUOUS
 62
    7
 10
953.2393230250301
 20
993.72908334672752
 11
953.11651429028018
 21
993.68164613814338
  0
LINE
  8
_4-2_
  6
CONTINUOUS
 62
    7
 10
953.11651429028018
 20
993.68164613814338
 11
953.04742814895292
 21
993.64938992523571
  0
LINE
  8
_4-2_
  6
CONTINUOUS
 62
    7
 10
953.04742814895292
 20
993.64938992523571
 11
952.9853517544683
 21
993.61621150528231
  0
LINE
  8
_4-2_
  6
CONTINUOUS
 62
    7
 10
952.9853517544683
 20
993.61621150528231
 11
952.8819618074732
 21
993.55165757959435
  0
LINE
  8
_4-2_
  6
CONTINUOUS
 62
    7
 10
952.8819618074732
 20
993.55165757959435
 11
952.7831795753724
 21
993.47881405976318
  0
LINE
  8
_4-2_
  6
CONTINUOUS
 62
    7
 10
952.7831795753724
 20
993.47881405976318
 11
952.68900767136358
 21
993.39885988893934
  0
LINE
  8
_4-2_
  6
CONTINUOUS
 62
    7
 10
952.68900767136358
 20
993.39885988893934
 11
952.59944870863535
 21
993.31297401028701
  0
LINE
  8
_4-2_
  6
CONTINUOUS
 62
    7
 10
952.59944870863535
 20
993.31297401028701
 11
952.51450530038085
 21
993.22233536695671
  0
LINE
  8
_4-2_
  6
CONTINUOUS
 62
    7
 10
952.51450530038085
 20
993.22233536695671
 11
952.46735400038972
 21
993.16805180195638
  0
LINE
  8
_4-2_
  6
CONTINUOUS
 62
    7
 10
952.46735400038972
 20
993.16805180195638
 11
952.4146696101576
 21
993.10394718446355
  0
LINE
  8
_4-2_
  6
CONTINUOUS
 62
    7
 10
952.4146696101576
 20
993.10394718446355
 11
952.32831219811544
 21
992.99064405337754
  0
LINE
  8
_4-2_
  6
CONTINUOUS
 62
    7
 10
952.32831219811544
 20
992.99064405337754
 11
952.24699328122881
 21
992.87425363173975
  0
LINE
  8
_4-2_
  6
CONTINUOUS
 62
    7
 10
952.24699328122881
 20
992.87425363173975
 11
952.16998084248701
 21
992.75527484355985
  0
LINE
  8
_4-2_
  6
CONTINUOUS
 62
    7
 10
952.16998084248701
 20
992.75527484355985
 11
952.0965428648816
 21
992.63420661284522
  0
LINE
  8
_4-2_
  6
CONTINUOUS
 62
    7
 10
952.0965428648816
 20
992.63420661284522
 11
952.02594733139961
 21
992.51154786360553
  0
LINE
  8
_4-2_
  6
CONTINUOUS
 62
    7
 10
952.02594733139961
 20
992.51154786360553
 11
951.98601587711266
 21
992.43987361546283
  0
LINE
  8
_4-2_
  6
CONTINUOUS
 62
    7
 10
951.98601587711266
 20
992.43987361546283
 11
951.94397377242296
 21
992.36295699537573
  0
LINE
  8
_4-2_
  6
CONTINUOUS
 62
    7
 10
951.94397377242296
 20
992.36295699537573
 11
951.87273549666713
 21
992.22970277264744
  0
LINE
  8
_4-2_
  6
CONTINUOUS
 62
    7
 10
951.87273549666713
 20
992.22970277264744
 11
951.80266390393911
 21
992.09576714793479
  0
LINE
  8
_4-2_
  6
CONTINUOUS
 62
    7
 10
951.80266390393911
 20
992.09576714793479
 11
951.73327852316049
 21
991.96129885976484
  0
LINE
  8
_4-2_
  6
CONTINUOUS
 62
    7
 10
951.73327852316049
 20
991.96129885976484
 11
951.66409888324949
 21
991.82644664665099
  0
LINE
  8
_4-2_
  6
CONTINUOUS
 62
    7
 10
951.66409888324949
 20
991.82644664665099
 11
951.59464451312544
 21
991.69135924711577
  0
LINE
  8
_4-2_
  6
CONTINUOUS
 62
    7
 10
951.59464451312544
 20
991.69135924711577
 11
951.55404576648209
 21
991.61295940367859
  0
LINE
  8
_4-2_
  6
CONTINUOUS
 62
    7
 10
951.55404576648209
 20
991.61295940367859
 11
951.49878735762115
 21
991.50744178929949
  0
LINE
  8
_4-2_
  6
CONTINUOUS
 62
    7
 10
951.49878735762115
 20
991.50744178929949
 11
951.40097184766375
 21
991.32656943561892
  0
LINE
  8
_4-2_
  6
CONTINUOUS
 62
    7
 10
951.40097184766375
 20
991.32656943561892
 11
951.29833335189744
 21
991.14862682546368
  0
LINE
  8
_4-2_
  6
CONTINUOUS
 62
    7
 10
951.29833335189744
 20
991.14862682546368
 11
951.1890058597811
 21
990.97546843295299
  0
LINE
  8
_4-2_
  6
CONTINUOUS
 62
    7
 10
951.1890058597811
 20
990.97546843295299
 11
951.07112336078046
 21
990.80894873221064
  0
LINE
  8
_4-2_
  6
CONTINUOUS
 62
    7
 10
951.07112336078046
 20
990.80894873221064
 11
950.94281984435895
 21
990.65092219736266
  0
LINE
  8
_4-2_
  6
CONTINUOUS
 62
    7
 10
950.94281984435895
 20
990.65092219736266
 11
950.86289358946772
 21
990.56388913500109
  0
LINE
  8
_4-2_
  6
CONTINUOUS
 62
    7
 10
950.86289358946772
 20
990.56388913500109
 11
950.83400910677767
 21
990.53444850630535
  0
LINE
  8
_4-2_
  6
CONTINUOUS
 62
    7
 10
950.83400910677767
 20
990.53444850630535
 11
950.78294706831514
 21
990.48485782190733
  0
LINE
  8
_4-2_
  6
CONTINUOUS
 62
    7
 10
950.78294706831514
 20
990.48485782190733
 11
950.73032057310741
 21
990.43685775350718
  0
LINE
  8
_4-2_
  6
CONTINUOUS
 62
    7
 10
950.73032057310741
 20
990.43685775350718
 11
950.67616683842459
 21
990.39057718892786
  0
LINE
  8
_4-2_
  6
CONTINUOUS
 62
    7
 10
950.67616683842459
 20
990.39057718892786
 11
950.62052308152772
 21
990.34614501599685
  0
LINE
  8
_4-2_
  6
CONTINUOUS
 62
    7
 10
950.62052308152772
 20
990.34614501599685
 11
950.56342651968237
 21
990.30369012254164
  0
LINE
  8
_4-2_
  6
CONTINUOUS
 62
    7
 10
950.56342651968237
 20
990.30369012254164
 11
950.52965950412329
 21
990.28002306229632
  0
LINE
  8
_4-2_
  6
CONTINUOUS
 62
    7
 10
950.52965950412329
 20
990.28002306229632
 11
950.47365862219237
 21
990.24296513081049
  0
LINE
  8
_4-2_
  6
CONTINUOUS
 62
    7
 10
950.47365862219237
 20
990.24296513081049
 11
950.37478896958589
 21
990.18270684068989
  0
LINE
  8
_4-2_
  6
CONTINUOUS
 62
    7
 10
950.37478896958589
 20
990.18270684068989
 11
950.27390691519088
 21
990.12562658502043
  0
LINE
  8
_4-2_
  6
CONTINUOUS
 62
    7
 10
950.27390691519088
 20
990.12562658502043
 11
950.17208194750708
 21
990.07006989223805
  0
LINE
  8
_4-2_
  6
CONTINUOUS
 62
    7
 10
950.17208194750708
 20
990.07006989223805
 11
950.07038355503767
 21
990.01438229077871
  0
LINE
  8
_4-2_
  6
CONTINUOUS
 62
    7
 10
950.07038355503767
 20
990.01438229077871
 11
949.96988122628011
 21
989.95690930907608
  0
LINE
  8
_4-2_
  6
CONTINUOUS
 62
    7
 10
949.96988122628011
 20
989.95690930907608
 11
949.91255934607636
 21
989.92210497063093
  0
LINE
  8
_4-2_
  6
CONTINUOUS
 62
    7
 10
949.91255934607636
 20
989.92210497063093
 11
949.85480247582643
 21
989.88500198946008
  0
LINE
  8
_4-2_
  6
CONTINUOUS
 62
    7
 10
949.85480247582643
 20
989.88500198946008
 11
949.75733809948053
 21
989.81781338835412
  0
LINE
  8
_4-2_
  6
CONTINUOUS
 62
    7
 10
949.75733809948053
 20
989.81781338835412
 11
949.66213651059263
 21
989.74719889462472
  0
LINE
  8
_4-2_
  6
CONTINUOUS
 62
    7
 10
949.66213651059263
 20
989.74719889462472
 11
949.56871370513284
 21
989.67391136187894
  0
LINE
  8
_4-2_
  6
CONTINUOUS
 62
    7
 10
949.56871370513284
 20
989.67391136187894
 11
949.47658567907354
 21
989.59870364372387
  0
LINE
  8
_4-2_
  6
CONTINUOUS
 62
    7
 10
949.47658567907354
 20
989.59870364372387
 11
949.38526842838826
 21
989.52232859376886
  0
LINE
  8
_4-2_
  6
CONTINUOUS
 62
    7
 10
949.38526842838826
 20
989.52232859376886
 11
949.33248519751203
 21
989.4777928568376
  0
LINE
  8
_4-2_
  6
CONTINUOUS
 62
    7
 10
949.33248519751203
 20
989.4777928568376
 11
949.26633403275048
 21
989.42186749189909
  0
LINE
  8
_4-2_
  6
CONTINUOUS
 62
    7
 10
949.26633403275048
 20
989.42186749189909
 11
949.15285104630641
 21
989.32494058327643
  0
LINE
  8
_4-2_
  6
CONTINUOUS
 62
    7
 10
949.15285104630641
 20
989.32494058327643
 11
949.04086688841574
 21
989.22657235312522
  0
LINE
  8
_4-2_
  6
CONTINUOUS
 62
    7
 10
949.04086688841574
 20
989.22657235312522
 11
948.93128430952459
 21
989.12582847942326
  0
LINE
  8
_4-2_
  6
CONTINUOUS
 62
    7
 10
948.93128430952459
 20
989.12582847942326
 11
948.82500606008136
 21
989.02177464014153
  0
LINE
  8
_4-2_
  6
CONTINUOUS
 62
    7
 10
948.82500606008136
 20
989.02177464014153
 11
948.72293489053334
 21
988.91347651326009
  0
LINE
  8
_4-2_
  6
CONTINUOUS
 62
    7
 10
948.72293489053334
 20
988.91347651326009
 11
948.6660170268209
 21
988.84835069562791
  0
LINE
  8
_4-2_
  6
CONTINUOUS
 62
    7
 10
948.6660170268209
 20
988.84835069562791
 11
948.63372998142324
 21
988.80954614842744
  0
LINE
  8
_4-2_
  6
CONTINUOUS
 62
    7
 10
948.63372998142324
 20
988.80954614842744
 11
948.57977678748114
 21
988.74112568602891
  0
LINE
  8
_4-2_
  6
CONTINUOUS
 62
    7
 10
948.57977678748114
 20
988.74112568602891
 11
948.5283018674005
 21
988.67081239992808
  0
LINE
  8
_4-2_
  6
CONTINUOUS
 62
    7
 10
948.5283018674005
 20
988.67081239992808
 11
948.4796639356847
 21
988.59863681698494
  0
LINE
  8
_4-2_
  6
CONTINUOUS
 62
    7
 10
948.4796639356847
 20
988.59863681698494
 11
948.43422170684391
 21
988.52462946405035
  0
LINE
  8
_4-2_
  6
CONTINUOUS
 62
    7
 10
948.43422170684391
 20
988.52462946405035
 11
948.39233389538833
 21
988.44882086798657
  0
LINE
  8
_4-2_
  6
CONTINUOUS
 62
    7
 10
948.39233389538833
 20
988.44882086798657
 11
948.36980895095905
 21
988.40403858183458
  0
LINE
  8
_4-2_
  6
CONTINUOUS
 62
    7
 10
948.36980895095905
 20
988.40403858183458
 11
948.34065154261054
 21
988.34061614992856
  0
LINE
  8
_4-2_
  6
CONTINUOUS
 62
    7
 10
948.34065154261054
 20
988.34061614992856
 11
948.29597231864057
 21
988.22888841302324
  0
LINE
  8
_4-2_
  6
CONTINUOUS
 62
    7
 10
948.29597231864057
 20
988.22888841302324
 11
948.25725273200135
 21
988.11462565167881
  0
LINE
  8
_4-2_
  6
CONTINUOUS
 62
    7
 10
948.25725273200135
 20
988.11462565167881
 11
948.22319155183266
 21
987.99838136468475
  0
LINE
  8
_4-2_
  6
CONTINUOUS
 62
    7
 10
948.22319155183266
 20
987.99838136468475
 11
948.1924875472788
 21
987.880709050826
  0
LINE
  8
_4-2_
  6
CONTINUOUS
 62
    7
 10
948.1924875472788
 20
987.880709050826
 11
948.16383948747955
 21
987.76216220888523
  0
LINE
  8
_4-2_
  6
CONTINUOUS
 62
    7
 10
948.16383948747955
 20
987.76216220888523
 11
948.14765289406125
 21
987.69322243909778
  0
LINE
  8
_4-4_
  6
CONTINUOUS
 62
    2
 10
1012.3650753081955
 20
993.00572243909778
 11
985.27773408184942
 21
993.00572243909778
  0
LINE
  8
_4-4_
  6
CONTINUOUS
 62
    2
 10
985.27773408184942
 20
993.00572243909778
 11
981.48887294028839
 21
990.81822243909778
  0
LINE
  8
_4-4_
  6
CONTINUOUS
 62
    2
 10
981.48887294028839
 20
990.81822243909778
 11
954.86507530819665
 21
990.81822243909778
  0
LINE
  8
_4-2_
  6
CONTINUOUS
 62
    7
 10
1017.3650753081955
 20
987.69322243909778
 11
954.86507530819665
 21
987.69322243909778
  0
LINE
  8
_4-4_
  6
CONTINUOUS
 62
    2
 10
954.86507530819665
 20
987.69322243909778
 11
767.36507530819665
 21
987.69322243909778
  0
LINE
  8
_4-4_
  6
CONTINUOUS
 62
    2
 10
954.86507530819665
 20
987.69322243909778
 11
954.86507530819665
 21
990.81822243909778
  0
LINE
  8
_4-6_
  6
CONTINUOUS
 62
    2
 10
999.86507530821257
 20
987.69322243909778
 11
997.67757530821257
 21
989.88072243909778
  0
LINE
  8
_4-6_
  6
CONTINUOUS
 62
    2
 10
1003.6150753082148
 20
987.69322243909778
 11
1005.8025753081978
 21
989.88072243909778
  0
LINE
  8
_4-6_
  6
CONTINUOUS
 62
    2
 10
997.3669151364021
 20
989.1307224390905
 11
986.11507530819665
 21
989.1307224390905
  0
LINE
  8
_4-6_
  6
CONTINUOUS
 62
    2
 10
998.80441513641529
 20
987.69322243909778
 11
997.3669151364021
 21
989.1307224390905
  0
LINE
  8
_4-6_
  6
CONTINUOUS
 62
    2
 10
1004.675735479978
 20
987.69322243909778
 11
1006.113235479973
 21
989.1307224390905
  0
LINE
  8
_4-6_
  6
CONTINUOUS
 62
    2
 10
1004.675735479978
 20
987.69322243909778
 11
998.80441513641529
 21
987.69322243909778
  0
LINE
  8
_4-7_
  6
CONTINUOUS
 62
    7
 10
1000.4119497926973
 20
987.69322243909778
 11
1003.068200823696
 21
987.69322243909778
  0
LINE
  8
_4-7_
  6
CONTINUOUS
 62
    7
 10
1004.8650778856933
 20
989.49009950109507
 11
1003.068200823696
 21
987.69322243909778
  0
LINE
  8
_4-7_
  6
CONTINUOUS
 62
    7
 10
998.61507273069776
 20
989.49009950109507
 11
1004.8650778856933
 21
989.49009950109507
  0
LINE
  8
_4-7_
  6
CONTINUOUS
 62
    7
 10
1004.8650778856933
 20
989.80261599708479
 11
1004.8650778856933
 21
989.49009950109507
  0
LINE
  8
_4-7_
  6
CONTINUOUS
 62
    7
 10
998.61507273069776
 20
989.49009950109507
 11
998.61507273069776
 21
989.80261599708479
  0
LINE
  8
_4-7_
  6
CONTINUOUS
 62
    7
 10
998.61507273069776
 20
989.80261599708479
 11
1004.8650778856933
 21
989.80261599708479
  0
LINE
  8
_4-7_
  6
CONTINUOUS
 62
    7
 10
998.61507273069776
 20
989.49009950109507
 11
1000.4119497926973
 21
987.69322243909778
  0
ARC
  8
_4-7_
  6
DASHED3
 62
    7
 10
1001.7400753081967
 20
989.01232413356433
 40
1.150198462041649
 50
217.11752319335937
 51
322.88249206542969
  0
LINE
  8
_4-7_
  6
DASHED3
 62
    7
 10
1000.1463154106028
 20
989.49009950109507
 11
1000.8228932106323
 21
988.31820903610628
  0
LINE
  8
_4-7_
  6
DASHED3
 62
    7
 10
1003.333812008305
 20
989.49009950109507
 11
1002.6572342082778
 21
988.31820903610628
  0
LINE
  8
_4-7_
  6
DASHED3
 62
    7
 10
1003.333812008305
 20
989.49009950109507
 11
1003.333812008305
 21
989.80261599708479
  0
LINE
  8
_4-7_
  6
DASHED3
 62
    7
 10
1000.1463154106028
 20
989.49009950109507
 11
1000.1463154106028
 21
989.80261599708479
  0
LINE
  8
_4-7_
  6
CONTINUOUS
 62
    7
 10
1000.4900753081955
 20
987.69322243909778
 11
1000.4900753081955
 21
959.56822243909778
  0
LINE
  8
_4-7_
  6
CONTINUOUS
 62
    7
 10
1002.9900753081967
 20
987.69322243909778
 11
1002.9900753081967
 21
959.56822243909778
  0
LINE
  8
_4-2_
  6
CONTINUOUS
 62
    7
 10
1017.3650753081955
 20
984.56822243909778
 11
1002.9900753081967
 21
984.56822243909778
  0
LINE
  8
_4-2_
  6
CONTINUOUS
 62
    7
 10
1017.3650753081967
 20
978.31822243909778
 11
1002.9900753081967
 21
978.31822243909778
  0
LINE
  8
_4-2_
  6
CONTINUOUS
 62
    7
 10
1000.4900753081955
 20
978.31822243909778
 11
767.36507530819665
 21
978.31822243909778
  0
LINE
  8
_4-5_
  6
CONTINUOUS
 62
    2
 10
1016.1150753081955
 20
989.88072243909778
 11
1016.1150753081955
 21
989.1307224390905
  0
LINE
  8
_4-6_
  6
CONTINUOUS
 62
    2
 10
1016.1150753081955
 20
989.88072243909778
 11
986.11507530819665
 21
989.88072243909778
  0
LINE
  8
_4-6_
  6
CONTINUOUS
 62
    2
 10
1016.1150753081955
 20
989.1307224390905
 11
1006.113235479973
 21
989.1307224390905
  0
LINE
  8
_4-5_
  6
CONTINUOUS
 62
    2
 10
1081.1150753081965
 20
989.88072243909778
 11
1081.1150753081965
 21
989.1307224390905
  0
LINE
  8
_4-6_
  6
CONTINUOUS
 62
    2
 10
1081.1150753081965
 20
989.88072243909778
 11
1111.1150753081965
 21
989.88072243909778
  0
LINE
  8
_4-6_
  6
CONTINUOUS
 62
    2
 10
1081.1150753081965
 20
989.1307224390905
 11
1091.1169151364193
 21
989.1307224390905
  0
TEXT
  8
_4-a_
 62
    7
 10
1267.0594943136707
 20
1073.2661573385351
 40
15
 41
1
 50
0
  1
塩ビシート 接着工法
  0
TEXT
  8
_4-a_
 62
    7
 10
1267.0594943136707
 20
1098.2661573385351
 40
15
 41
1
 50
0
  1
プルーフシーラー
  0
LINE
  8
_4-a_
  6
CONTINUOUS
 62
    7
 10
1257.0594943136707
 20
1055.7661573385351
 11
1213.1840896946851
 21
1055.7661573385351
  0
LINE
  8
_4-a_
  6
CONTINUOUS
 62
    7
 10
1257.0594943136707
 20
1030.7661573385351
 11
1198.7503329649444
 21
1030.7661573385351
  0
TEXT
  8
_4-a_
 62
    7
 10
1267.0594943136707
 20
1023.2661573385351
 40
15
 41
1
 50
0
  1
断熱材
  0
LINE
  8
_4-a_
  6
CONTINUOUS
 62
    7
 10
1257.0594943136707
 20
1080.7661573385351
 11
1227.6178464244258
 21
1080.7661573385351
  0
LINE
  8
_4-a_
  6
CONTINUOUS
 62
    7
 10
1257.0594943136707
 20
1105.7661573385351
 11
1209.622335028942
 21
1105.7661573385351
  0
LINE
  8
_4-a_
  6
CONTINUOUS
 62
    7
 10
1257.0594943136707
 20
1130.7661573385351
 11
1186.6992090519607
 21
1130.7661573385351
  0
LINE
  8
_4-a_
  6
CONTINUOUS
 62
    7
 10
1162.4980250729805
 20
967.9753181780236
 11
1227.6178464244258
 21
1080.7661573385351
  0
LINE
  8
_4-a_
  6
CONTINUOUS
 62
    7
 10
1144.1518346117182
 20
992.36792421894074
 11
1209.622335028942
 21
1105.7661573385351
  0
LINE
  8
_4-a_
  6
CONTINUOUS
 62
    7
 10
1105.3589652878741
 20
989.88072243909778
 11
1186.6992090519607
 21
1130.7661573385351
  0
TEXT
  8
_4-a_
 62
    7
 10
1267.0594943136707
 20
1123.2661573385351
 40
15
 41
1
 50
0
  1
ＢＰ－Ｈ７を加工
  0
LINE
  8
_4-4_
  6
CONTINUOUS
 62
    2
 10
1142.3650753081965
 20
987.69322243909778
 11
1517.3650753081965
 21
987.69322243909778
  0
LINE
  8
_4-a_
  6
CONTINUOUS
 62
    7
 10
1139.6110703788854
 20
903.92683409312235
 11
1112.9184607376619
 21
903.92683409312235
  0
LINE
  8
_4-a_
  6
CONTINUOUS
 62
    7
 10
1096.478060032252
 20
932.40244341168386
 11
1112.9184607376619
 21
903.92683409312235
  0
LINE
  8
_4-e_
  6
CONTINUOUS
 62
    4
 10
1161.4425335369669
 20
865.81822243909778
 11
1189.044463417993
 21
893.42015232012295
  0
LINE
  8
_4-e_
  6
CONTINUOUS
 62
    4
 10
1211.0621670189407
 20
915.43785592107292
 11
1255.1925335369669
 21
959.56822243909778
  0
LINE
  8
_4-e_
  6
CONTINUOUS
 62
    4
 10
1147.3003979132382
 20
865.81822243909778
 11
1174.9023277942642
 21
893.42015232012295
  0
LINE
  8
_4-e_
  6
CONTINUOUS
 62
    4
 10
1196.9200313952119
 20
915.43785592107292
 11
1241.0503979132382
 21
959.56822243909778
  0
LINE
  8
_4-e_
  6
CONTINUOUS
 62
    4
 10
1154.3714657251035
 20
865.81822243909778
 11
1181.97339560613
 21
893.42015232012295
  0
LINE
  8
_4-e_
  6
CONTINUOUS
 62
    4
 10
1203.9910992070777
 20
915.43785592107292
 11
1248.1214657251035
 21
959.56822243909778
  0
LINE
  8
_4-d_
  6
CONTINUOUS
 62
    4
 10
1002.9900753081967
 20
961.71175817459721
 11
1017.3650753081967
 21
976.08675817459948
  0
LINE
  8
_4-d_
  6
CONTINUOUS
 62
    4
 10
1080.3960524561858
 20
959.56822243909778
 11
1094.2400753081956
 21
973.41224529111082
  0
LINE
  8
_4-d_
  6
CONTINUOUS
 62
    4
 10
1092.5623916259287
 20
978.31822243910005
 11
1094.2400753081956
 21
979.99590612136694
  0
LINE
  8
_4-d_
  6
CONTINUOUS
 62
    4
 10
1096.7400753081965
 20
982.49590612136694
 11
1098.8123916259265
 21
984.56822243909778
  0
LINE
  8
_4-d_
  6
CONTINUOUS
 62
    4
 10
994.52933423021989
 20
978.31822243909778
 11
1000.4900753081955
 21
972.35748136112329
  0
LINE
  8
_4-d_
  6
CONTINUOUS
 62
    4
 10
1002.9900753081967
 20
969.85748136112102
 11
1013.2793342302222
 21
959.56822243909551
  0
LINE
  8
_4-a_
  6
CONTINUOUS
 62
    7
 10
957.61908023750664
 20
903.92683409312235
 11
984.31168987873036
 21
903.92683409312235
  0
LINE
  8
_4-a_
  6
CONTINUOUS
 62
    7
 10
1000.7520905841403
 20
932.40244341168386
 11
984.31168987873036
 21
903.92683409312235
  0
TEXT
  8
_4-a_
 62
    7
 10
1149.6110703788854
 20
896.42683409312235
 40
15
 41
1
 50
0
  1
ＥＬ-2001注入
  0
TEXT
  8
_4-a_
 62
    7
 10
850.11908023750664
 20
896.42683409312235
 40
15
 41
1
 50
0
  1
ＥＬ-2001注入
  0
TEXT
  8
_4-b_
 62
    7
 10
1117.7632095133363
 20
937.148070971896
 40
15
 41
1
 50
0
  1
40以上
  0
LINE
  8
_4-7_
  6
CONTINUOUS
 62
    7
 10
1097.3650753081965
 20
957.00854420602832
 11
1097.3650753081965
 21
959.56822243909778
  0
LINE
  8
_4-7_
  6
CONTINUOUS
 62
    7
 10
1097.3650753081965
 20
959.56822243909778
 11
1095.4900753081965
 21
959.56822243909778
  0
LINE
  8
_4-7_
  6
CONTINUOUS
 62
    7
 10
1097.3650753081965
 20
957.00854420602832
 11
1097.8338253081965
 21
956.49319363090081
  0
LINE
  8
_4-7_
  6
CONTINUOUS
 62
    7
 10
1097.8338253081965
 20
956.49319363090081
 11
1097.8338253081965
 21
955.18156505145407
  0
LINE
  8
_4-7_
  6
CONTINUOUS
 62
    7
 10
1097.8338253081965
 20
955.18156505145407
 11
1097.4911882769466
 21
952.60806923067344
  0
LINE
  8
_4-7_
  6
CONTINUOUS
 62
    7
 10
1097.4911882769466
 20
952.60806923067344
 11
1097.3399859331967
 21
952.35331016284727
  0
LINE
  8
_4-7_
  6
CONTINUOUS
 62
    7
 10
1097.3399859331967
 20
952.35331016284727
 11
1097.3650753081965
 21
952.35331016284727
  0
LINE
  8
_4-7_
  6
CONTINUOUS
 62
    7
 10
1097.3650753081965
 20
952.35331016284727
 11
1097.3650753081965
 21
951.2195382337236
  0
LINE
  8
_4-7_
  6
CONTINUOUS
 62
    7
 10
1097.3650753081965
 20
951.2195382337236
 11
1097.0944424578415
 21
950.70418735684848
  0
LINE
  8
_4-7_
  6
CONTINUOUS
 62
    7
 10
1097.1756323394466
 20
950.54958209378492
 11
1097.7869503081961
 21
950.54958209378492
  0
LINE
  8
_4-7_
  6
CONTINUOUS
 62
    7
 10
1097.7869503081961
 20
950.54958209378492
 11
1097.7869503081961
 21
947.90371297261026
  0
LINE
  8
_4-7_
  6
CONTINUOUS
 62
    7
 10
1097.7869503081961
 20
947.90371297261026
 11
1097.4735318706967
 21
947.30287156947293
  0
LINE
  8
_4-7_
  6
CONTINUOUS
 62
    7
 10
1097.4735318706967
 20
947.30287156947293
 11
1097.4705440581961
 21
947.30287156947293
  0
LINE
  8
_4-7_
  6
CONTINUOUS
 62
    7
 10
1097.4705414498935
 20
947.30287179058701
 11
1097.4705440581961
 21
947.30287156947293
  0
LINE
  8
_4-7_
  6
CONTINUOUS
 62
    7
 10
1097.4705414498935
 20
947.30287179058701
 11
1097.4705440581961
 21
947.30287156947293
  0
LINE
  8
_4-7_
  6
CONTINUOUS
 62
    7
 10
1097.4501745269463
 20
946.63291542953539
 11
1097.7869503081961
 21
946.63291542953539
  0
LINE
  8
_4-7_
  6
CONTINUOUS
 62
    7
 10
1097.7869503081961
 20
946.63291542953539
 11
1097.7869503081961
 21
943.0096447190524
  0
LINE
  8
_4-7_
  6
CONTINUOUS
 62
    7
 10
1097.7869503081961
 20
943.0096447190524
 11
1097.4705458162834
 21
942.40705011294858
  0
LINE
  8
_4-7_
  6
CONTINUOUS
 62
    7
 10
1097.4705440581961
 20
942.40703823915987
 11
1097.4682992892231
 21
942.70544536243528
  0
LINE
  8
_4-7_
  6
CONTINUOUS
 62
    7
 10
1097.4682992892231
 20
942.70544536243528
 11
1097.2678742844591
 21
942.71624876528585
  0
LINE
  8
_4-7_
  6
CONTINUOUS
 62
    7
 10
1097.1687105093538
 20
942.87085402834828
 11
1097.4501745269463
 21
943.38620490522226
  0
LINE
  8
_4-7_
  6
CONTINUOUS
 62
    7
 10
1097.4501745269463
 20
943.38620490522226
 11
1097.450174622024
 21
943.68461207334485
  0
LINE
  8
_4-7_
  6
CONTINUOUS
 62
    7
 10
1097.450174622024
 20
943.68461207334485
 11
1097.2326543706963
 21
943.69541543134824
  0
LINE
  8
_4-7_
  6
CONTINUOUS
 62
    7
 10
1097.1329107771207
 20
943.85002069441066
 11
1097.4501745269463
 21
944.36537157128578
  0
LINE
  8
_4-7_
  6
CONTINUOUS
 62
    7
 10
1097.4501745269463
 20
944.36537157128578
 11
1097.4501745269463
 21
944.66377879697825
  0
LINE
  8
_4-7_
  6
CONTINUOUS
 62
    7
 10
1097.4501745269463
 20
944.66377879697825
 11
1097.2326543706963
 21
944.67458209741062
  0
LINE
  8
_4-7_
  6
CONTINUOUS
 62
    7
 10
1097.1329107771207
 20
944.82918736047304
 11
1097.4501745269463
 21
945.34453823734816
  0
LINE
  8
_4-7_
  6
CONTINUOUS
 62
    7
 10
1097.4501745269463
 20
945.34453823734816
 11
1097.4501745269463
 21
945.64294546304063
  0
LINE
  8
_4-7_
  6
CONTINUOUS
 62
    7
 10
1097.4501745269463
 20
945.64294546304063
 11
1097.2326543706963
 21
945.653748763473
  0
LINE
  8
_4-7_
  6
CONTINUOUS
 62
    7
 10
1097.1329107771207
 20
945.80835402653543
 11
1097.450174622024
 21
946.32370490341054
  0
LINE
  8
_4-7_
  6
CONTINUOUS
 62
    7
 10
1097.450174622024
 20
946.32370490341054
 11
1097.4501745269463
 21
946.63291542953539
  0
LINE
  8
_4-7_
  6
CONTINUOUS
 62
    7
 10
1097.4705414498935
 20
947.30287179058701
 11
1097.4682381991151
 21
947.60127895870846
  0
LINE
  8
_4-7_
  6
CONTINUOUS
 62
    7
 10
1097.4682381991151
 20
947.60127895870846
 11
1097.2698351519462
 21
947.61208209559777
  0
LINE
  8
_4-7_
  6
CONTINUOUS
 62
    7
 10
1097.1685275642467
 20
947.76668735866019
 11
1097.450174622024
 21
948.28203823553531
  0
LINE
  8
_4-7_
  6
CONTINUOUS
 62
    7
 10
1097.450174622024
 20
948.28203823553531
 11
1097.450174622024
 21
948.58044540365677
  0
LINE
  8
_4-7_
  6
CONTINUOUS
 62
    7
 10
1097.450174622024
 20
948.58044540365677
 11
1097.2326543706963
 21
948.59124876166015
  0
LINE
  8
_4-7_
  6
CONTINUOUS
 62
    7
 10
1097.1329107771207
 20
948.74585402472258
 11
1097.4501745269463
 21
949.26120490159769
  0
LINE
  8
_4-7_
  6
CONTINUOUS
 62
    7
 10
1097.4501745269463
 20
949.26120490159769
 11
1097.450174622024
 21
949.55961206971915
  0
LINE
  8
_4-7_
  6
CONTINUOUS
 62
    7
 10
1097.450174622024
 20
949.55961206971915
 11
1097.2321005628914
 21
949.57056016594743
  0
LINE
  8
_4-7_
  6
CONTINUOUS
 62
    7
 10
1097.1329107771207
 20
949.7250206907861
 11
1097.450174622024
 21
950.24037156766008
  0
LINE
  8
_4-7_
  6
CONTINUOUS
 62
    7
 10
1097.450174622024
 20
950.24037156766008
 11
1097.4501745235052
 21
950.54958209378492
  0
LINE
  8
_4-7_
  6
CONTINUOUS
 62
    7
 10
1097.4501745269463
 20
941.73708209922347
 11
1097.7869503081961
 21
941.73708209922347
  0
LINE
  8
_4-7_
  6
CONTINUOUS
 62
    7
 10
1097.7869503081961
 20
941.73708209922347
 11
1097.7869503081961
 21
939.70693101494953
  0
LINE
  8
_4-7_
  6
CONTINUOUS
 62
    7
 10
1097.7869503081961
 20
939.70693101494953
 11
1097.4708342144463
 21
937.51120490884796
  0
LINE
  8
_4-7_
  6
CONTINUOUS
 62
    7
 10
1097.4708342144463
 20
937.51120490884796
 11
1097.4703751409065
 21
937.80961183643649
  0
LINE
  8
_4-7_
  6
CONTINUOUS
 62
    7
 10
1097.4703751409065
 20
937.80961183643649
 11
1097.2774448394462
 21
937.8204154349728
  0
LINE
  8
_4-7_
  6
CONTINUOUS
 62
    7
 10
1097.4708342144463
 20
937.51120490884796
 11
1097.199911207842
 21
936.99585403197284
  0
LINE
  8
_4-7_
  6
CONTINUOUS
 62
    7
 10
1097.1870969864535
 20
937.97502069803522
 11
1097.468723444867
 21
938.49037157491034
  0
LINE
  8
_4-7_
  6
CONTINUOUS
 62
    7
 10
1097.468723444867
 20
938.49037157491034
 11
1097.4674203797026
 21
938.78877850249773
  0
LINE
  8
_4-7_
  6
CONTINUOUS
 62
    7
 10
1097.4674203797026
 20
938.78877850249773
 11
1097.265966089446
 21
938.79958210103518
  0
LINE
  8
_4-7_
  6
CONTINUOUS
 62
    7
 10
1097.1731501545601
 20
938.95418736409761
 11
1097.4630675666372
 21
939.46953800043866
  0
LINE
  8
_4-7_
  6
CONTINUOUS
 62
    7
 10
1097.4630675666372
 20
939.46953800043866
 11
1097.460528291203
 21
939.76794516856125
  0
LINE
  8
_4-7_
  6
CONTINUOUS
 62
    7
 10
1097.460528291203
 20
939.76794516856125
 11
1097.2513699441602
 21
939.77874876709757
  0
LINE
  8
_4-7_
  6
CONTINUOUS
 62
    7
 10
1097.153085809055
 20
939.93335403015999
 11
1097.4532124491834
 21
940.44870466650218
  0
LINE
  8
_4-7_
  6
CONTINUOUS
 62
    7
 10
1097.4532124491834
 20
940.44870466650218
 11
1097.4501745269463
 21
940.74711213272758
  0
LINE
  8
_4-7_
  6
CONTINUOUS
 62
    7
 10
1097.4501745269463
 20
940.74711213272758
 11
1097.2326543706963
 21
940.75791543316109
  0
LINE
  8
_4-7_
  6
CONTINUOUS
 62
    7
 10
1097.1329107771207
 20
940.91252069622237
 11
1097.450174622024
 21
941.42787157309749
  0
LINE
  8
_4-7_
  6
CONTINUOUS
 62
    7
 10
1097.450174622024
 20
941.42787157309749
 11
1097.4501745269463
 21
941.73708209922347
  0
LINE
  8
_4-7_
  6
CONTINUOUS
 62
    7
 10
1097.281101089447
 20
936.84124876891042
 11
1097.3650753081965
 21
936.84124876891042
  0
LINE
  8
_4-7_
  6
CONTINUOUS
 62
    7
 10
1097.3650753081965
 20
936.84124876891042
 11
1097.3650753081965
 21
936.35166543587866
  0
LINE
  8
_4-7_
  6
CONTINUOUS
 62
    7
 10
1097.3650753081965
 20
936.35166543587866
 11
1097.271325308197
 21
936.35166543587866
  0
LINE
  8
_4-7_
  6
CONTINUOUS
 62
    7
 10
1097.271325308197
 20
936.35166543587866
 11
1097.271325308197
 21
935.34673122597292
  0
LINE
  8
_4-7_
  6
CONTINUOUS
 62
    7
 10
1097.271325308197
 20
935.34673122597292
 11
1097.2672835514454
 21
935.34673122597292
  0
LINE
  8
_4-7_
  6
CONTINUOUS
 62
    7
 10
1097.2358615581966
 20
935.14059087522264
 11
1097.2358614666105
 21
931.42156487971101
  0
LINE
  8
_4-7_
  6
CONTINUOUS
 62
    7
 10
1097.2358614666105
 20
931.42156487971101
 11
1096.9605881206967
 21
931.01442686461064
  0
LINE
  8
_4-7_
  6
CONTINUOUS
 62
    7
 10
1096.9605881206967
 20
931.01442686461064
 11
1096.333825308197
 21
930.19322245722287
  0
LINE
  8
_4-7_
  6
CONTINUOUS
 62
    7
 10
1096.333825308197
 20
930.19322245722287
 11
1096.2404637585128
 21
930.19322245722287
  0
LINE
  8
_4-7_
  6
CONTINUOUS
 62
    7
 10
1096.2404637585128
 20
930.19322245722287
 11
1096.9186475768338
 21
931.42156487971101
  0
LINE
  8
_4-7_
  6
CONTINUOUS
 62
    7
 10
1096.9186475768338
 20
931.42156487971101
 11
1096.9186476519458
 21
933.90374877072327
  0
LINE
  8
_4-7_
  6
CONTINUOUS
 62
    7
 10
1096.554045464447
 20
933.90374877072327
 11
1096.554045635341
 21
931.4215649751477
  0
LINE
  8
_4-7_
  6
CONTINUOUS
 62
    7
 10
1096.554045635341
 20
931.4215649751477
 11
1095.8758616570713
 21
930.19322245722287
  0
LINE
  8
_4-7_
  6
CONTINUOUS
 62
    7
 10
1095.8758616570713
 20
930.19322245722287
 11
1095.4900753081965
 21
930.19322245722287
  0
LINE
  8
_4-7_
  6
CONTINUOUS
 62
    7
 10
1097.1011378738733
 20
950.71693698976389
 11
1097.1011378738733
 21
950.71693698976389
  0
LINE
  8
_4-7_
  6
CONTINUOUS
 62
    7
 10
1097.1011378738733
 20
950.71693698976389
 11
1097.0928890455264
 21
950.70052489265356
  0
LINE
  8
_4-7_
  6
CONTINUOUS
 62
    7
 10
1097.0928890455264
 20
950.70052489265356
 11
1097.0873577596692
 21
950.68278733642296
  0
LINE
  8
_4-7_
  6
CONTINUOUS
 62
    7
 10
1097.0873577596692
 20
950.68278733642296
 11
1097.0847120816236
 21
950.66426326774263
  0
LINE
  8
_4-7_
  6
CONTINUOUS
 62
    7
 10
1097.0847120816236
 20
950.66426326774263
 11
1097.0850323989782
 21
950.64551553106583
  0
LINE
  8
_4-7_
  6
CONTINUOUS
 62
    7
 10
1097.0850323989782
 20
950.64551553106583
 11
1097.088308979052
 21
950.62711376688469
  0
LINE
  8
_4-7_
  6
CONTINUOUS
 62
    7
 10
1097.088308979052
 20
950.62711376688469
 11
1097.0944422646178
 21
950.60961710349193
  0
LINE
  8
_4-7_
  6
CONTINUOUS
 62
    7
 10
1097.0944422646178
 20
950.60961710349193
 11
1097.1032458988971
 21
950.59355716815116
  0
LINE
  8
_4-7_
  6
CONTINUOUS
 62
    7
 10
1097.1032458988971
 20
950.59355716815116
 11
1097.1144523879173
 21
950.57942193387089
  0
LINE
  8
_4-7_
  6
CONTINUOUS
 62
    7
 10
1097.1144523879173
 20
950.57942193387089
 11
1097.12772122818
 21
950.56764089259207
  0
LINE
  8
_4-7_
  6
CONTINUOUS
 62
    7
 10
1097.12772122818
 20
950.56764089259207
 11
1097.1426492526887
 21
950.55857200529249
  0
LINE
  8
_4-7_
  6
CONTINUOUS
 62
    7
 10
1097.1426492526887
 20
950.55857200529249
 11
1097.158782880972
 21
950.55249082552348
  0
LINE
  8
_4-7_
  6
CONTINUOUS
 62
    7
 10
1097.158782880972
 20
950.55249082552348
 11
1097.1756319008991
 21
950.54958212685517
  0
LINE
  8
_4-7_
  6
CONTINUOUS
 62
    7
 10
1097.1756319008991
 20
950.54958212685517
 11
1097.1756323394463
 21
950.54958209378503
  0
LINE
  8
_4-7_
  6
CONTINUOUS
 62
    7
 10
1097.132910777121
 20
949.72502069078575
 11
1097.132910777121
 21
949.72502069078575
  0
LINE
  8
_4-7_
  6
CONTINUOUS
 62
    7
 10
1097.132910777121
 20
949.72502069078575
 11
1097.1324913361289
 21
949.70004684454307
  0
LINE
  8
_4-7_
  6
CONTINUOUS
 62
    7
 10
1097.1324913361289
 20
949.70004684454307
 11
1097.1360227852315
 21
949.67537233105418
  0
LINE
  8
_4-7_
  6
CONTINUOUS
 62
    7
 10
1097.1360227852315
 20
949.67537233105418
 11
1097.1433978231344
 21
949.65174687292551
  0
LINE
  8
_4-7_
  6
CONTINUOUS
 62
    7
 10
1097.1433978231344
 20
949.65174687292551
 11
1097.1543923630431
 21
949.62988831774726
  0
LINE
  8
_4-7_
  6
CONTINUOUS
 62
    7
 10
1097.1543923630431
 20
949.62988831774726
 11
1097.1686723414261
 21
949.61046082665757
  0
LINE
  8
_4-7_
  6
CONTINUOUS
 62
    7
 10
1097.1686723414261
 20
949.61046082665757
 11
1097.1858038683658
 21
949.59405469414241
  0
LINE
  8
_4-7_
  6
CONTINUOUS
 62
    7
 10
1097.1858038683658
 20
949.59405469414241
 11
1097.2052664110856
 21
949.58116841223625
  0
LINE
  8
_4-7_
  6
CONTINUOUS
 62
    7
 10
1097.2052664110856
 20
949.58116841223625
 11
1097.2264686100732
 21
949.57219352409425
  0
LINE
  8
_4-7_
  6
CONTINUOUS
 62
    7
 10
1097.2264686100732
 20
949.57219352409425
 11
1097.2326543706963
 21
949.57041542772322
  0
LINE
  8
_4-7_
  6
CONTINUOUS
 62
    7
 10
1097.132910777121
 20
948.74585402472223
 11
1097.132910777121
 21
948.74585402472223
  0
LINE
  8
_4-7_
  6
CONTINUOUS
 62
    7
 10
1097.132910777121
 20
948.74585402472223
 11
1097.1324913361289
 21
948.72088017847955
  0
LINE
  8
_4-7_
  6
CONTINUOUS
 62
    7
 10
1097.1324913361289
 20
948.72088017847955
 11
1097.1360227852315
 21
948.69620566499066
  0
LINE
  8
_4-7_
  6
CONTINUOUS
 62
    7
 10
1097.1360227852315
 20
948.69620566499066
 11
1097.1433978231344
 21
948.67258020686199
  0
LINE
  8
_4-7_
  6
CONTINUOUS
 62
    7
 10
1097.1433978231344
 20
948.67258020686199
 11
1097.1543923630431
 21
948.65072165168374
  0
LINE
  8
_4-7_
  6
CONTINUOUS
 62
    7
 10
1097.1543923630431
 20
948.65072165168374
 11
1097.1686723414261
 21
948.63129416059405
  0
LINE
  8
_4-7_
  6
CONTINUOUS
 62
    7
 10
1097.1686723414261
 20
948.63129416059405
 11
1097.1858038683658
 21
948.61488802807889
  0
LINE
  8
_4-7_
  6
CONTINUOUS
 62
    7
 10
1097.1858038683658
 20
948.61488802807889
 11
1097.2052664110856
 21
948.60200174617273
  0
LINE
  8
_4-7_
  6
CONTINUOUS
 62
    7
 10
1097.2052664110856
 20
948.60200174617273
 11
1097.2264686100732
 21
948.59302685803073
  0
LINE
  8
_4-7_
  6
CONTINUOUS
 62
    7
 10
1097.2264686100732
 20
948.59302685803073
 11
1097.2326543706963
 21
948.5912487616597
  0
LINE
  8
_4-7_
  6
CONTINUOUS
 62
    7
 10
1097.1685275642469
 20
947.76668735865985
 11
1097.1685275642469
 21
947.76668735865985
  0
LINE
  8
_4-7_
  6
CONTINUOUS
 62
    7
 10
1097.1685275642469
 20
947.76668735865985
 11
1097.1681081232548
 21
947.74171351241716
  0
LINE
  8
_4-7_
  6
CONTINUOUS
 62
    7
 10
1097.1681081232548
 20
947.74171351241716
 11
1097.1716395723574
 21
947.71703899892827
  0
LINE
  8
_4-7_
  6
CONTINUOUS
 62
    7
 10
1097.1716395723574
 20
947.71703899892827
 11
1097.1790146102603
 21
947.69341354079961
  0
LINE
  8
_4-7_
  6
CONTINUOUS
 62
    7
 10
1097.1790146102603
 20
947.69341354079961
 11
1097.1900091501691
 21
947.67155498562136
  0
LINE
  8
_4-7_
  6
CONTINUOUS
 62
    7
 10
1097.1900091501691
 20
947.67155498562136
 11
1097.2042891285521
 21
947.65212749453167
  0
LINE
  8
_4-7_
  6
CONTINUOUS
 62
    7
 10
1097.2042891285521
 20
947.65212749453167
 11
1097.2214206554918
 21
947.63572136201651
  0
LINE
  8
_4-7_
  6
CONTINUOUS
 62
    7
 10
1097.2214206554918
 20
947.63572136201651
 11
1097.2408831982116
 21
947.62283508011035
  0
LINE
  8
_4-7_
  6
CONTINUOUS
 62
    7
 10
1097.2408831982116
 20
947.62283508011035
 11
1097.2620853971991
 21
947.61386019196834
  0
LINE
  8
_4-7_
  6
CONTINUOUS
 62
    7
 10
1097.2620853971991
 20
947.61386019196834
 11
1097.2682711578223
 21
947.61208209559732
  0
LINE
  8
_4-7_
  6
CONTINUOUS
 62
    7
 10
1097.132910777121
 20
945.80835402653508
 11
1097.132910777121
 21
945.80835402653508
  0
LINE
  8
_4-7_
  6
CONTINUOUS
 62
    7
 10
1097.132910777121
 20
945.80835402653508
 11
1097.1324913361289
 21
945.7833801802924
  0
LINE
  8
_4-7_
  6
CONTINUOUS
 62
    7
 10
1097.1324913361289
 20
945.7833801802924
 11
1097.1360227852315
 21
945.75870566680351
  0
LINE
  8
_4-7_
  6
CONTINUOUS
 62
    7
 10
1097.1360227852315
 20
945.75870566680351
 11
1097.1433978231344
 21
945.73508020867484
  0
LINE
  8
_4-7_
  6
CONTINUOUS
 62
    7
 10
1097.1433978231344
 20
945.73508020867484
 11
1097.1543923630431
 21
945.71322165349659
  0
LINE
  8
_4-7_
  6
CONTINUOUS
 62
    7
 10
1097.1543923630431
 20
945.71322165349659
 11
1097.1686723414261
 21
945.6937941624069
  0
LINE
  8
_4-7_
  6
CONTINUOUS
 62
    7
 10
1097.1686723414261
 20
945.6937941624069
 11
1097.1858038683658
 21
945.67738802989174
  0
LINE
  8
_4-7_
  6
CONTINUOUS
 62
    7
 10
1097.1858038683658
 20
945.67738802989174
 11
1097.2052664110856
 21
945.66450174798558
  0
LINE
  8
_4-7_
  6
CONTINUOUS
 62
    7
 10
1097.2052664110856
 20
945.66450174798558
 11
1097.2264686100732
 21
945.65552685984358
  0
LINE
  8
_4-7_
  6
CONTINUOUS
 62
    7
 10
1097.2264686100732
 20
945.65552685984358
 11
1097.2326543706963
 21
945.65374876347255
  0
LINE
  8
_4-7_
  6
CONTINUOUS
 62
    7
 10
1097.132910777121
 20
944.8291873604727
 11
1097.132910777121
 21
944.8291873604727
  0
LINE
  8
_4-7_
  6
CONTINUOUS
 62
    7
 10
1097.132910777121
 20
944.8291873604727
 11
1097.1324913361289
 21
944.80421351423001
  0
LINE
  8
_4-7_
  6
CONTINUOUS
 62
    7
 10
1097.1324913361289
 20
944.80421351423001
 11
1097.1360227852315
 21
944.77953900074112
  0
LINE
  8
_4-7_
  6
CONTINUOUS
 62
    7
 10
1097.1360227852315
 20
944.77953900074112
 11
1097.1433978231344
 21
944.75591354261246
  0
LINE
  8
_4-7_
  6
CONTINUOUS
 62
    7
 10
1097.1433978231344
 20
944.75591354261246
 11
1097.1543923630431
 21
944.73405498743421
  0
LINE
  8
_4-7_
  6
CONTINUOUS
 62
    7
 10
1097.1543923630431
 20
944.73405498743421
 11
1097.1686723414261
 21
944.71462749634452
  0
LINE
  8
_4-7_
  6
CONTINUOUS
 62
    7
 10
1097.1686723414261
 20
944.71462749634452
 11
1097.1858038683658
 21
944.69822136382936
  0
LINE
  8
_4-7_
  6
CONTINUOUS
 62
    7
 10
1097.1858038683658
 20
944.69822136382936
 11
1097.2052664110856
 21
944.6853350819232
  0
LINE
  8
_4-7_
  6
CONTINUOUS
 62
    7
 10
1097.2052664110856
 20
944.6853350819232
 11
1097.2264686100732
 21
944.67636019378119
  0
LINE
  8
_4-7_
  6
CONTINUOUS
 62
    7
 10
1097.2264686100732
 20
944.67636019378119
 11
1097.2326543706963
 21
944.67458209741017
  0
LINE
  8
_4-7_
  6
CONTINUOUS
 62
    7
 10
1097.132910777121
 20
943.85002069441032
 11
1097.132910777121
 21
943.85002069441032
  0
LINE
  8
_4-7_
  6
CONTINUOUS
 62
    7
 10
1097.132910777121
 20
943.85002069441032
 11
1097.1324913361289
 21
943.82504684816763
  0
LINE
  8
_4-7_
  6
CONTINUOUS
 62
    7
 10
1097.1324913361289
 20
943.82504684816763
 11
1097.1360227852315
 21
943.80037233467874
  0
LINE
  8
_4-7_
  6
CONTINUOUS
 62
    7
 10
1097.1360227852315
 20
943.80037233467874
 11
1097.1433978231344
 21
943.77674687655008
  0
LINE
  8
_4-7_
  6
CONTINUOUS
 62
    7
 10
1097.1433978231344
 20
943.77674687655008
 11
1097.1543923630431
 21
943.75488832137182
  0
LINE
  8
_4-7_
  6
CONTINUOUS
 62
    7
 10
1097.1543923630431
 20
943.75488832137182
 11
1097.1686723414261
 21
943.73546083028214
  0
LINE
  8
_4-7_
  6
CONTINUOUS
 62
    7
 10
1097.1686723414261
 20
943.73546083028214
 11
1097.1858038683658
 21
943.71905469776698
  0
LINE
  8
_4-7_
  6
CONTINUOUS
 62
    7
 10
1097.1858038683658
 20
943.71905469776698
 11
1097.2052664110856
 21
943.70616841586082
  0
LINE
  8
_4-7_
  6
CONTINUOUS
 62
    7
 10
1097.2052664110856
 20
943.70616841586082
 11
1097.2264686100732
 21
943.69719352771881
  0
LINE
  8
_4-7_
  6
CONTINUOUS
 62
    7
 10
1097.2264686100732
 20
943.69719352771881
 11
1097.2326543706963
 21
943.69541543134778
  0
LINE
  8
_4-7_
  6
CONTINUOUS
 62
    7
 10
1097.168710509354
 20
942.87085402834794
 11
1097.168710509354
 21
942.87085402834794
  0
LINE
  8
_4-7_
  6
CONTINUOUS
 62
    7
 10
1097.168710509354
 20
942.87085402834794
 11
1097.1682910683619
 21
942.84588018210525
  0
LINE
  8
_4-7_
  6
CONTINUOUS
 62
    7
 10
1097.1682910683619
 20
942.84588018210525
 11
1097.1718225174645
 21
942.82120566861636
  0
LINE
  8
_4-7_
  6
CONTINUOUS
 62
    7
 10
1097.1718225174645
 20
942.82120566861636
 11
1097.1791975553674
 21
942.79758021048769
  0
LINE
  8
_4-7_
  6
CONTINUOUS
 62
    7
 10
1097.1791975553674
 20
942.79758021048769
 11
1097.1901920952762
 21
942.77572165530944
  0
LINE
  8
_4-7_
  6
CONTINUOUS
 62
    7
 10
1097.1901920952762
 20
942.77572165530944
 11
1097.2044720736592
 21
942.75629416421975
  0
LINE
  8
_4-7_
  6
CONTINUOUS
 62
    7
 10
1097.2044720736592
 20
942.75629416421975
 11
1097.2216036005989
 21
942.7398880317046
  0
LINE
  8
_4-7_
  6
CONTINUOUS
 62
    7
 10
1097.2216036005989
 20
942.7398880317046
 11
1097.2410661433187
 21
942.72700174979843
  0
LINE
  8
_4-7_
  6
CONTINUOUS
 62
    7
 10
1097.2410661433187
 20
942.72700174979843
 11
1097.2622683423062
 21
942.71802686165643
  0
LINE
  8
_4-7_
  6
CONTINUOUS
 62
    7
 10
1097.2622683423062
 20
942.71802686165643
 11
1097.2684541029294
 21
942.7162487652854
  0
LINE
  8
_4-7_
  6
CONTINUOUS
 62
    7
 10
1097.132910777121
 20
940.91252069622317
 11
1097.132910777121
 21
940.91252069622317
  0
LINE
  8
_4-7_
  6
CONTINUOUS
 62
    7
 10
1097.132910777121
 20
940.91252069622317
 11
1097.1324913361289
 21
940.88754684998048
  0
LINE
  8
_4-7_
  6
CONTINUOUS
 62
    7
 10
1097.1324913361289
 20
940.88754684998048
 11
1097.1360227852315
 21
940.86287233649159
  0
LINE
  8
_4-7_
  6
CONTINUOUS
 62
    7
 10
1097.1360227852315
 20
940.86287233649159
 11
1097.1433978231344
 21
940.83924687836293
  0
LINE
  8
_4-7_
  6
CONTINUOUS
 62
    7
 10
1097.1433978231344
 20
940.83924687836293
 11
1097.1543923630431
 21
940.81738832318467
  0
LINE
  8
_4-7_
  6
CONTINUOUS
 62
    7
 10
1097.1543923630431
 20
940.81738832318467
 11
1097.1686723414261
 21
940.79796083209499
  0
LINE
  8
_4-7_
  6
CONTINUOUS
 62
    7
 10
1097.1686723414261
 20
940.79796083209499
 11
1097.1858038683658
 21
940.78155469957983
  0
LINE
  8
_4-7_
  6
CONTINUOUS
 62
    7
 10
1097.1858038683658
 20
940.78155469957983
 11
1097.2052664110856
 21
940.76866841767367
  0
LINE
  8
_4-7_
  6
CONTINUOUS
 62
    7
 10
1097.2052664110856
 20
940.76866841767367
 11
1097.2264686100732
 21
940.75969352953166
  0
LINE
  8
_4-7_
  6
CONTINUOUS
 62
    7
 10
1097.2264686100732
 20
940.75969352953166
 11
1097.2326543706963
 21
940.75791543316063
  0
LINE
  8
_4-7_
  6
CONTINUOUS
 62
    7
 10
1097.1530858090543
 20
939.93335403015965
 11
1097.1530858090543
 21
939.93335403015965
  0
LINE
  8
_4-7_
  6
CONTINUOUS
 62
    7
 10
1097.1530858090543
 20
939.93335403015965
 11
1097.1526663680622
 21
939.90838018391696
  0
LINE
  8
_4-7_
  6
CONTINUOUS
 62
    7
 10
1097.1526663680622
 20
939.90838018391696
 11
1097.1561978171649
 21
939.88370567042807
  0
LINE
  8
_4-7_
  6
CONTINUOUS
 62
    7
 10
1097.1561978171649
 20
939.88370567042807
 11
1097.1635728550677
 21
939.86008021229941
  0
LINE
  8
_4-7_
  6
CONTINUOUS
 62
    7
 10
1097.1635728550677
 20
939.86008021229941
 11
1097.1745673949765
 21
939.83822165712115
  0
LINE
  8
_4-7_
  6
CONTINUOUS
 62
    7
 10
1097.1745673949765
 20
939.83822165712115
 11
1097.1888473733595
 21
939.81879416603147
  0
LINE
  8
_4-7_
  6
CONTINUOUS
 62
    7
 10
1097.1888473733595
 20
939.81879416603147
 11
1097.2059789002992
 21
939.80238803351631
  0
LINE
  8
_4-7_
  6
CONTINUOUS
 62
    7
 10
1097.2059789002992
 20
939.80238803351631
 11
1097.225441443019
 21
939.78950175161015
  0
LINE
  8
_4-7_
  6
CONTINUOUS
 62
    7
 10
1097.225441443019
 20
939.78950175161015
 11
1097.2466436420066
 21
939.78052686346814
  0
LINE
  8
_4-7_
  6
CONTINUOUS
 62
    7
 10
1097.2466436420066
 20
939.78052686346814
 11
1097.2528294026297
 21
939.77874876709711
  0
LINE
  8
_4-7_
  6
CONTINUOUS
 62
    7
 10
1097.1731501545603
 20
938.95418736409727
 11
1097.1731501545603
 21
938.95418736409727
  0
LINE
  8
_4-7_
  6
CONTINUOUS
 62
    7
 10
1097.1731501545603
 20
938.95418736409727
 11
1097.1727307135682
 21
938.92921351785458
  0
LINE
  8
_4-7_
  6
CONTINUOUS
 62
    7
 10
1097.1727307135682
 20
938.92921351785458
 11
1097.1762621626708
 21
938.90453900436569
  0
LINE
  8
_4-7_
  6
CONTINUOUS
 62
    7
 10
1097.1762621626708
 20
938.90453900436569
 11
1097.1836372005737
 21
938.88091354623703
  0
LINE
  8
_4-7_
  6
CONTINUOUS
 62
    7
 10
1097.1836372005737
 20
938.88091354623703
 11
1097.1946317404825
 21
938.85905499105877
  0
LINE
  8
_4-7_
  6
CONTINUOUS
 62
    7
 10
1097.1946317404825
 20
938.85905499105877
 11
1097.2089117188655
 21
938.83962749996908
  0
LINE
  8
_4-7_
  6
CONTINUOUS
 62
    7
 10
1097.2089117188655
 20
938.83962749996908
 11
1097.2260432458052
 21
938.82322136745393
  0
LINE
  8
_4-7_
  6
CONTINUOUS
 62
    7
 10
1097.2260432458052
 20
938.82322136745393
 11
1097.245505788525
 21
938.81033508554776
  0
LINE
  8
_4-7_
  6
CONTINUOUS
 62
    7
 10
1097.245505788525
 20
938.81033508554776
 11
1097.2667079875125
 21
938.80136019740576
  0
LINE
  8
_4-7_
  6
CONTINUOUS
 62
    7
 10
1097.2667079875125
 20
938.80136019740576
 11
1097.2728937481356
 21
938.79958210103473
  0
LINE
  8
_4-7_
  6
CONTINUOUS
 62
    7
 10
1097.1870969864538
 20
937.97502069803602
 11
1097.1870969864538
 21
937.97502069803602
  0
LINE
  8
_4-7_
  6
CONTINUOUS
 62
    7
 10
1097.1870969864538
 20
937.97502069803602
 11
1097.1866775454616
 21
937.95004685179333
  0
LINE
  8
_4-7_
  6
CONTINUOUS
 62
    7
 10
1097.1866775454616
 20
937.95004685179333
 11
1097.1902089945643
 21
937.92537233830444
  0
LINE
  8
_4-7_
  6
CONTINUOUS
 62
    7
 10
1097.1902089945643
 20
937.92537233830444
 11
1097.1975840324671
 21
937.90174688017578
  0
LINE
  8
_4-7_
  6
CONTINUOUS
 62
    7
 10
1097.1975840324671
 20
937.90174688017578
 11
1097.2085785723759
 21
937.87988832499752
  0
LINE
  8
_4-7_
  6
CONTINUOUS
 62
    7
 10
1097.2085785723759
 20
937.87988832499752
 11
1097.2228585507589
 21
937.86046083390784
  0
LINE
  8
_4-7_
  6
CONTINUOUS
 62
    7
 10
1097.2228585507589
 20
937.86046083390784
 11
1097.2399900776986
 21
937.84405470139268
  0
LINE
  8
_4-7_
  6
CONTINUOUS
 62
    7
 10
1097.2399900776986
 20
937.84405470139268
 11
1097.2594526204184
 21
937.83116841948652
  0
LINE
  8
_4-7_
  6
CONTINUOUS
 62
    7
 10
1097.2594526204184
 20
937.83116841948652
 11
1097.280654819406
 21
937.82219353134451
  0
LINE
  8
_4-7_
  6
CONTINUOUS
 62
    7
 10
1097.280654819406
 20
937.82219353134451
 11
1097.2868405800291
 21
937.82041543497348
  0
LINE
  8
_4-7_
  6
CONTINUOUS
 62
    7
 10
1097.2080360982884
 20
937.0113092325787
 11
1097.2080360982884
 21
937.0113092325787
  0
LINE
  8
_4-7_
  6
CONTINUOUS
 62
    7
 10
1097.2080360982884
 20
937.0113092325787
 11
1097.1994972534446
 21
936.99487923134302
  0
LINE
  8
_4-7_
  6
CONTINUOUS
 62
    7
 10
1097.1994972534446
 20
936.99487923134302
 11
1097.1936831849769
 21
936.97706867552199
  0
LINE
  8
_4-7_
  6
CONTINUOUS
 62
    7
 10
1097.1936831849769
 20
936.97706867552199
 11
1097.1907705504134
 21
936.95841872984181
  0
LINE
  8
_4-7_
  6
CONTINUOUS
 62
    7
 10
1097.1907705504134
 20
936.95841872984181
 11
1097.1908478486816
 21
936.93949606346462
  0
LINE
  8
_4-7_
  6
CONTINUOUS
 62
    7
 10
1097.1908478486816
 20
936.93949606346462
 11
1097.193912731113
 21
936.92087563203279
  0
LINE
  8
_4-7_
  6
CONTINUOUS
 62
    7
 10
1097.193912731113
 20
936.92087563203279
 11
1097.1998720728052
 21
936.90312320793316
  0
LINE
  8
_4-7_
  6
CONTINUOUS
 62
    7
 10
1097.1998720728052
 20
936.90312320793316
 11
1097.2085448021769
 21
936.88677818958877
  0
LINE
  8
_4-7_
  6
CONTINUOUS
 62
    7
 10
1097.2085448021769
 20
936.88677818958877
 11
1097.2196674027346
 21
936.87233721211112
  0
LINE
  8
_4-7_
  6
CONTINUOUS
 62
    7
 10
1097.2196674027346
 20
936.87233721211112
 11
1097.2329019198887
 21
936.86023905729326
  0
LINE
  8
_4-7_
  6
CONTINUOUS
 62
    7
 10
1097.2329019198887
 20
936.86023905729326
 11
1097.2478462295326
 21
936.85085132144741
  0
LINE
  8
_4-7_
  6
CONTINUOUS
 62
    7
 10
1097.2478462295326
 20
936.85085132144741
 11
1097.2640462563797
 21
936.84445924617683
  0
LINE
  8
_4-7_
  6
CONTINUOUS
 62
    7
 10
1097.2640462563797
 20
936.84445924617683
 11
1097.2810097708123
 21
936.84125705145414
  0
LINE
  8
_4-7_
  6
CONTINUOUS
 62
    7
 10
1097.2810097708123
 20
936.84125705145414
 11
1097.2811010894472
 21
936.8412487689103
  0
LINE
  8
_4-7_
  6
CONTINUOUS
 62
    7
 10
1097.4705440581963
 20
942.40703823916044
 11
1097.4705440581963
 21
942.40703823916044
  0
LINE
  8
_4-7_
  6
CONTINUOUS
 62
    7
 10
1097.4705440581963
 20
942.40703823916044
 11
1097.4178404139502
 21
942.39937576625562
  0
LINE
  8
_4-7_
  6
CONTINUOUS
 62
    7
 10
1097.4178404139502
 20
942.39937576625562
 11
1097.3671477130388
 21
942.38176797456367
  0
LINE
  8
_4-7_
  6
CONTINUOUS
 62
    7
 10
1097.3671477130388
 20
942.38176797456367
 11
1097.3200062275275
 21
942.35474986792519
  0
LINE
  8
_4-7_
  6
CONTINUOUS
 62
    7
 10
1097.3200062275275
 20
942.35474986792519
 11
1097.2778483275988
 21
942.3191423778386
  0
LINE
  8
_4-7_
  6
CONTINUOUS
 62
    7
 10
1097.2778483275988
 20
942.3191423778386
 11
1097.2419549597091
 21
942.27602741987198
  0
LINE
  8
_4-7_
  6
CONTINUOUS
 62
    7
 10
1097.2419549597091
 20
942.27602741987198
 11
1097.2134167256791
 21
942.2267150202058
  0
LINE
  8
_4-7_
  6
CONTINUOUS
 62
    7
 10
1097.2134167256791
 20
942.2267150202058
 11
1097.1931007453081
 21
942.17270351115064
  0
LINE
  8
_4-7_
  6
CONTINUOUS
 62
    7
 10
1097.1931007453081
 20
942.17270351115064
 11
1097.1816243093799
 21
942.11563400507805
  0
LINE
  8
_4-7_
  6
CONTINUOUS
 62
    7
 10
1097.1816243093799
 20
942.11563400507805
 11
1097.1793361235927
 21
942.05724053005156
  0
LINE
  8
_4-7_
  6
CONTINUOUS
 62
    7
 10
1097.1793361235927
 20
942.05724053005156
 11
1097.1863057133137
 21
941.99929734226112
  0
LINE
  8
_4-7_
  6
CONTINUOUS
 62
    7
 10
1097.1863057133137
 20
941.99929734226112
 11
1097.2023213110858
 21
941.94356501614732
  0
LINE
  8
_4-7_
  6
CONTINUOUS
 62
    7
 10
1097.2023213110858
 20
941.94356501614732
 11
1097.2268962910755
 21
941.89173695023703
  0
LINE
  8
_4-7_
  6
CONTINUOUS
 62
    7
 10
1097.2268962910755
 20
941.89173695023703
 11
1097.2592839549507
 21
941.8453879140867
  0
LINE
  8
_4-7_
  6
CONTINUOUS
 62
    7
 10
1097.2592839549507
 20
941.8453879140867
 11
1097.2985002199339
 21
941.80592619970605
  0
LINE
  8
_4-7_
  6
CONTINUOUS
 62
    7
 10
1097.2985002199339
 20
941.80592619970605
 11
1097.343353519658
 21
941.77455083131792
  0
LINE
  8
_4-7_
  6
CONTINUOUS
 62
    7
 10
1097.343353519658
 20
941.77455083131792
 11
1097.3924810093076
 21
941.75221513361419
  0
LINE
  8
_4-7_
  6
CONTINUOUS
 62
    7
 10
1097.3924810093076
 20
941.75221513361419
 11
1097.4443899749695
 21
941.73959776546701
  0
LINE
  8
_4-7_
  6
CONTINUOUS
 62
    7
 10
1097.4443899749695
 20
941.73959776546701
 11
1097.4705440581963
 21
941.7370820992229
  0
LINE
  8
_4-7_
  6
CONTINUOUS
 62
    7
 10
1097.4705440581963
 20
947.3028715694735
 11
1097.4705440581963
 21
947.3028715694735
  0
LINE
  8
_4-7_
  6
CONTINUOUS
 62
    7
 10
1097.4705440581963
 20
947.3028715694735
 11
1097.4178404139502
 21
947.29520909656867
  0
LINE
  8
_4-7_
  6
CONTINUOUS
 62
    7
 10
1097.4178404139502
 20
947.29520909656867
 11
1097.3671477130388
 21
947.27760130487673
  0
LINE
  8
_4-7_
  6
CONTINUOUS
 62
    7
 10
1097.3671477130388
 20
947.27760130487673
 11
1097.3200062275275
 21
947.25058319823825
  0
LINE
  8
_4-7_
  6
CONTINUOUS
 62
    7
 10
1097.3200062275275
 20
947.25058319823825
 11
1097.2778483275988
 21
947.21497570815166
  0
LINE
  8
_4-7_
  6
CONTINUOUS
 62
    7
 10
1097.2778483275988
 20
947.21497570815166
 11
1097.2419549597091
 21
947.17186075018503
  0
LINE
  8
_4-7_
  6
CONTINUOUS
 62
    7
 10
1097.2419549597091
 20
947.17186075018503
 11
1097.2134167256791
 21
947.12254835051885
  0
LINE
  8
_4-7_
  6
CONTINUOUS
 62
    7
 10
1097.2134167256791
 20
947.12254835051885
 11
1097.1931007453081
 21
947.0685368414637
  0
LINE
  8
_4-7_
  6
CONTINUOUS
 62
    7
 10
1097.1931007453081
 20
947.0685368414637
 11
1097.1816243093799
 21
947.0114673353911
  0
LINE
  8
_4-7_
  6
CONTINUOUS
 62
    7
 10
1097.1816243093799
 20
947.0114673353911
 11
1097.1793361235927
 21
946.95307386036461
  0
LINE
  8
_4-7_
  6
CONTINUOUS
 62
    7
 10
1097.1793361235927
 20
946.95307386036461
 11
1097.1863057133137
 21
946.89513067257417
  0
LINE
  8
_4-7_
  6
CONTINUOUS
 62
    7
 10
1097.1863057133137
 20
946.89513067257417
 11
1097.2023213110858
 21
946.83939834646037
  0
LINE
  8
_4-7_
  6
CONTINUOUS
 62
    7
 10
1097.2023213110858
 20
946.83939834646037
 11
1097.2268962910755
 21
946.78757028055009
  0
LINE
  8
_4-7_
  6
CONTINUOUS
 62
    7
 10
1097.2268962910755
 20
946.78757028055009
 11
1097.2592839549507
 21
946.74122124439975
  0
LINE
  8
_4-7_
  6
CONTINUOUS
 62
    7
 10
1097.2592839549507
 20
946.74122124439975
 11
1097.2985002199339
 21
946.7017595300191
  0
LINE
  8
_4-7_
  6
CONTINUOUS
 62
    7
 10
1097.2985002199339
 20
946.7017595300191
 11
1097.343353519658
 21
946.67038416163098
  0
LINE
  8
_4-7_
  6
CONTINUOUS
 62
    7
 10
1097.343353519658
 20
946.67038416163098
 11
1097.3924810093076
 21
946.64804846392724
  0
LINE
  8
_4-7_
  6
CONTINUOUS
 62
    7
 10
1097.3924810093076
 20
946.64804846392724
 11
1097.4443899749695
 21
946.63543109578006
  0
LINE
  8
_4-7_
  6
CONTINUOUS
 62
    7
 10
1097.4443899749695
 20
946.63543109578006
 11
1097.4705440581963
 21
946.63291542953596
  0
LINE
  8
_4-7_
  6
CONTINUOUS
 62
    7
 10
1097.2672835514461
 20
935.34673122597258
 11
1097.2672835514461
 21
935.34673122597258
  0
LINE
  8
_4-7_
  6
CONTINUOUS
 62
    7
 10
1097.2672835514461
 20
935.34673122597258
 11
1097.2446677927574
 21
935.26324102174306
  0
LINE
  8
_4-7_
  6
CONTINUOUS
 62
    7
 10
1097.2446677927574
 20
935.26324102174306
 11
1097.2355825577943
 21
935.17670161410842
  0
LINE
  8
_4-7_
  6
CONTINUOUS
 62
    7
 10
1097.2355825577943
 20
935.17670161410842
 11
1097.235861468266
 21
935.14059087522253
  0
LINE
  8
_4-7_
  6
CONTINUOUS
 62
    7
 10
1096.9186476519462
 20
933.9037487707227
 11
1096.9186476519462
 21
933.9037487707227
  0
LINE
  8
_4-7_
  6
CONTINUOUS
 62
    7
 10
1096.9186476519462
 20
933.9037487707227
 11
1096.9148721659819
 21
933.93845538020878
  0
LINE
  8
_4-7_
  6
CONTINUOUS
 62
    7
 10
1096.9148721659819
 20
933.93845538020878
 11
1096.9056722697633
 21
933.9719139348241
  0
LINE
  8
_4-7_
  6
CONTINUOUS
 62
    7
 10
1096.9056722697633
 20
933.9719139348241
 11
1096.8913274974818
 21
934.00310781331746
  0
LINE
  8
_4-7_
  6
CONTINUOUS
 62
    7
 10
1096.8913274974818
 20
934.00310781331746
 11
1096.8722737077842
 21
934.03108920547584
  0
LINE
  8
_4-7_
  6
CONTINUOUS
 62
    7
 10
1096.8722737077842
 20
934.03108920547584
 11
1096.8490898404286
 21
934.05500791085774
  0
LINE
  8
_4-7_
  6
CONTINUOUS
 62
    7
 10
1096.8490898404286
 20
934.05500791085774
 11
1096.8224803254934
 21
934.07413717170346
  0
LINE
  8
_4-7_
  6
CONTINUOUS
 62
    7
 10
1096.8224803254934
 20
934.07413717170346
 11
1096.7932536796247
 21
934.08789575510218
  0
LINE
  8
_4-7_
  6
CONTINUOUS
 62
    7
 10
1096.7932536796247
 20
934.08789575510218
 11
1096.7622979396679
 21
934.09586561345941
  0
LINE
  8
_4-7_
  6
CONTINUOUS
 62
    7
 10
1096.7622979396679
 20
934.09586561345941
 11
1096.7305536801168
 21
934.09780458666205
  0
LINE
  8
_4-7_
  6
CONTINUOUS
 62
    7
 10
1096.7305536801168
 20
934.09780458666205
 11
1096.6989854342351
 21
934.09365375999039
  0
LINE
  8
_4-7_
  6
CONTINUOUS
 62
    7
 10
1096.6989854342351
 20
934.09365375999039
 11
1096.6685523871993
 21
934.0835392542125
  0
LINE
  8
_4-7_
  6
CONTINUOUS
 62
    7
 10
1096.6685523871993
 20
934.0835392542125
 11
1096.6401792317436
 21
934.06776839346821
  0
LINE
  8
_4-7_
  6
CONTINUOUS
 62
    7
 10
1096.6401792317436
 20
934.06776839346821
 11
1096.6147280718392
 21
934.04682036738086
  0
LINE
  8
_4-7_
  6
CONTINUOUS
 62
    7
 10
1096.6147280718392
 20
934.04682036738086
 11
1096.5929722281007
 21
934.02133167112277
  0
LINE
  8
_4-7_
  6
CONTINUOUS
 62
    7
 10
1096.5929722281007
 20
934.02133167112277
 11
1096.5755727408314
 21
933.99207676583194
  0
LINE
  8
_4-7_
  6
CONTINUOUS
 62
    7
 10
1096.5755727408314
 20
933.99207676583194
 11
1096.5630582846472
 21
933.95994454700201
  0
LINE
  8
_4-7_
  6
CONTINUOUS
 62
    7
 10
1096.5630582846472
 20
933.95994454700201
 11
1096.5558091049666
 21
933.92591133584222
  0
LINE
  8
_4-7_
  6
CONTINUOUS
 62
    7
 10
1096.5558091049666
 20
933.92591133584222
 11
1096.5540454644461
 21
933.89101121425222
  0
LINE
  8
_4-7_
  6
CONTINUOUS
 62
    7
 10
1096.5540454644461
 20
933.89101121425222
 11
1096.5540454644461
 21
933.89101121425222
  0
LINE
  8
_4-7_
  6
CONTINUOUS
 62
    7
 10
1093.6150753081965
 20
957.00854420602832
 11
1093.6150753081965
 21
959.56822243909778
  0
LINE
  8
_4-7_
  6
CONTINUOUS
 62
    7
 10
1093.6150753081965
 20
959.56822243909778
 11
1095.4900753081965
 21
959.56822243909778
  0
LINE
  8
_4-7_
  6
CONTINUOUS
 62
    7
 10
1093.6150753081965
 20
957.00854420602832
 11
1093.1463253081965
 21
956.49319363090081
  0
LINE
  8
_4-7_
  6
CONTINUOUS
 62
    7
 10
1093.1463253081965
 20
956.49319363090081
 11
1093.1463253081965
 21
955.18156505145407
  0
LINE
  8
_4-7_
  6
CONTINUOUS
 62
    7
 10
1093.1463253081965
 20
955.18156505145407
 11
1093.488962339447
 21
952.60806923067344
  0
LINE
  8
_4-7_
  6
CONTINUOUS
 62
    7
 10
1093.488962339447
 20
952.60806923067344
 11
1093.6401646831969
 21
952.35331016284727
  0
LINE
  8
_4-7_
  6
CONTINUOUS
 62
    7
 10
1093.6401646831969
 20
952.35331016284727
 11
1093.6150753081965
 21
952.35331016284727
  0
LINE
  8
_4-7_
  6
CONTINUOUS
 62
    7
 10
1093.6150753081965
 20
952.35331016284727
 11
1093.6150753081965
 21
951.2195382337236
  0
LINE
  8
_4-7_
  6
CONTINUOUS
 62
    7
 10
1093.6150753081965
 20
951.2195382337236
 11
1093.885708158552
 21
950.70418735684848
  0
LINE
  8
_4-7_
  6
CONTINUOUS
 62
    7
 10
1093.804518276947
 20
950.54958209378492
 11
1093.1932003081961
 21
950.54958209378492
  0
LINE
  8
_4-7_
  6
CONTINUOUS
 62
    7
 10
1093.1932003081961
 20
950.54958209378492
 11
1093.1932003081961
 21
947.90371297261026
  0
LINE
  8
_4-7_
  6
CONTINUOUS
 62
    7
 10
1093.1932003081961
 20
947.90371297261026
 11
1093.5066187456964
 21
947.30287156947293
  0
LINE
  8
_4-7_
  6
CONTINUOUS
 62
    7
 10
1093.5066187456964
 20
947.30287156947293
 11
1093.5096065581974
 21
947.30287156947293
  0
LINE
  8
_4-7_
  6
CONTINUOUS
 62
    7
 10
1093.5096091664996
 20
947.30287179058701
 11
1093.5096065581974
 21
947.30287156947293
  0
LINE
  8
_4-7_
  6
CONTINUOUS
 62
    7
 10
1093.5096091664996
 20
947.30287179058701
 11
1093.5096065581974
 21
947.30287156947293
  0
LINE
  8
_4-7_
  6
CONTINUOUS
 62
    7
 10
1093.5299760894459
 20
946.63291542953539
 11
1093.1932003081961
 21
946.63291542953539
  0
LINE
  8
_4-7_
  6
CONTINUOUS
 62
    7
 10
1093.1932003081961
 20
946.63291542953539
 11
1093.1932003081961
 21
943.0096447190524
  0
LINE
  8
_4-7_
  6
CONTINUOUS
 62
    7
 10
1093.1932003081961
 20
943.0096447190524
 11
1093.5096048001101
 21
942.40705011294858
  0
LINE
  8
_4-7_
  6
CONTINUOUS
 62
    7
 10
1093.5096065581974
 20
942.40703823915987
 11
1093.5118513271691
 21
942.70544536243528
  0
LINE
  8
_4-7_
  6
CONTINUOUS
 62
    7
 10
1093.5118513271691
 20
942.70544536243528
 11
1093.7122763319344
 21
942.71624876528585
  0
LINE
  8
_4-7_
  6
CONTINUOUS
 62
    7
 10
1093.8114401070384
 20
942.87085402834828
 11
1093.5299760894459
 21
943.38620490522226
  0
LINE
  8
_4-7_
  6
CONTINUOUS
 62
    7
 10
1093.5299760894459
 20
943.38620490522226
 11
1093.5299759943696
 21
943.68461207334485
  0
LINE
  8
_4-7_
  6
CONTINUOUS
 62
    7
 10
1093.5299759943696
 20
943.68461207334485
 11
1093.7474962456968
 21
943.69541543134824
  0
LINE
  8
_4-7_
  6
CONTINUOUS
 62
    7
 10
1093.8472398392714
 20
943.85002069441066
 11
1093.5299760894459
 21
944.36537157128578
  0
LINE
  8
_4-7_
  6
CONTINUOUS
 62
    7
 10
1093.5299760894459
 20
944.36537157128578
 11
1093.5299760894459
 21
944.66377879697825
  0
LINE
  8
_4-7_
  6
CONTINUOUS
 62
    7
 10
1093.5299760894459
 20
944.66377879697825
 11
1093.7474962456968
 21
944.67458209741062
  0
LINE
  8
_4-7_
  6
CONTINUOUS
 62
    7
 10
1093.8472398392714
 20
944.82918736047304
 11
1093.5299760894459
 21
945.34453823734816
  0
LINE
  8
_4-7_
  6
CONTINUOUS
 62
    7
 10
1093.5299760894459
 20
945.34453823734816
 11
1093.5299760894459
 21
945.64294546304063
  0
LINE
  8
_4-7_
  6
CONTINUOUS
 62
    7
 10
1093.5299760894459
 20
945.64294546304063
 11
1093.7474962456968
 21
945.653748763473
  0
LINE
  8
_4-7_
  6
CONTINUOUS
 62
    7
 10
1093.8472398392714
 20
945.80835402653543
 11
1093.5299759943696
 21
946.32370490341054
  0
LINE
  8
_4-7_
  6
CONTINUOUS
 62
    7
 10
1093.5299759943696
 20
946.32370490341054
 11
1093.5299760894459
 21
946.63291542953539
  0
LINE
  8
_4-7_
  6
CONTINUOUS
 62
    7
 10
1093.5096091664996
 20
947.30287179058701
 11
1093.5119124172779
 21
947.60127895870846
  0
LINE
  8
_4-7_
  6
CONTINUOUS
 62
    7
 10
1093.5119124172779
 20
947.60127895870846
 11
1093.710315464446
 21
947.61208209559777
  0
LINE
  8
_4-7_
  6
CONTINUOUS
 62
    7
 10
1093.8116230521468
 20
947.76668735866019
 11
1093.5299759943696
 21
948.28203823553531
  0
LINE
  8
_4-7_
  6
CONTINUOUS
 62
    7
 10
1093.5299759943696
 20
948.28203823553531
 11
1093.5299759943696
 21
948.58044540365677
  0
LINE
  8
_4-7_
  6
CONTINUOUS
 62
    7
 10
1093.5299759943696
 20
948.58044540365677
 11
1093.7474962456968
 21
948.59124876166015
  0
LINE
  8
_4-7_
  6
CONTINUOUS
 62
    7
 10
1093.8472398392714
 20
948.74585402472258
 11
1093.5299760894459
 21
949.26120490159769
  0
LINE
  8
_4-7_
  6
CONTINUOUS
 62
    7
 10
1093.5299760894459
 20
949.26120490159769
 11
1093.5299759943696
 21
949.55961206971915
  0
LINE
  8
_4-7_
  6
CONTINUOUS
 62
    7
 10
1093.5299759943696
 20
949.55961206971915
 11
1093.7480500535021
 21
949.57056016594743
  0
LINE
  8
_4-7_
  6
CONTINUOUS
 62
    7
 10
1093.8472398392714
 20
949.7250206907861
 11
1093.5299759943696
 21
950.24037156766008
  0
LINE
  8
_4-7_
  6
CONTINUOUS
 62
    7
 10
1093.5299759943696
 20
950.24037156766008
 11
1093.5299760928883
 21
950.54958209378492
  0
LINE
  8
_4-7_
  6
CONTINUOUS
 62
    7
 10
1093.5299760894459
 20
941.73708209922347
 11
1093.1932003081961
 21
941.73708209922347
  0
LINE
  8
_4-7_
  6
CONTINUOUS
 62
    7
 10
1093.1932003081961
 20
941.73708209922347
 11
1093.1932003081961
 21
939.70693101494953
  0
LINE
  8
_4-7_
  6
CONTINUOUS
 62
    7
 10
1093.1932003081961
 20
939.70693101494953
 11
1093.5093164019468
 21
937.51120490884796
  0
LINE
  8
_4-7_
  6
CONTINUOUS
 62
    7
 10
1093.5093164019468
 20
937.51120490884796
 11
1093.5097754754856
 21
937.80961183643649
  0
LINE
  8
_4-7_
  6
CONTINUOUS
 62
    7
 10
1093.5097754754856
 20
937.80961183643649
 11
1093.7027057769474
 21
937.8204154349728
  0
LINE
  8
_4-7_
  6
CONTINUOUS
 62
    7
 10
1093.5093164019468
 20
937.51120490884796
 11
1093.7802394085516
 21
936.99585403197284
  0
LINE
  8
_4-7_
  6
CONTINUOUS
 62
    7
 10
1093.79305362994
 20
937.97502069803522
 11
1093.5114271715265
 21
938.49037157491034
  0
LINE
  8
_4-7_
  6
CONTINUOUS
 62
    7
 10
1093.5114271715265
 20
938.49037157491034
 11
1093.5127302366909
 21
938.78877850249773
  0
LINE
  8
_4-7_
  6
CONTINUOUS
 62
    7
 10
1093.5127302366909
 20
938.78877850249773
 11
1093.7141845269462
 21
938.79958210103518
  0
LINE
  8
_4-7_
  6
CONTINUOUS
 62
    7
 10
1093.8070004618335
 20
938.95418736409761
 11
1093.517083049755
 21
939.46953800043866
  0
LINE
  8
_4-7_
  6
CONTINUOUS
 62
    7
 10
1093.517083049755
 20
939.46953800043866
 11
1093.5196223251905
 21
939.76794516856125
  0
LINE
  8
_4-7_
  6
CONTINUOUS
 62
    7
 10
1093.5196223251905
 20
939.76794516856125
 11
1093.7287806722334
 21
939.77874876709757
  0
LINE
  8
_4-7_
  6
CONTINUOUS
 62
    7
 10
1093.827064807338
 20
939.93335403015999
 11
1093.5269381672101
 21
940.44870466650218
  0
LINE
  8
_4-7_
  6
CONTINUOUS
 62
    7
 10
1093.5269381672101
 20
940.44870466650218
 11
1093.5299760894459
 21
940.74711213272758
  0
LINE
  8
_4-7_
  6
CONTINUOUS
 62
    7
 10
1093.5299760894459
 20
940.74711213272758
 11
1093.7474962456968
 21
940.75791543316109
  0
LINE
  8
_4-7_
  6
CONTINUOUS
 62
    7
 10
1093.8472398392714
 20
940.91252069622237
 11
1093.5299759943696
 21
941.42787157309749
  0
LINE
  8
_4-7_
  6
CONTINUOUS
 62
    7
 10
1093.5299759943696
 20
941.42787157309749
 11
1093.5299760894459
 21
941.73708209922347
  0
LINE
  8
_4-7_
  6
CONTINUOUS
 62
    7
 10
1093.6990495269465
 20
936.84124876891042
 11
1093.6150753081965
 21
936.84124876891042
  0
LINE
  8
_4-7_
  6
CONTINUOUS
 62
    7
 10
1093.6150753081965
 20
936.84124876891042
 11
1093.6150753081965
 21
936.35166543587866
  0
LINE
  8
_4-7_
  6
CONTINUOUS
 62
    7
 10
1093.6150753081965
 20
936.35166543587866
 11
1093.7088253081965
 21
936.35166543587866
  0
LINE
  8
_4-7_
  6
CONTINUOUS
 62
    7
 10
1093.7088253081965
 20
936.35166543587866
 11
1093.7088253081965
 21
935.34673122597292
  0
LINE
  8
_4-7_
  6
CONTINUOUS
 62
    7
 10
1093.7088253081965
 20
935.34673122597292
 11
1093.7128670649467
 21
935.34673122597292
  0
LINE
  8
_4-7_
  6
CONTINUOUS
 62
    7
 10
1093.744289058197
 20
935.14059087522264
 11
1093.7442891497831
 21
931.42156487971101
  0
LINE
  8
_4-7_
  6
CONTINUOUS
 62
    7
 10
1093.7442891497831
 20
931.42156487971101
 11
1094.0195624956964
 21
931.01442686461064
  0
LINE
  8
_4-7_
  6
CONTINUOUS
 62
    7
 10
1094.0195624956964
 20
931.01442686461064
 11
1094.6463253081965
 21
930.19322245722287
  0
LINE
  8
_4-7_
  6
CONTINUOUS
 62
    7
 10
1094.6463253081965
 20
930.19322245722287
 11
1094.7396868578808
 21
930.19322245722287
  0
LINE
  8
_4-7_
  6
CONTINUOUS
 62
    7
 10
1094.7396868578808
 20
930.19322245722287
 11
1094.0615030395584
 21
931.42156487971101
  0
LINE
  8
_4-7_
  6
CONTINUOUS
 62
    7
 10
1094.0615030395584
 20
931.42156487971101
 11
1094.0615029644464
 21
933.90374877072327
  0
LINE
  8
_4-7_
  6
CONTINUOUS
 62
    7
 10
1094.4261051519466
 20
933.90374877072327
 11
1094.4261049810511
 21
931.4215649751477
  0
LINE
  8
_4-7_
  6
CONTINUOUS
 62
    7
 10
1094.4261049810511
 20
931.4215649751477
 11
1095.1042889593218
 21
930.19322245722287
  0
LINE
  8
_4-7_
  6
CONTINUOUS
 62
    7
 10
1095.1042889593218
 20
930.19322245722287
 11
1095.4900753081965
 21
930.19322245722287
  0
LINE
  8
_4-7_
  6
CONTINUOUS
 62
    7
 10
1093.8045182769458
 20
950.54958209378503
 11
1093.8045182769458
 21
950.54958209378503
  0
LINE
  8
_4-7_
  6
CONTINUOUS
 62
    7
 10
1093.8045182769458
 20
950.54958209378503
 11
1093.8213673087587
 21
950.55249070923207
  0
LINE
  8
_4-7_
  6
CONTINUOUS
 62
    7
 10
1093.8213673087587
 20
950.55249070923207
 11
1093.8375009618919
 21
950.55857180931332
  0
LINE
  8
_4-7_
  6
CONTINUOUS
 62
    7
 10
1093.8375009618919
 20
950.55857180931332
 11
1093.8524290234591
 21
950.56764062287982
  0
LINE
  8
_4-7_
  6
CONTINUOUS
 62
    7
 10
1093.8524290234591
 20
950.56764062287982
 11
1093.8656979118632
 21
950.57942159862068
  0
LINE
  8
_4-7_
  6
CONTINUOUS
 62
    7
 10
1093.8656979118632
 20
950.57942159862068
 11
1093.8769044586447
 21
950.59355677754934
  0
LINE
  8
_4-7_
  6
CONTINUOUS
 62
    7
 10
1093.8769044586447
 20
950.59355677754934
 11
1093.8857081585506
 21
950.60961666940671
  0
LINE
  8
_4-7_
  6
CONTINUOUS
 62
    7
 10
1093.8857081585506
 20
950.60961666940671
 11
1093.8918415156138
 21
950.62711330250556
  0
LINE
  8
_4-7_
  6
CONTINUOUS
 62
    7
 10
1093.8918415156138
 20
950.62711330250556
 11
1093.895118170884
 21
950.64551505050281
  0
LINE
  8
_4-7_
  6
CONTINUOUS
 62
    7
 10
1093.895118170884
 20
950.64551505050281
 11
1093.8954385648483
 21
950.66426278559732
  0
LINE
  8
_4-7_
  6
CONTINUOUS
 62
    7
 10
1093.8954385648483
 20
950.66426278559732
 11
1093.8927929624986
 21
950.68278686734504
  0
LINE
  8
_4-7_
  6
CONTINUOUS
 62
    7
 10
1093.8927929624986
 20
950.68278686734504
 11
1093.8872617491234
 21
950.70052445089573
  0
LINE
  8
_4-7_
  6
CONTINUOUS
 62
    7
 10
1093.8872617491234
 20
950.70052445089573
 11
1093.8790129878423
 21
950.71693658874881
  0
LINE
  8
_4-7_
  6
CONTINUOUS
 62
    7
 10
1093.8790129878423
 20
950.71693658874881
 11
1093.8790127425189
 21
950.71693698976389
  0
LINE
  8
_4-7_
  6
CONTINUOUS
 62
    7
 10
1093.7474962456959
 20
949.57041542772322
 11
1093.7474962456959
 21
949.57041542772322
  0
LINE
  8
_4-7_
  6
CONTINUOUS
 62
    7
 10
1093.7474962456959
 20
949.57041542772322
 11
1093.7690732634053
 21
949.57823639663513
  0
LINE
  8
_4-7_
  6
CONTINUOUS
 62
    7
 10
1093.7690732634053
 20
949.57823639663513
 11
1093.789087187376
 21
949.59005784712156
  0
LINE
  8
_4-7_
  6
CONTINUOUS
 62
    7
 10
1093.789087187376
 20
949.59005784712156
 11
1093.8069299046556
 21
949.60552059039117
  0
LINE
  8
_4-7_
  6
CONTINUOUS
 62
    7
 10
1093.8069299046556
 20
949.60552059039117
 11
1093.8220592733087
 21
949.6241547988144
  0
LINE
  8
_4-7_
  6
CONTINUOUS
 62
    7
 10
1093.8220592733087
 20
949.6241547988144
 11
1093.8340155951244
 21
949.64539428139767
  0
LINE
  8
_4-7_
  6
CONTINUOUS
 62
    7
 10
1093.8340155951244
 20
949.64539428139767
 11
1093.8424355833145
 21
949.66859368721043
  0
LINE
  8
_4-7_
  6
CONTINUOUS
 62
    7
 10
1093.8424355833145
 20
949.66859368721043
 11
1093.8470634007986
 21
949.69304811404641
  0
LINE
  8
_4-7_
  6
CONTINUOUS
 62
    7
 10
1093.8470634007986
 20
949.69304811404641
 11
1093.8477584336842
 21
949.71801452652073
  0
LINE
  8
_4-7_
  6
CONTINUOUS
 62
    7
 10
1093.8477584336842
 20
949.71801452652073
 11
1093.8472398392712
 21
949.72502069078575
  0
LINE
  8
_4-7_
  6
CONTINUOUS
 62
    7
 10
1093.7474962456959
 20
948.5912487616597
 11
1093.7474962456959
 21
948.5912487616597
  0
LINE
  8
_4-7_
  6
CONTINUOUS
 62
    7
 10
1093.7474962456959
 20
948.5912487616597
 11
1093.7690732634053
 21
948.59906973057161
  0
LINE
  8
_4-7_
  6
CONTINUOUS
 62
    7
 10
1093.7690732634053
 20
948.59906973057161
 11
1093.789087187376
 21
948.61089118105804
  0
LINE
  8
_4-7_
  6
CONTINUOUS
 62
    7
 10
1093.789087187376
 20
948.61089118105804
 11
1093.8069299046556
 21
948.62635392432765
  0
LINE
  8
_4-7_
  6
CONTINUOUS
 62
    7
 10
1093.8069299046556
 20
948.62635392432765
 11
1093.8220592733087
 21
948.64498813275088
  0
LINE
  8
_4-7_
  6
CONTINUOUS
 62
    7
 10
1093.8220592733087
 20
948.64498813275088
 11
1093.8340155951244
 21
948.66622761533415
  0
LINE
  8
_4-7_
  6
CONTINUOUS
 62
    7
 10
1093.8340155951244
 20
948.66622761533415
 11
1093.8424355833145
 21
948.68942702114691
  0
LINE
  8
_4-7_
  6
CONTINUOUS
 62
    7
 10
1093.8424355833145
 20
948.68942702114691
 11
1093.8470634007986
 21
948.71388144798289
  0
LINE
  8
_4-7_
  6
CONTINUOUS
 62
    7
 10
1093.8470634007986
 20
948.71388144798289
 11
1093.8477584336842
 21
948.73884786045721
  0
LINE
  8
_4-7_
  6
CONTINUOUS
 62
    7
 10
1093.8477584336842
 20
948.73884786045721
 11
1093.8472398392712
 21
948.74585402472223
  0
LINE
  8
_4-7_
  6
CONTINUOUS
 62
    7
 10
1093.7118794585713
 20
947.61208209559732
 11
1093.7118794585713
 21
947.61208209559732
  0
LINE
  8
_4-7_
  6
CONTINUOUS
 62
    7
 10
1093.7118794585713
 20
947.61208209559732
 11
1093.7334564762807
 21
947.61990306450923
  0
LINE
  8
_4-7_
  6
CONTINUOUS
 62
    7
 10
1093.7334564762807
 20
947.61990306450923
 11
1093.7534704002514
 21
947.63172451499565
  0
LINE
  8
_4-7_
  6
CONTINUOUS
 62
    7
 10
1093.7534704002514
 20
947.63172451499565
 11
1093.771313117531
 21
947.64718725826526
  0
LINE
  8
_4-7_
  6
CONTINUOUS
 62
    7
 10
1093.771313117531
 20
947.64718725826526
 11
1093.7864424861841
 21
947.6658214666885
  0
LINE
  8
_4-7_
  6
CONTINUOUS
 62
    7
 10
1093.7864424861841
 20
947.6658214666885
 11
1093.7983988079998
 21
947.68706094927177
  0
LINE
  8
_4-7_
  6
CONTINUOUS
 62
    7
 10
1093.7983988079998
 20
947.68706094927177
 11
1093.8068187961899
 21
947.71026035508453
  0
LINE
  8
_4-7_
  6
CONTINUOUS
 62
    7
 10
1093.8068187961899
 20
947.71026035508453
 11
1093.811446613674
 21
947.7347147819205
  0
LINE
  8
_4-7_
  6
CONTINUOUS
 62
    7
 10
1093.811446613674
 20
947.7347147819205
 11
1093.8121416465597
 21
947.75968119439483
  0
LINE
  8
_4-7_
  6
CONTINUOUS
 62
    7
 10
1093.8121416465597
 20
947.75968119439483
 11
1093.8116230521466
 21
947.76668735865985
  0
LINE
  8
_4-7_
  6
CONTINUOUS
 62
    7
 10
1093.7474962456959
 20
945.65374876347255
 11
1093.7474962456959
 21
945.65374876347255
  0
LINE
  8
_4-7_
  6
CONTINUOUS
 62
    7
 10
1093.7474962456959
 20
945.65374876347255
 11
1093.7690732634053
 21
945.66156973238446
  0
LINE
  8
_4-7_
  6
CONTINUOUS
 62
    7
 10
1093.7690732634053
 20
945.66156973238446
 11
1093.789087187376
 21
945.67339118287089
  0
LINE
  8
_4-7_
  6
CONTINUOUS
 62
    7
 10
1093.789087187376
 20
945.67339118287089
 11
1093.8069299046556
 21
945.6888539261405
  0
LINE
  8
_4-7_
  6
CONTINUOUS
 62
    7
 10
1093.8069299046556
 20
945.6888539261405
 11
1093.8220592733087
 21
945.70748813456373
  0
LINE
  8
_4-7_
  6
CONTINUOUS
 62
    7
 10
1093.8220592733087
 20
945.70748813456373
 11
1093.8340155951244
 21
945.728727617147
  0
LINE
  8
_4-7_
  6
CONTINUOUS
 62
    7
 10
1093.8340155951244
 20
945.728727617147
 11
1093.8424355833145
 21
945.75192702295976
  0
LINE
  8
_4-7_
  6
CONTINUOUS
 62
    7
 10
1093.8424355833145
 20
945.75192702295976
 11
1093.8470634007986
 21
945.77638144979574
  0
LINE
  8
_4-7_
  6
CONTINUOUS
 62
    7
 10
1093.8470634007986
 20
945.77638144979574
 11
1093.8477584336842
 21
945.80134786227006
  0
LINE
  8
_4-7_
  6
CONTINUOUS
 62
    7
 10
1093.8477584336842
 20
945.80134786227006
 11
1093.8472398392712
 21
945.80835402653508
  0
LINE
  8
_4-7_
  6
CONTINUOUS
 62
    7
 10
1093.7474962456959
 20
944.67458209741017
 11
1093.7474962456959
 21
944.67458209741017
  0
LINE
  8
_4-7_
  6
CONTINUOUS
 62
    7
 10
1093.7474962456959
 20
944.67458209741017
 11
1093.7690732634053
 21
944.68240306632208
  0
LINE
  8
_4-7_
  6
CONTINUOUS
 62
    7
 10
1093.7690732634053
 20
944.68240306632208
 11
1093.789087187376
 21
944.6942245168085
  0
LINE
  8
_4-7_
  6
CONTINUOUS
 62
    7
 10
1093.789087187376
 20
944.6942245168085
 11
1093.8069299046556
 21
944.70968726007811
  0
LINE
  8
_4-7_
  6
CONTINUOUS
 62
    7
 10
1093.8069299046556
 20
944.70968726007811
 11
1093.8220592733087
 21
944.72832146850135
  0
LINE
  8
_4-7_
  6
CONTINUOUS
 62
    7
 10
1093.8220592733087
 20
944.72832146850135
 11
1093.8340155951244
 21
944.74956095108462
  0
LINE
  8
_4-7_
  6
CONTINUOUS
 62
    7
 10
1093.8340155951244
 20
944.74956095108462
 11
1093.8424355833145
 21
944.77276035689738
  0
LINE
  8
_4-7_
  6
CONTINUOUS
 62
    7
 10
1093.8424355833145
 20
944.77276035689738
 11
1093.8470634007986
 21
944.79721478373335
  0
LINE
  8
_4-7_
  6
CONTINUOUS
 62
    7
 10
1093.8470634007986
 20
944.79721478373335
 11
1093.8477584336842
 21
944.82218119620768
  0
LINE
  8
_4-7_
  6
CONTINUOUS
 62
    7
 10
1093.8477584336842
 20
944.82218119620768
 11
1093.8472398392712
 21
944.8291873604727
  0
LINE
  8
_4-7_
  6
CONTINUOUS
 62
    7
 10
1093.7474962456959
 20
943.69541543134778
 11
1093.7474962456959
 21
943.69541543134778
  0
LINE
  8
_4-7_
  6
CONTINUOUS
 62
    7
 10
1093.7474962456959
 20
943.69541543134778
 11
1093.7690732634053
 21
943.7032364002597
  0
LINE
  8
_4-7_
  6
CONTINUOUS
 62
    7
 10
1093.7690732634053
 20
943.7032364002597
 11
1093.789087187376
 21
943.71505785074612
  0
LINE
  8
_4-7_
  6
CONTINUOUS
 62
    7
 10
1093.789087187376
 20
943.71505785074612
 11
1093.8069299046556
 21
943.73052059401573
  0
LINE
  8
_4-7_
  6
CONTINUOUS
 62
    7
 10
1093.8069299046556
 20
943.73052059401573
 11
1093.8220592733087
 21
943.74915480243897
  0
LINE
  8
_4-7_
  6
CONTINUOUS
 62
    7
 10
1093.8220592733087
 20
943.74915480243897
 11
1093.8340155951244
 21
943.77039428502223
  0
LINE
  8
_4-7_
  6
CONTINUOUS
 62
    7
 10
1093.8340155951244
 20
943.77039428502223
 11
1093.8424355833145
 21
943.793593690835
  0
LINE
  8
_4-7_
  6
CONTINUOUS
 62
    7
 10
1093.8424355833145
 20
943.793593690835
 11
1093.8470634007986
 21
943.81804811767097
  0
LINE
  8
_4-7_
  6
CONTINUOUS
 62
    7
 10
1093.8470634007986
 20
943.81804811767097
 11
1093.8477584336842
 21
943.8430145301453
  0
LINE
  8
_4-7_
  6
CONTINUOUS
 62
    7
 10
1093.8477584336842
 20
943.8430145301453
 11
1093.8472398392712
 21
943.85002069441032
  0
LINE
  8
_4-7_
  6
CONTINUOUS
 62
    7
 10
1093.7116965134628
 20
942.7162487652854
 11
1093.7116965134628
 21
942.7162487652854
  0
LINE
  8
_4-7_
  6
CONTINUOUS
 62
    7
 10
1093.7116965134628
 20
942.7162487652854
 11
1093.7332735311722
 21
942.72406973419731
  0
LINE
  8
_4-7_
  6
CONTINUOUS
 62
    7
 10
1093.7332735311722
 20
942.72406973419731
 11
1093.753287455143
 21
942.73589118468374
  0
LINE
  8
_4-7_
  6
CONTINUOUS
 62
    7
 10
1093.753287455143
 20
942.73589118468374
 11
1093.7711301724225
 21
942.75135392795335
  0
LINE
  8
_4-7_
  6
CONTINUOUS
 62
    7
 10
1093.7711301724225
 20
942.75135392795335
 11
1093.7862595410757
 21
942.76998813637658
  0
LINE
  8
_4-7_
  6
CONTINUOUS
 62
    7
 10
1093.7862595410757
 20
942.76998813637658
 11
1093.7982158628913
 21
942.79122761895985
  0
LINE
  8
_4-7_
  6
CONTINUOUS
 62
    7
 10
1093.7982158628913
 20
942.79122761895985
 11
1093.8066358510814
 21
942.81442702477261
  0
LINE
  8
_4-7_
  6
CONTINUOUS
 62
    7
 10
1093.8066358510814
 20
942.81442702477261
 11
1093.8112636685655
 21
942.83888145160859
  0
LINE
  8
_4-7_
  6
CONTINUOUS
 62
    7
 10
1093.8112636685655
 20
942.83888145160859
 11
1093.8119587014512
 21
942.86384786408291
  0
LINE
  8
_4-7_
  6
CONTINUOUS
 62
    7
 10
1093.8119587014512
 20
942.86384786408291
 11
1093.8114401070382
 21
942.87085402834794
  0
LINE
  8
_4-7_
  6
CONTINUOUS
 62
    7
 10
1093.7474962456959
 20
940.75791543316063
 11
1093.7474962456959
 21
940.75791543316063
  0
LINE
  8
_4-7_
  6
CONTINUOUS
 62
    7
 10
1093.7474962456959
 20
940.75791543316063
 11
1093.7690732634053
 21
940.76573640207255
  0
LINE
  8
_4-7_
  6
CONTINUOUS
 62
    7
 10
1093.7690732634053
 20
940.76573640207255
 11
1093.789087187376
 21
940.77755785255897
  0
LINE
  8
_4-7_
  6
CONTINUOUS
 62
    7
 10
1093.789087187376
 20
940.77755785255897
 11
1093.8069299046556
 21
940.79302059582858
  0
LINE
  8
_4-7_
  6
CONTINUOUS
 62
    7
 10
1093.8069299046556
 20
940.79302059582858
 11
1093.8220592733087
 21
940.81165480425182
  0
LINE
  8
_4-7_
  6
CONTINUOUS
 62
    7
 10
1093.8220592733087
 20
940.81165480425182
 11
1093.8340155951244
 21
940.83289428683509
  0
LINE
  8
_4-7_
  6
CONTINUOUS
 62
    7
 10
1093.8340155951244
 20
940.83289428683509
 11
1093.8424355833145
 21
940.85609369264785
  0
LINE
  8
_4-7_
  6
CONTINUOUS
 62
    7
 10
1093.8424355833145
 20
940.85609369264785
 11
1093.8470634007986
 21
940.88054811948382
  0
LINE
  8
_4-7_
  6
CONTINUOUS
 62
    7
 10
1093.8470634007986
 20
940.88054811948382
 11
1093.8477584336842
 21
940.90551453195815
  0
LINE
  8
_4-7_
  6
CONTINUOUS
 62
    7
 10
1093.8477584336842
 20
940.90551453195815
 11
1093.8472398392712
 21
940.91252069622317
  0
LINE
  8
_4-7_
  6
CONTINUOUS
 62
    7
 10
1093.7273212137625
 20
939.77874876709711
 11
1093.7273212137625
 21
939.77874876709711
  0
LINE
  8
_4-7_
  6
CONTINUOUS
 62
    7
 10
1093.7273212137625
 20
939.77874876709711
 11
1093.7488982314719
 21
939.78656973600903
  0
LINE
  8
_4-7_
  6
CONTINUOUS
 62
    7
 10
1093.7488982314719
 20
939.78656973600903
 11
1093.7689121554426
 21
939.79839118649545
  0
LINE
  8
_4-7_
  6
CONTINUOUS
 62
    7
 10
1093.7689121554426
 20
939.79839118649545
 11
1093.7867548727222
 21
939.81385392976506
  0
LINE
  8
_4-7_
  6
CONTINUOUS
 62
    7
 10
1093.7867548727222
 20
939.81385392976506
 11
1093.8018842413753
 21
939.8324881381883
  0
LINE
  8
_4-7_
  6
CONTINUOUS
 62
    7
 10
1093.8018842413753
 20
939.8324881381883
 11
1093.813840563191
 21
939.85372762077156
  0
LINE
  8
_4-7_
  6
CONTINUOUS
 62
    7
 10
1093.813840563191
 20
939.85372762077156
 11
1093.8222605513811
 21
939.87692702658433
  0
LINE
  8
_4-7_
  6
CONTINUOUS
 62
    7
 10
1093.8222605513811
 20
939.87692702658433
 11
1093.8268883688652
 21
939.9013814534203
  0
LINE
  8
_4-7_
  6
CONTINUOUS
 62
    7
 10
1093.8268883688652
 20
939.9013814534203
 11
1093.8275834017509
 21
939.92634786589463
  0
LINE
  8
_4-7_
  6
CONTINUOUS
 62
    7
 10
1093.8275834017509
 20
939.92634786589463
 11
1093.8270648073378
 21
939.93335403015965
  0
LINE
  8
_4-7_
  6
CONTINUOUS
 62
    7
 10
1093.7072568682579
 20
938.79958210103473
 11
1093.7072568682579
 21
938.79958210103473
  0
LINE
  8
_4-7_
  6
CONTINUOUS
 62
    7
 10
1093.7072568682579
 20
938.79958210103473
 11
1093.7288338859673
 21
938.80740306994664
  0
LINE
  8
_4-7_
  6
CONTINUOUS
 62
    7
 10
1093.7288338859673
 20
938.80740306994664
 11
1093.7488478099381
 21
938.81922452043307
  0
LINE
  8
_4-7_
  6
CONTINUOUS
 62
    7
 10
1093.7488478099381
 20
938.81922452043307
 11
1093.7666905272176
 21
938.83468726370268
  0
LINE
  8
_4-7_
  6
CONTINUOUS
 62
    7
 10
1093.7666905272176
 20
938.83468726370268
 11
1093.7818198958707
 21
938.85332147212591
  0
LINE
  8
_4-7_
  6
CONTINUOUS
 62
    7
 10
1093.7818198958707
 20
938.85332147212591
 11
1093.7937762176864
 21
938.87456095470918
  0
LINE
  8
_4-7_
  6
CONTINUOUS
 62
    7
 10
1093.7937762176864
 20
938.87456095470918
 11
1093.8021962058765
 21
938.89776036052194
  0
LINE
  8
_4-7_
  6
CONTINUOUS
 62
    7
 10
1093.8021962058765
 20
938.89776036052194
 11
1093.8068240233606
 21
938.92221478735792
  0
LINE
  8
_4-7_
  6
CONTINUOUS
 62
    7
 10
1093.8068240233606
 20
938.92221478735792
 11
1093.8075190562463
 21
938.94718119983224
  0
LINE
  8
_4-7_
  6
CONTINUOUS
 62
    7
 10
1093.8075190562463
 20
938.94718119983224
 11
1093.8070004618332
 21
938.95418736409727
  0
LINE
  8
_4-7_
  6
CONTINUOUS
 62
    7
 10
1093.6933100363644
 20
937.82041543497348
 11
1093.6933100363644
 21
937.82041543497348
  0
LINE
  8
_4-7_
  6
CONTINUOUS
 62
    7
 10
1093.6933100363644
 20
937.82041543497348
 11
1093.7148870540739
 21
937.8282364038854
  0
LINE
  8
_4-7_
  6
CONTINUOUS
 62
    7
 10
1093.7148870540739
 20
937.8282364038854
 11
1093.7349009780446
 21
937.84005785437182
  0
LINE
  8
_4-7_
  6
CONTINUOUS
 62
    7
 10
1093.7349009780446
 20
937.84005785437182
 11
1093.7527436953242
 21
937.85552059764143
  0
LINE
  8
_4-7_
  6
CONTINUOUS
 62
    7
 10
1093.7527436953242
 20
937.85552059764143
 11
1093.7678730639773
 21
937.87415480606467
  0
LINE
  8
_4-7_
  6
CONTINUOUS
 62
    7
 10
1093.7678730639773
 20
937.87415480606467
 11
1093.7798293857929
 21
937.89539428864794
  0
LINE
  8
_4-7_
  6
CONTINUOUS
 62
    7
 10
1093.7798293857929
 20
937.89539428864794
 11
1093.788249373983
 21
937.9185936944607
  0
LINE
  8
_4-7_
  6
CONTINUOUS
 62
    7
 10
1093.788249373983
 20
937.9185936944607
 11
1093.7928771914671
 21
937.94304812129667
  0
LINE
  8
_4-7_
  6
CONTINUOUS
 62
    7
 10
1093.7928771914671
 20
937.94304812129667
 11
1093.7935722243528
 21
937.968014533771
  0
LINE
  8
_4-7_
  6
CONTINUOUS
 62
    7
 10
1093.7935722243528
 20
937.968014533771
 11
1093.7930536299398
 21
937.97502069803602
  0
LINE
  8
_4-7_
  6
CONTINUOUS
 62
    7
 10
1093.6990495269463
 20
936.8412487689103
 11
1093.6990495269463
 21
936.8412487689103
  0
LINE
  8
_4-7_
  6
CONTINUOUS
 62
    7
 10
1093.6990495269463
 20
936.8412487689103
 11
1093.716015736908
 21
936.84443365569075
  0
LINE
  8
_4-7_
  6
CONTINUOUS
 62
    7
 10
1093.716015736908
 20
936.84443365569075
 11
1093.7322211520529
 21
936.85080920057305
  0
LINE
  8
_4-7_
  6
CONTINUOUS
 62
    7
 10
1093.7322211520529
 20
936.85080920057305
 11
1093.7471733790419
 21
936.86018168585201
  0
LINE
  8
_4-7_
  6
CONTINUOUS
 62
    7
 10
1093.7471733790419
 20
936.86018168585201
 11
1093.7604181020245
 21
936.87226633330522
  0
LINE
  8
_4-7_
  6
CONTINUOUS
 62
    7
 10
1093.7604181020245
 20
936.87226633330522
 11
1093.7715528867943
 21
936.88669595703493
  0
LINE
  8
_4-7_
  6
CONTINUOUS
 62
    7
 10
1093.7715528867943
 20
936.88669595703493
 11
1093.7802394085513
 21
936.90303212022582
  0
LINE
  8
_4-7_
  6
CONTINUOUS
 62
    7
 10
1093.7802394085513
 20
936.90303212022582
 11
1093.7862137317272
 21
936.92077845682581
  0
LINE
  8
_4-7_
  6
CONTINUOUS
 62
    7
 10
1093.7862137317272
 20
936.92077845682581
 11
1093.7892943295353
 21
936.93939575337754
  0
LINE
  8
_4-7_
  6
CONTINUOUS
 62
    7
 10
1093.7892943295353
 20
936.93939575337754
 11
1093.7893875995703
 21
936.95831833274599
  0
LINE
  8
_4-7_
  6
CONTINUOUS
 62
    7
 10
1093.7893875995703
 20
936.95831833274599
 11
1093.7864907078692
 21
936.97697124193223
  0
LINE
  8
_4-7_
  6
CONTINUOUS
 62
    7
 10
1093.7864907078692
 20
936.97697124193223
 11
1093.7806916750208
 21
936.99478772172972
  0
LINE
  8
_4-7_
  6
CONTINUOUS
 62
    7
 10
1093.7806916750208
 20
936.99478772172972
 11
1093.7721667017031
 21
937.01122642741518
  0
LINE
  8
_4-7_
  6
CONTINUOUS
 62
    7
 10
1093.7721667017031
 20
937.01122642741518
 11
1093.7721145181051
 21
937.0113092325787
  0
LINE
  8
_4-7_
  6
CONTINUOUS
 62
    7
 10
1093.5096065581968
 20
941.7370820992229
 11
1093.5096065581968
 21
941.7370820992229
  0
LINE
  8
_4-7_
  6
CONTINUOUS
 62
    7
 10
1093.5096065581968
 20
941.7370820992229
 11
1093.5623102024429
 21
941.74474457212773
  0
LINE
  8
_4-7_
  6
CONTINUOUS
 62
    7
 10
1093.5623102024429
 20
941.74474457212773
 11
1093.6130029033543
 21
941.76235236381967
  0
LINE
  8
_4-7_
  6
CONTINUOUS
 62
    7
 10
1093.6130029033543
 20
941.76235236381967
 11
1093.6601443888655
 21
941.78937047045815
  0
LINE
  8
_4-7_
  6
CONTINUOUS
 62
    7
 10
1093.6601443888655
 20
941.78937047045815
 11
1093.7023022887943
 21
941.82497796054474
  0
LINE
  8
_4-7_
  6
CONTINUOUS
 62
    7
 10
1093.7023022887943
 20
941.82497796054474
 11
1093.738195656684
 21
941.86809291851137
  0
LINE
  8
_4-7_
  6
CONTINUOUS
 62
    7
 10
1093.738195656684
 20
941.86809291851137
 11
1093.766733890714
 21
941.91740531817754
  0
LINE
  8
_4-7_
  6
CONTINUOUS
 62
    7
 10
1093.766733890714
 20
941.91740531817754
 11
1093.7870498710849
 21
941.9714168272327
  0
LINE
  8
_4-7_
  6
CONTINUOUS
 62
    7
 10
1093.7870498710849
 20
941.9714168272327
 11
1093.7985263070132
 21
942.0284863333053
  0
LINE
  8
_4-7_
  6
CONTINUOUS
 62
    7
 10
1093.7985263070132
 20
942.0284863333053
 11
1093.8008144928003
 21
942.08687980833179
  0
LINE
  8
_4-7_
  6
CONTINUOUS
 62
    7
 10
1093.8008144928003
 20
942.08687980833179
 11
1093.7938449030794
 21
942.14482299612223
  0
LINE
  8
_4-7_
  6
CONTINUOUS
 62
    7
 10
1093.7938449030794
 20
942.14482299612223
 11
1093.7778293053073
 21
942.20055532223603
  0
LINE
  8
_4-7_
  6
CONTINUOUS
 62
    7
 10
1093.7778293053073
 20
942.20055532223603
 11
1093.7532543253176
 21
942.25238338814631
  0
LINE
  8
_4-7_
  6
CONTINUOUS
 62
    7
 10
1093.7532543253176
 20
942.25238338814631
 11
1093.7208666614424
 21
942.29873242429665
  0
LINE
  8
_4-7_
  6
CONTINUOUS
 62
    7
 10
1093.7208666614424
 20
942.29873242429665
 11
1093.6816503964592
 21
942.3381941386773
  0
LINE
  8
_4-7_
  6
CONTINUOUS
 62
    7
 10
1093.6816503964592
 20
942.3381941386773
 11
1093.6367970967351
 21
942.36956950706542
  0
LINE
  8
_4-7_
  6
CONTINUOUS
 62
    7
 10
1093.6367970967351
 20
942.36956950706542
 11
1093.5876696070854
 21
942.39190520476916
  0
LINE
  8
_4-7_
  6
CONTINUOUS
 62
    7
 10
1093.5876696070854
 20
942.39190520476916
 11
1093.5357606414236
 21
942.40452257291633
  0
LINE
  8
_4-7_
  6
CONTINUOUS
 62
    7
 10
1093.5357606414236
 20
942.40452257291633
 11
1093.5096065581968
 21
942.40703823916044
  0
LINE
  8
_4-7_
  6
CONTINUOUS
 62
    7
 10
1093.5096065581968
 20
946.63291542953596
 11
1093.5096065581968
 21
946.63291542953596
  0
LINE
  8
_4-7_
  6
CONTINUOUS
 62
    7
 10
1093.5096065581968
 20
946.63291542953596
 11
1093.5623102024429
 21
946.64057790244078
  0
LINE
  8
_4-7_
  6
CONTINUOUS
 62
    7
 10
1093.5623102024429
 20
946.64057790244078
 11
1093.6130029033543
 21
946.65818569413273
  0
LINE
  8
_4-7_
  6
CONTINUOUS
 62
    7
 10
1093.6130029033543
 20
946.65818569413273
 11
1093.6601443888655
 21
946.68520380077121
  0
LINE
  8
_4-7_
  6
CONTINUOUS
 62
    7
 10
1093.6601443888655
 20
946.68520380077121
 11
1093.7023022887943
 21
946.7208112908578
  0
LINE
  8
_4-7_
  6
CONTINUOUS
 62
    7
 10
1093.7023022887943
 20
946.7208112908578
 11
1093.738195656684
 21
946.76392624882442
  0
LINE
  8
_4-7_
  6
CONTINUOUS
 62
    7
 10
1093.738195656684
 20
946.76392624882442
 11
1093.766733890714
 21
946.8132386484906
  0
LINE
  8
_4-7_
  6
CONTINUOUS
 62
    7
 10
1093.766733890714
 20
946.8132386484906
 11
1093.7870498710849
 21
946.86725015754575
  0
LINE
  8
_4-7_
  6
CONTINUOUS
 62
    7
 10
1093.7870498710849
 20
946.86725015754575
 11
1093.7985263070132
 21
946.92431966361835
  0
LINE
  8
_4-7_
  6
CONTINUOUS
 62
    7
 10
1093.7985263070132
 20
946.92431966361835
 11
1093.8008144928003
 21
946.98271313864484
  0
LINE
  8
_4-7_
  6
CONTINUOUS
 62
    7
 10
1093.8008144928003
 20
946.98271313864484
 11
1093.7938449030794
 21
947.04065632643528
  0
LINE
  8
_4-7_
  6
CONTINUOUS
 62
    7
 10
1093.7938449030794
 20
947.04065632643528
 11
1093.7778293053073
 21
947.09638865254908
  0
LINE
  8
_4-7_
  6
CONTINUOUS
 62
    7
 10
1093.7778293053073
 20
947.09638865254908
 11
1093.7532543253176
 21
947.14821671845937
  0
LINE
  8
_4-7_
  6
CONTINUOUS
 62
    7
 10
1093.7532543253176
 20
947.14821671845937
 11
1093.7208666614424
 21
947.1945657546097
  0
LINE
  8
_4-7_
  6
CONTINUOUS
 62
    7
 10
1093.7208666614424
 20
947.1945657546097
 11
1093.6816503964592
 21
947.23402746899035
  0
LINE
  8
_4-7_
  6
CONTINUOUS
 62
    7
 10
1093.6816503964592
 20
947.23402746899035
 11
1093.6367970967351
 21
947.26540283737847
  0
LINE
  8
_4-7_
  6
CONTINUOUS
 62
    7
 10
1093.6367970967351
 20
947.26540283737847
 11
1093.5876696070854
 21
947.28773853508221
  0
LINE
  8
_4-7_
  6
CONTINUOUS
 62
    7
 10
1093.5876696070854
 20
947.28773853508221
 11
1093.5357606414236
 21
947.30035590322939
  0
LINE
  8
_4-7_
  6
CONTINUOUS
 62
    7
 10
1093.5357606414236
 20
947.30035590322939
 11
1093.5096065581968
 21
947.3028715694735
  0
LINE
  8
_4-7_
  6
CONTINUOUS
 62
    7
 10
1093.7442891481276
 20
935.14059087522253
 11
1093.7442891481276
 21
935.14059087522253
  0
LINE
  8
_4-7_
  6
CONTINUOUS
 62
    7
 10
1093.7442891481276
 20
935.14059087522253
 11
1093.7409116953611
 21
935.22762563891956
  0
LINE
  8
_4-7_
  6
CONTINUOUS
 62
    7
 10
1093.7409116953611
 20
935.22762563891956
 11
1093.723838765349
 21
935.31269335459638
  0
LINE
  8
_4-7_
  6
CONTINUOUS
 62
    7
 10
1093.723838765349
 20
935.31269335459638
 11
1093.7128670649474
 21
935.34673122597258
  0
LINE
  8
_4-7_
  6
CONTINUOUS
 62
    7
 10
1094.4261051519461
 20
933.89101121425222
 11
1094.4261051519461
 21
933.89101121425222
  0
LINE
  8
_4-7_
  6
CONTINUOUS
 62
    7
 10
1094.4261051519461
 20
933.89101121425222
 11
1094.4243415114256
 21
933.92591133584222
  0
LINE
  8
_4-7_
  6
CONTINUOUS
 62
    7
 10
1094.4243415114256
 20
933.92591133584222
 11
1094.4170923317449
 21
933.9599445470019
  0
LINE
  8
_4-7_
  6
CONTINUOUS
 62
    7
 10
1094.4170923317449
 20
933.9599445470019
 11
1094.4045778755608
 21
933.99207676583194
  0
LINE
  8
_4-7_
  6
CONTINUOUS
 62
    7
 10
1094.4045778755608
 20
933.99207676583194
 11
1094.3871783882914
 21
934.02133167112277
  0
LINE
  8
_4-7_
  6
CONTINUOUS
 62
    7
 10
1094.3871783882914
 20
934.02133167112277
 11
1094.3654225445532
 21
934.04682036738086
  0
LINE
  8
_4-7_
  6
CONTINUOUS
 62
    7
 10
1094.3654225445532
 20
934.04682036738086
 11
1094.3399713846486
 21
934.06776839346821
  0
LINE
  8
_4-7_
  6
CONTINUOUS
 62
    7
 10
1094.3399713846486
 20
934.06776839346821
 11
1094.3115982291931
 21
934.0835392542125
  0
LINE
  8
_4-7_
  6
CONTINUOUS
 62
    7
 10
1094.3115982291931
 20
934.0835392542125
 11
1094.2811651821571
 21
934.09365375999039
  0
LINE
  8
_4-7_
  6
CONTINUOUS
 62
    7
 10
1094.2811651821571
 20
934.09365375999039
 11
1094.2495969362753
 21
934.09780458666205
  0
LINE
  8
_4-7_
  6
CONTINUOUS
 62
    7
 10
1094.2495969362753
 20
934.09780458666205
 11
1094.2178526767243
 21
934.09586561345941
  0
LINE
  8
_4-7_
  6
CONTINUOUS
 62
    7
 10
1094.2178526767243
 20
934.09586561345941
 11
1094.1868969367674
 21
934.08789575510218
  0
LINE
  8
_4-7_
  6
CONTINUOUS
 62
    7
 10
1094.1868969367674
 20
934.08789575510218
 11
1094.1576702908987
 21
934.07413717170346
  0
LINE
  8
_4-7_
  6
CONTINUOUS
 62
    7
 10
1094.1576702908987
 20
934.07413717170346
 11
1094.1310607759635
 21
934.05500791085774
  0
LINE
  8
_4-7_
  6
CONTINUOUS
 62
    7
 10
1094.1310607759635
 20
934.05500791085774
 11
1094.1078769086082
 21
934.03108920547595
  0
LINE
  8
_4-7_
  6
CONTINUOUS
 62
    7
 10
1094.1078769086082
 20
934.03108920547595
 11
1094.0888231189106
 21
934.00310781331757
  0
LINE
  8
_4-7_
  6
CONTINUOUS
 62
    7
 10
1094.0888231189106
 20
934.00310781331757
 11
1094.0744783466289
 21
933.9719139348241
  0
LINE
  8
_4-7_
  6
CONTINUOUS
 62
    7
 10
1094.0744783466289
 20
933.9719139348241
 11
1094.0652784504102
 21
933.93845538020878
  0
LINE
  8
_4-7_
  6
CONTINUOUS
 62
    7
 10
1094.0652784504102
 20
933.93845538020878
 11
1094.0615029644459
 21
933.9037487707227
  0
LINE
  8
_4-7_
  6
CONTINUOUS
 62
    7
 10
1094.0615029644459
 20
933.9037487707227
 11
1094.0615029644459
 21
933.9037487707227
  0
LINE
  8
_4-7_
  6
CONTINUOUS
 62
    7
 10
1003.6150753081967
 20
957.00854420602832
 11
1003.6150753081967
 21
959.56822243909778
  0
LINE
  8
_4-7_
  6
CONTINUOUS
 62
    7
 10
1003.6150753081967
 20
959.56822243909778
 11
1001.7400753081967
 21
959.56822243909778
  0
LINE
  8
_4-7_
  6
CONTINUOUS
 62
    7
 10
1003.6150753081967
 20
957.00854420602832
 11
1004.0838253081967
 21
956.49319363090081
  0
LINE
  8
_4-7_
  6
CONTINUOUS
 62
    7
 10
1004.0838253081967
 20
956.49319363090081
 11
1004.0838253081967
 21
955.18156505145407
  0
LINE
  8
_4-7_
  6
CONTINUOUS
 62
    7
 10
1004.0838253081967
 20
955.18156505145407
 11
1003.7411882769464
 21
952.60806923067344
  0
LINE
  8
_4-7_
  6
CONTINUOUS
 62
    7
 10
1003.7411882769464
 20
952.60806923067344
 11
1003.5899859331965
 21
952.35331016284727
  0
LINE
  8
_4-7_
  6
CONTINUOUS
 62
    7
 10
1003.5899859331965
 20
952.35331016284727
 11
1003.6150753081967
 21
952.35331016284727
  0
LINE
  8
_4-7_
  6
CONTINUOUS
 62
    7
 10
1003.6150753081967
 20
952.35331016284727
 11
1003.6150753081967
 21
951.2195382337236
  0
LINE
  8
_4-7_
  6
CONTINUOUS
 62
    7
 10
1003.6150753081967
 20
951.2195382337236
 11
1003.3444424578414
 21
950.70418735684848
  0
LINE
  8
_4-7_
  6
CONTINUOUS
 62
    7
 10
1003.4256323394465
 20
950.54958209378492
 11
1004.0369503081962
 21
950.54958209378492
  0
LINE
  8
_4-7_
  6
CONTINUOUS
 62
    7
 10
1004.0369503081962
 20
950.54958209378492
 11
1004.0369503081962
 21
947.90371297261026
  0
LINE
  8
_4-7_
  6
CONTINUOUS
 62
    7
 10
1004.0369503081962
 20
947.90371297261026
 11
1003.7235318706968
 21
947.30287156947293
  0
LINE
  8
_4-7_
  6
CONTINUOUS
 62
    7
 10
1003.7235318706968
 20
947.30287156947293
 11
1003.720544058196
 21
947.30287156947293
  0
LINE
  8
_4-7_
  6
CONTINUOUS
 62
    7
 10
1003.7205414498936
 20
947.30287179058701
 11
1003.720544058196
 21
947.30287156947293
  0
LINE
  8
_4-7_
  6
CONTINUOUS
 62
    7
 10
1003.7205414498936
 20
947.30287179058701
 11
1003.720544058196
 21
947.30287156947293
  0
LINE
  8
_4-7_
  6
CONTINUOUS
 62
    7
 10
1003.7001745269464
 20
946.63291542953539
 11
1004.0369503081962
 21
946.63291542953539
  0
LINE
  8
_4-7_
  6
CONTINUOUS
 62
    7
 10
1004.0369503081962
 20
946.63291542953539
 11
1004.0369503081962
 21
943.0096447190524
  0
LINE
  8
_4-7_
  6
CONTINUOUS
 62
    7
 10
1004.0369503081962
 20
943.0096447190524
 11
1003.7205458162833
 21
942.40705011294858
  0
LINE
  8
_4-7_
  6
CONTINUOUS
 62
    7
 10
1003.720544058196
 20
942.40703823915987
 11
1003.718299289223
 21
942.70544536243528
  0
LINE
  8
_4-7_
  6
CONTINUOUS
 62
    7
 10
1003.718299289223
 20
942.70544536243528
 11
1003.517874284459
 21
942.71624876528585
  0
LINE
  8
_4-7_
  6
CONTINUOUS
 62
    7
 10
1003.4187105093537
 20
942.87085402834828
 11
1003.7001745269464
 21
943.38620490522226
  0
LINE
  8
_4-7_
  6
CONTINUOUS
 62
    7
 10
1003.7001745269464
 20
943.38620490522226
 11
1003.7001746220238
 21
943.68461207334485
  0
LINE
  8
_4-7_
  6
CONTINUOUS
 62
    7
 10
1003.7001746220238
 20
943.68461207334485
 11
1003.4826543706964
 21
943.69541543134824
  0
LINE
  8
_4-7_
  6
CONTINUOUS
 62
    7
 10
1003.3829107771209
 20
943.85002069441066
 11
1003.7001745269464
 21
944.36537157128578
  0
LINE
  8
_4-7_
  6
CONTINUOUS
 62
    7
 10
1003.7001745269464
 20
944.36537157128578
 11
1003.7001745269464
 21
944.66377879697825
  0
LINE
  8
_4-7_
  6
CONTINUOUS
 62
    7
 10
1003.7001745269464
 20
944.66377879697825
 11
1003.4826543706964
 21
944.67458209741062
  0
LINE
  8
_4-7_
  6
CONTINUOUS
 62
    7
 10
1003.3829107771209
 20
944.82918736047304
 11
1003.7001745269464
 21
945.34453823734816
  0
LINE
  8
_4-7_
  6
CONTINUOUS
 62
    7
 10
1003.7001745269464
 20
945.34453823734816
 11
1003.7001745269464
 21
945.64294546304063
  0
LINE
  8
_4-7_
  6
CONTINUOUS
 62
    7
 10
1003.7001745269464
 20
945.64294546304063
 11
1003.4826543706964
 21
945.653748763473
  0
LINE
  8
_4-7_
  6
CONTINUOUS
 62
    7
 10
1003.3829107771209
 20
945.80835402653543
 11
1003.7001746220238
 21
946.32370490341054
  0
LINE
  8
_4-7_
  6
CONTINUOUS
 62
    7
 10
1003.7001746220238
 20
946.32370490341054
 11
1003.7001745269464
 21
946.63291542953539
  0
LINE
  8
_4-7_
  6
CONTINUOUS
 62
    7
 10
1003.7205414498936
 20
947.30287179058701
 11
1003.7182381991153
 21
947.60127895870846
  0
LINE
  8
_4-7_
  6
CONTINUOUS
 62
    7
 10
1003.7182381991153
 20
947.60127895870846
 11
1003.519835151946
 21
947.61208209559777
  0
LINE
  8
_4-7_
  6
CONTINUOUS
 62
    7
 10
1003.4185275642466
 20
947.76668735866019
 11
1003.7001746220238
 21
948.28203823553531
  0
LINE
  8
_4-7_
  6
CONTINUOUS
 62
    7
 10
1003.7001746220238
 20
948.28203823553531
 11
1003.7001746220238
 21
948.58044540365677
  0
LINE
  8
_4-7_
  6
CONTINUOUS
 62
    7
 10
1003.7001746220238
 20
948.58044540365677
 11
1003.4826543706964
 21
948.59124876166015
  0
LINE
  8
_4-7_
  6
CONTINUOUS
 62
    7
 10
1003.3829107771209
 20
948.74585402472258
 11
1003.7001745269464
 21
949.26120490159769
  0
LINE
  8
_4-7_
  6
CONTINUOUS
 62
    7
 10
1003.7001745269464
 20
949.26120490159769
 11
1003.7001746220238
 21
949.55961206971915
  0
LINE
  8
_4-7_
  6
CONTINUOUS
 62
    7
 10
1003.7001746220238
 20
949.55961206971915
 11
1003.4821005628913
 21
949.57056016594743
  0
LINE
  8
_4-7_
  6
CONTINUOUS
 62
    7
 10
1003.3829107771209
 20
949.7250206907861
 11
1003.7001746220238
 21
950.24037156766008
  0
LINE
  8
_4-7_
  6
CONTINUOUS
 62
    7
 10
1003.7001746220238
 20
950.24037156766008
 11
1003.7001745235051
 21
950.54958209378492
  0
LINE
  8
_4-7_
  6
CONTINUOUS
 62
    7
 10
1003.7001745269464
 20
941.73708209922347
 11
1004.0369503081962
 21
941.73708209922347
  0
LINE
  8
_4-7_
  6
CONTINUOUS
 62
    7
 10
1004.0369503081962
 20
941.73708209922347
 11
1004.0369503081962
 21
939.70693101494953
  0
LINE
  8
_4-7_
  6
CONTINUOUS
 62
    7
 10
1004.0369503081962
 20
939.70693101494953
 11
1003.7208342144464
 21
937.51120490884796
  0
LINE
  8
_4-7_
  6
CONTINUOUS
 62
    7
 10
1003.7208342144464
 20
937.51120490884796
 11
1003.7203751409066
 21
937.80961183643649
  0
LINE
  8
_4-7_
  6
CONTINUOUS
 62
    7
 10
1003.7203751409066
 20
937.80961183643649
 11
1003.527444839446
 21
937.8204154349728
  0
LINE
  8
_4-7_
  6
CONTINUOUS
 62
    7
 10
1003.7208342144464
 20
937.51120490884796
 11
1003.4499112078419
 21
936.99585403197284
  0
LINE
  8
_4-7_
  6
CONTINUOUS
 62
    7
 10
1003.4370969864534
 20
937.97502069803522
 11
1003.7187234448669
 21
938.49037157491034
  0
LINE
  8
_4-7_
  6
CONTINUOUS
 62
    7
 10
1003.7187234448669
 20
938.49037157491034
 11
1003.7174203797025
 21
938.78877850249773
  0
LINE
  8
_4-7_
  6
CONTINUOUS
 62
    7
 10
1003.7174203797025
 20
938.78877850249773
 11
1003.5159660894459
 21
938.79958210103518
  0
LINE
  8
_4-7_
  6
CONTINUOUS
 62
    7
 10
1003.4231501545599
 20
938.95418736409761
 11
1003.7130675666373
 21
939.46953800043866
  0
LINE
  8
_4-7_
  6
CONTINUOUS
 62
    7
 10
1003.7130675666373
 20
939.46953800043866
 11
1003.7105282912029
 21
939.76794516856125
  0
LINE
  8
_4-7_
  6
CONTINUOUS
 62
    7
 10
1003.7105282912029
 20
939.76794516856125
 11
1003.50136994416
 21
939.77874876709757
  0
LINE
  8
_4-7_
  6
CONTINUOUS
 62
    7
 10
1003.4030858090551
 20
939.93335403015999
 11
1003.7032124491833
 21
940.44870466650218
  0
LINE
  8
_4-7_
  6
CONTINUOUS
 62
    7
 10
1003.7032124491833
 20
940.44870466650218
 11
1003.7001745269464
 21
940.74711213272758
  0
LINE
  8
_4-7_
  6
CONTINUOUS
 62
    7
 10
1003.7001745269464
 20
940.74711213272758
 11
1003.4826543706964
 21
940.75791543316109
  0
LINE
  8
_4-7_
  6
CONTINUOUS
 62
    7
 10
1003.3829107771209
 20
940.91252069622237
 11
1003.7001746220238
 21
941.42787157309749
  0
LINE
  8
_4-7_
  6
CONTINUOUS
 62
    7
 10
1003.7001746220238
 20
941.42787157309749
 11
1003.7001745269464
 21
941.73708209922347
  0
LINE
  8
_4-7_
  6
CONTINUOUS
 62
    7
 10
1003.5311010894469
 20
936.84124876891042
 11
1003.6150753081967
 21
936.84124876891042
  0
LINE
  8
_4-7_
  6
CONTINUOUS
 62
    7
 10
1003.6150753081967
 20
936.84124876891042
 11
1003.6150753081967
 21
936.35166543587866
  0
LINE
  8
_4-7_
  6
CONTINUOUS
 62
    7
 10
1003.6150753081967
 20
936.35166543587866
 11
1003.5213253081969
 21
936.35166543587866
  0
LINE
  8
_4-7_
  6
CONTINUOUS
 62
    7
 10
1003.5213253081969
 20
936.35166543587866
 11
1003.5213253081969
 21
935.34673122597292
  0
LINE
  8
_4-7_
  6
CONTINUOUS
 62
    7
 10
1003.5213253081969
 20
935.34673122597292
 11
1003.5172835514453
 21
935.34673122597292
  0
LINE
  8
_4-7_
  6
CONTINUOUS
 62
    7
 10
1003.4858615581965
 20
935.14059087522264
 11
1003.4858614666103
 21
931.42156487971101
  0
LINE
  8
_4-7_
  6
CONTINUOUS
 62
    7
 10
1003.4858614666103
 20
931.42156487971101
 11
1003.2105881206968
 21
931.01442686461064
  0
LINE
  8
_4-7_
  6
CONTINUOUS
 62
    7
 10
1003.2105881206968
 20
931.01442686461064
 11
1002.5838253081969
 21
930.19322245722287
  0
LINE
  8
_4-7_
  6
CONTINUOUS
 62
    7
 10
1002.5838253081969
 20
930.19322245722287
 11
1002.4904637585126
 21
930.19322245722287
  0
LINE
  8
_4-7_
  6
CONTINUOUS
 62
    7
 10
1002.4904637585126
 20
930.19322245722287
 11
1003.1686475768339
 21
931.42156487971101
  0
LINE
  8
_4-7_
  6
CONTINUOUS
 62
    7
 10
1003.1686475768339
 20
931.42156487971101
 11
1003.1686476519457
 21
933.90374877072327
  0
LINE
  8
_4-7_
  6
CONTINUOUS
 62
    7
 10
1002.8040454644469
 20
933.90374877072327
 11
1002.8040456353409
 21
931.4215649751477
  0
LINE
  8
_4-7_
  6
CONTINUOUS
 62
    7
 10
1002.8040456353409
 20
931.4215649751477
 11
1002.1258616570714
 21
930.19322245722287
  0
LINE
  8
_4-7_
  6
CONTINUOUS
 62
    7
 10
1002.1258616570714
 20
930.19322245722287
 11
1001.7400753081967
 21
930.19322245722287
  0
LINE
  8
_4-7_
  6
CONTINUOUS
 62
    7
 10
1003.3511378738733
 20
950.71693698976389
 11
1003.3511378738733
 21
950.71693698976389
  0
LINE
  8
_4-7_
  6
CONTINUOUS
 62
    7
 10
1003.3511378738733
 20
950.71693698976389
 11
1003.3428890455266
 21
950.70052489265356
  0
LINE
  8
_4-7_
  6
CONTINUOUS
 62
    7
 10
1003.3428890455266
 20
950.70052489265356
 11
1003.3373577596694
 21
950.68278733642296
  0
LINE
  8
_4-7_
  6
CONTINUOUS
 62
    7
 10
1003.3373577596694
 20
950.68278733642296
 11
1003.3347120816237
 21
950.66426326774263
  0
LINE
  8
_4-7_
  6
CONTINUOUS
 62
    7
 10
1003.3347120816237
 20
950.66426326774263
 11
1003.3350323989782
 21
950.64551553106583
  0
LINE
  8
_4-7_
  6
CONTINUOUS
 62
    7
 10
1003.3350323989782
 20
950.64551553106583
 11
1003.3383089790522
 21
950.62711376688469
  0
LINE
  8
_4-7_
  6
CONTINUOUS
 62
    7
 10
1003.3383089790522
 20
950.62711376688469
 11
1003.3444422646179
 21
950.60961710349193
  0
LINE
  8
_4-7_
  6
CONTINUOUS
 62
    7
 10
1003.3444422646179
 20
950.60961710349193
 11
1003.3532458988972
 21
950.59355716815116
  0
LINE
  8
_4-7_
  6
CONTINUOUS
 62
    7
 10
1003.3532458988972
 20
950.59355716815116
 11
1003.3644523879174
 21
950.57942193387089
  0
LINE
  8
_4-7_
  6
CONTINUOUS
 62
    7
 10
1003.3644523879174
 20
950.57942193387089
 11
1003.3777212281802
 21
950.56764089259207
  0
LINE
  8
_4-7_
  6
CONTINUOUS
 62
    7
 10
1003.3777212281802
 20
950.56764089259207
 11
1003.3926492526888
 21
950.55857200529249
  0
LINE
  8
_4-7_
  6
CONTINUOUS
 62
    7
 10
1003.3926492526888
 20
950.55857200529249
 11
1003.4087828809722
 21
950.55249082552348
  0
LINE
  8
_4-7_
  6
CONTINUOUS
 62
    7
 10
1003.4087828809722
 20
950.55249082552348
 11
1003.4256319008992
 21
950.54958212685517
  0
LINE
  8
_4-7_
  6
CONTINUOUS
 62
    7
 10
1003.4256319008992
 20
950.54958212685517
 11
1003.4256323394465
 21
950.54958209378503
  0
LINE
  8
_4-7_
  6
CONTINUOUS
 62
    7
 10
1003.382910777121
 20
949.72502069078575
 11
1003.382910777121
 21
949.72502069078575
  0
LINE
  8
_4-7_
  6
CONTINUOUS
 62
    7
 10
1003.382910777121
 20
949.72502069078575
 11
1003.3824913361291
 21
949.70004684454307
  0
LINE
  8
_4-7_
  6
CONTINUOUS
 62
    7
 10
1003.3824913361291
 20
949.70004684454307
 11
1003.3860227852316
 21
949.67537233105418
  0
LINE
  8
_4-7_
  6
CONTINUOUS
 62
    7
 10
1003.3860227852316
 20
949.67537233105418
 11
1003.3933978231346
 21
949.65174687292551
  0
LINE
  8
_4-7_
  6
CONTINUOUS
 62
    7
 10
1003.3933978231346
 20
949.65174687292551
 11
1003.4043923630433
 21
949.62988831774726
  0
LINE
  8
_4-7_
  6
CONTINUOUS
 62
    7
 10
1003.4043923630433
 20
949.62988831774726
 11
1003.4186723414261
 21
949.61046082665757
  0
LINE
  8
_4-7_
  6
CONTINUOUS
 62
    7
 10
1003.4186723414261
 20
949.61046082665757
 11
1003.435803868366
 21
949.59405469414241
  0
LINE
  8
_4-7_
  6
CONTINUOUS
 62
    7
 10
1003.435803868366
 20
949.59405469414241
 11
1003.4552664110856
 21
949.58116841223625
  0
LINE
  8
_4-7_
  6
CONTINUOUS
 62
    7
 10
1003.4552664110856
 20
949.58116841223625
 11
1003.4764686100732
 21
949.57219352409425
  0
LINE
  8
_4-7_
  6
CONTINUOUS
 62
    7
 10
1003.4764686100732
 20
949.57219352409425
 11
1003.4826543706964
 21
949.57041542772322
  0
LINE
  8
_4-7_
  6
CONTINUOUS
 62
    7
 10
1003.382910777121
 20
948.74585402472223
 11
1003.382910777121
 21
948.74585402472223
  0
LINE
  8
_4-7_
  6
CONTINUOUS
 62
    7
 10
1003.382910777121
 20
948.74585402472223
 11
1003.3824913361291
 21
948.72088017847955
  0
LINE
  8
_4-7_
  6
CONTINUOUS
 62
    7
 10
1003.3824913361291
 20
948.72088017847955
 11
1003.3860227852316
 21
948.69620566499066
  0
LINE
  8
_4-7_
  6
CONTINUOUS
 62
    7
 10
1003.3860227852316
 20
948.69620566499066
 11
1003.3933978231346
 21
948.67258020686199
  0
LINE
  8
_4-7_
  6
CONTINUOUS
 62
    7
 10
1003.3933978231346
 20
948.67258020686199
 11
1003.4043923630433
 21
948.65072165168374
  0
LINE
  8
_4-7_
  6
CONTINUOUS
 62
    7
 10
1003.4043923630433
 20
948.65072165168374
 11
1003.4186723414261
 21
948.63129416059405
  0
LINE
  8
_4-7_
  6
CONTINUOUS
 62
    7
 10
1003.4186723414261
 20
948.63129416059405
 11
1003.435803868366
 21
948.61488802807889
  0
LINE
  8
_4-7_
  6
CONTINUOUS
 62
    7
 10
1003.435803868366
 20
948.61488802807889
 11
1003.4552664110856
 21
948.60200174617273
  0
LINE
  8
_4-7_
  6
CONTINUOUS
 62
    7
 10
1003.4552664110856
 20
948.60200174617273
 11
1003.4764686100732
 21
948.59302685803073
  0
LINE
  8
_4-7_
  6
CONTINUOUS
 62
    7
 10
1003.4764686100732
 20
948.59302685803073
 11
1003.4826543706964
 21
948.5912487616597
  0
LINE
  8
_4-7_
  6
CONTINUOUS
 62
    7
 10
1003.4185275642467
 20
947.76668735865985
 11
1003.4185275642467
 21
947.76668735865985
  0
LINE
  8
_4-7_
  6
CONTINUOUS
 62
    7
 10
1003.4185275642467
 20
947.76668735865985
 11
1003.4181081232548
 21
947.74171351241716
  0
LINE
  8
_4-7_
  6
CONTINUOUS
 62
    7
 10
1003.4181081232548
 20
947.74171351241716
 11
1003.4216395723573
 21
947.71703899892827
  0
LINE
  8
_4-7_
  6
CONTINUOUS
 62
    7
 10
1003.4216395723573
 20
947.71703899892827
 11
1003.4290146102603
 21
947.69341354079961
  0
LINE
  8
_4-7_
  6
CONTINUOUS
 62
    7
 10
1003.4290146102603
 20
947.69341354079961
 11
1003.440009150169
 21
947.67155498562136
  0
LINE
  8
_4-7_
  6
CONTINUOUS
 62
    7
 10
1003.440009150169
 20
947.67155498562136
 11
1003.4542891285519
 21
947.65212749453167
  0
LINE
  8
_4-7_
  6
CONTINUOUS
 62
    7
 10
1003.4542891285519
 20
947.65212749453167
 11
1003.4714206554917
 21
947.63572136201651
  0
LINE
  8
_4-7_
  6
CONTINUOUS
 62
    7
 10
1003.4714206554917
 20
947.63572136201651
 11
1003.4908831982113
 21
947.62283508011035
  0
LINE
  8
_4-7_
  6
CONTINUOUS
 62
    7
 10
1003.4908831982113
 20
947.62283508011035
 11
1003.5120853971989
 21
947.61386019196834
  0
LINE
  8
_4-7_
  6
CONTINUOUS
 62
    7
 10
1003.5120853971989
 20
947.61386019196834
 11
1003.5182711578221
 21
947.61208209559732
  0
LINE
  8
_4-7_
  6
CONTINUOUS
 62
    7
 10
1003.382910777121
 20
945.80835402653508
 11
1003.382910777121
 21
945.80835402653508
  0
LINE
  8
_4-7_
  6
CONTINUOUS
 62
    7
 10
1003.382910777121
 20
945.80835402653508
 11
1003.3824913361291
 21
945.7833801802924
  0
LINE
  8
_4-7_
  6
CONTINUOUS
 62
    7
 10
1003.3824913361291
 20
945.7833801802924
 11
1003.3860227852316
 21
945.75870566680351
  0
LINE
  8
_4-7_
  6
CONTINUOUS
 62
    7
 10
1003.3860227852316
 20
945.75870566680351
 11
1003.3933978231346
 21
945.73508020867484
  0
LINE
  8
_4-7_
  6
CONTINUOUS
 62
    7
 10
1003.3933978231346
 20
945.73508020867484
 11
1003.4043923630433
 21
945.71322165349659
  0
LINE
  8
_4-7_
  6
CONTINUOUS
 62
    7
 10
1003.4043923630433
 20
945.71322165349659
 11
1003.4186723414261
 21
945.6937941624069
  0
LINE
  8
_4-7_
  6
CONTINUOUS
 62
    7
 10
1003.4186723414261
 20
945.6937941624069
 11
1003.435803868366
 21
945.67738802989174
  0
LINE
  8
_4-7_
  6
CONTINUOUS
 62
    7
 10
1003.435803868366
 20
945.67738802989174
 11
1003.4552664110856
 21
945.66450174798558
  0
LINE
  8
_4-7_
  6
CONTINUOUS
 62
    7
 10
1003.4552664110856
 20
945.66450174798558
 11
1003.4764686100732
 21
945.65552685984358
  0
LINE
  8
_4-7_
  6
CONTINUOUS
 62
    7
 10
1003.4764686100732
 20
945.65552685984358
 11
1003.4826543706964
 21
945.65374876347255
  0
LINE
  8
_4-7_
  6
CONTINUOUS
 62
    7
 10
1003.382910777121
 20
944.8291873604727
 11
1003.382910777121
 21
944.8291873604727
  0
LINE
  8
_4-7_
  6
CONTINUOUS
 62
    7
 10
1003.382910777121
 20
944.8291873604727
 11
1003.3824913361291
 21
944.80421351423001
  0
LINE
  8
_4-7_
  6
CONTINUOUS
 62
    7
 10
1003.3824913361291
 20
944.80421351423001
 11
1003.3860227852316
 21
944.77953900074112
  0
LINE
  8
_4-7_
  6
CONTINUOUS
 62
    7
 10
1003.3860227852316
 20
944.77953900074112
 11
1003.3933978231346
 21
944.75591354261246
  0
LINE
  8
_4-7_
  6
CONTINUOUS
 62
    7
 10
1003.3933978231346
 20
944.75591354261246
 11
1003.4043923630433
 21
944.73405498743421
  0
LINE
  8
_4-7_
  6
CONTINUOUS
 62
    7
 10
1003.4043923630433
 20
944.73405498743421
 11
1003.4186723414261
 21
944.71462749634452
  0
LINE
  8
_4-7_
  6
CONTINUOUS
 62
    7
 10
1003.4186723414261
 20
944.71462749634452
 11
1003.435803868366
 21
944.69822136382936
  0
LINE
  8
_4-7_
  6
CONTINUOUS
 62
    7
 10
1003.435803868366
 20
944.69822136382936
 11
1003.4552664110856
 21
944.6853350819232
  0
LINE
  8
_4-7_
  6
CONTINUOUS
 62
    7
 10
1003.4552664110856
 20
944.6853350819232
 11
1003.4764686100732
 21
944.67636019378119
  0
LINE
  8
_4-7_
  6
CONTINUOUS
 62
    7
 10
1003.4764686100732
 20
944.67636019378119
 11
1003.4826543706964
 21
944.67458209741017
  0
LINE
  8
_4-7_
  6
CONTINUOUS
 62
    7
 10
1003.382910777121
 20
943.85002069441032
 11
1003.382910777121
 21
943.85002069441032
  0
LINE
  8
_4-7_
  6
CONTINUOUS
 62
    7
 10
1003.382910777121
 20
943.85002069441032
 11
1003.3824913361291
 21
943.82504684816763
  0
LINE
  8
_4-7_
  6
CONTINUOUS
 62
    7
 10
1003.3824913361291
 20
943.82504684816763
 11
1003.3860227852316
 21
943.80037233467874
  0
LINE
  8
_4-7_
  6
CONTINUOUS
 62
    7
 10
1003.3860227852316
 20
943.80037233467874
 11
1003.3933978231346
 21
943.77674687655008
  0
LINE
  8
_4-7_
  6
CONTINUOUS
 62
    7
 10
1003.3933978231346
 20
943.77674687655008
 11
1003.4043923630433
 21
943.75488832137182
  0
LINE
  8
_4-7_
  6
CONTINUOUS
 62
    7
 10
1003.4043923630433
 20
943.75488832137182
 11
1003.4186723414261
 21
943.73546083028214
  0
LINE
  8
_4-7_
  6
CONTINUOUS
 62
    7
 10
1003.4186723414261
 20
943.73546083028214
 11
1003.435803868366
 21
943.71905469776698
  0
LINE
  8
_4-7_
  6
CONTINUOUS
 62
    7
 10
1003.435803868366
 20
943.71905469776698
 11
1003.4552664110856
 21
943.70616841586082
  0
LINE
  8
_4-7_
  6
CONTINUOUS
 62
    7
 10
1003.4552664110856
 20
943.70616841586082
 11
1003.4764686100732
 21
943.69719352771881
  0
LINE
  8
_4-7_
  6
CONTINUOUS
 62
    7
 10
1003.4764686100732
 20
943.69719352771881
 11
1003.4826543706964
 21
943.69541543134778
  0
LINE
  8
_4-7_
  6
CONTINUOUS
 62
    7
 10
1003.4187105093538
 20
942.87085402834794
 11
1003.4187105093538
 21
942.87085402834794
  0
LINE
  8
_4-7_
  6
CONTINUOUS
 62
    7
 10
1003.4187105093538
 20
942.87085402834794
 11
1003.4182910683619
 21
942.84588018210525
  0
LINE
  8
_4-7_
  6
CONTINUOUS
 62
    7
 10
1003.4182910683619
 20
942.84588018210525
 11
1003.4218225174644
 21
942.82120566861636
  0
LINE
  8
_4-7_
  6
CONTINUOUS
 62
    7
 10
1003.4218225174644
 20
942.82120566861636
 11
1003.4291975553674
 21
942.79758021048769
  0
LINE
  8
_4-7_
  6
CONTINUOUS
 62
    7
 10
1003.4291975553674
 20
942.79758021048769
 11
1003.4401920952761
 21
942.77572165530944
  0
LINE
  8
_4-7_
  6
CONTINUOUS
 62
    7
 10
1003.4401920952761
 20
942.77572165530944
 11
1003.454472073659
 21
942.75629416421975
  0
LINE
  8
_4-7_
  6
CONTINUOUS
 62
    7
 10
1003.454472073659
 20
942.75629416421975
 11
1003.4716036005988
 21
942.7398880317046
  0
LINE
  8
_4-7_
  6
CONTINUOUS
 62
    7
 10
1003.4716036005988
 20
942.7398880317046
 11
1003.4910661433184
 21
942.72700174979843
  0
LINE
  8
_4-7_
  6
CONTINUOUS
 62
    7
 10
1003.4910661433184
 20
942.72700174979843
 11
1003.512268342306
 21
942.71802686165643
  0
LINE
  8
_4-7_
  6
CONTINUOUS
 62
    7
 10
1003.512268342306
 20
942.71802686165643
 11
1003.5184541029292
 21
942.7162487652854
  0
LINE
  8
_4-7_
  6
CONTINUOUS
 62
    7
 10
1003.382910777121
 20
940.91252069622317
 11
1003.382910777121
 21
940.91252069622317
  0
LINE
  8
_4-7_
  6
CONTINUOUS
 62
    7
 10
1003.382910777121
 20
940.91252069622317
 11
1003.3824913361291
 21
940.88754684998048
  0
LINE
  8
_4-7_
  6
CONTINUOUS
 62
    7
 10
1003.3824913361291
 20
940.88754684998048
 11
1003.3860227852316
 21
940.86287233649159
  0
LINE
  8
_4-7_
  6
CONTINUOUS
 62
    7
 10
1003.3860227852316
 20
940.86287233649159
 11
1003.3933978231346
 21
940.83924687836293
  0
LINE
  8
_4-7_
  6
CONTINUOUS
 62
    7
 10
1003.3933978231346
 20
940.83924687836293
 11
1003.4043923630433
 21
940.81738832318467
  0
LINE
  8
_4-7_
  6
CONTINUOUS
 62
    7
 10
1003.4043923630433
 20
940.81738832318467
 11
1003.4186723414261
 21
940.79796083209499
  0
LINE
  8
_4-7_
  6
CONTINUOUS
 62
    7
 10
1003.4186723414261
 20
940.79796083209499
 11
1003.435803868366
 21
940.78155469957983
  0
LINE
  8
_4-7_
  6
CONTINUOUS
 62
    7
 10
1003.435803868366
 20
940.78155469957983
 11
1003.4552664110856
 21
940.76866841767367
  0
LINE
  8
_4-7_
  6
CONTINUOUS
 62
    7
 10
1003.4552664110856
 20
940.76866841767367
 11
1003.4764686100732
 21
940.75969352953166
  0
LINE
  8
_4-7_
  6
CONTINUOUS
 62
    7
 10
1003.4764686100732
 20
940.75969352953166
 11
1003.4826543706964
 21
940.75791543316063
  0
LINE
  8
_4-7_
  6
CONTINUOUS
 62
    7
 10
1003.4030858090541
 20
939.93335403015965
 11
1003.4030858090541
 21
939.93335403015965
  0
LINE
  8
_4-7_
  6
CONTINUOUS
 62
    7
 10
1003.4030858090541
 20
939.93335403015965
 11
1003.4026663680622
 21
939.90838018391696
  0
LINE
  8
_4-7_
  6
CONTINUOUS
 62
    7
 10
1003.4026663680622
 20
939.90838018391696
 11
1003.4061978171648
 21
939.88370567042807
  0
LINE
  8
_4-7_
  6
CONTINUOUS
 62
    7
 10
1003.4061978171648
 20
939.88370567042807
 11
1003.4135728550677
 21
939.86008021229941
  0
LINE
  8
_4-7_
  6
CONTINUOUS
 62
    7
 10
1003.4135728550677
 20
939.86008021229941
 11
1003.4245673949764
 21
939.83822165712115
  0
LINE
  8
_4-7_
  6
CONTINUOUS
 62
    7
 10
1003.4245673949764
 20
939.83822165712115
 11
1003.4388473733593
 21
939.81879416603147
  0
LINE
  8
_4-7_
  6
CONTINUOUS
 62
    7
 10
1003.4388473733593
 20
939.81879416603147
 11
1003.4559789002991
 21
939.80238803351631
  0
LINE
  8
_4-7_
  6
CONTINUOUS
 62
    7
 10
1003.4559789002991
 20
939.80238803351631
 11
1003.4754414430188
 21
939.78950175161015
  0
LINE
  8
_4-7_
  6
CONTINUOUS
 62
    7
 10
1003.4754414430188
 20
939.78950175161015
 11
1003.4966436420063
 21
939.78052686346814
  0
LINE
  8
_4-7_
  6
CONTINUOUS
 62
    7
 10
1003.4966436420063
 20
939.78052686346814
 11
1003.5028294026296
 21
939.77874876709711
  0
LINE
  8
_4-7_
  6
CONTINUOUS
 62
    7
 10
1003.4231501545601
 20
938.95418736409727
 11
1003.4231501545601
 21
938.95418736409727
  0
LINE
  8
_4-7_
  6
CONTINUOUS
 62
    7
 10
1003.4231501545601
 20
938.95418736409727
 11
1003.4227307135682
 21
938.92921351785458
  0
LINE
  8
_4-7_
  6
CONTINUOUS
 62
    7
 10
1003.4227307135682
 20
938.92921351785458
 11
1003.4262621626707
 21
938.90453900436569
  0
LINE
  8
_4-7_
  6
CONTINUOUS
 62
    7
 10
1003.4262621626707
 20
938.90453900436569
 11
1003.4336372005737
 21
938.88091354623703
  0
LINE
  8
_4-7_
  6
CONTINUOUS
 62
    7
 10
1003.4336372005737
 20
938.88091354623703
 11
1003.4446317404824
 21
938.85905499105877
  0
LINE
  8
_4-7_
  6
CONTINUOUS
 62
    7
 10
1003.4446317404824
 20
938.85905499105877
 11
1003.4589117188652
 21
938.83962749996908
  0
LINE
  8
_4-7_
  6
CONTINUOUS
 62
    7
 10
1003.4589117188652
 20
938.83962749996908
 11
1003.476043245805
 21
938.82322136745393
  0
LINE
  8
_4-7_
  6
CONTINUOUS
 62
    7
 10
1003.476043245805
 20
938.82322136745393
 11
1003.4955057885247
 21
938.81033508554776
  0
LINE
  8
_4-7_
  6
CONTINUOUS
 62
    7
 10
1003.4955057885247
 20
938.81033508554776
 11
1003.5167079875123
 21
938.80136019740576
  0
LINE
  8
_4-7_
  6
CONTINUOUS
 62
    7
 10
1003.5167079875123
 20
938.80136019740576
 11
1003.5228937481355
 21
938.79958210103473
  0
LINE
  8
_4-7_
  6
CONTINUOUS
 62
    7
 10
1003.4370969864535
 20
937.97502069803602
 11
1003.4370969864535
 21
937.97502069803602
  0
LINE
  8
_4-7_
  6
CONTINUOUS
 62
    7
 10
1003.4370969864535
 20
937.97502069803602
 11
1003.4366775454616
 21
937.95004685179333
  0
LINE
  8
_4-7_
  6
CONTINUOUS
 62
    7
 10
1003.4366775454616
 20
937.95004685179333
 11
1003.4402089945642
 21
937.92537233830444
  0
LINE
  8
_4-7_
  6
CONTINUOUS
 62
    7
 10
1003.4402089945642
 20
937.92537233830444
 11
1003.4475840324671
 21
937.90174688017578
  0
LINE
  8
_4-7_
  6
CONTINUOUS
 62
    7
 10
1003.4475840324671
 20
937.90174688017578
 11
1003.4585785723758
 21
937.87988832499752
  0
LINE
  8
_4-7_
  6
CONTINUOUS
 62
    7
 10
1003.4585785723758
 20
937.87988832499752
 11
1003.4728585507587
 21
937.86046083390784
  0
LINE
  8
_4-7_
  6
CONTINUOUS
 62
    7
 10
1003.4728585507587
 20
937.86046083390784
 11
1003.4899900776985
 21
937.84405470139268
  0
LINE
  8
_4-7_
  6
CONTINUOUS
 62
    7
 10
1003.4899900776985
 20
937.84405470139268
 11
1003.5094526204182
 21
937.83116841948652
  0
LINE
  8
_4-7_
  6
CONTINUOUS
 62
    7
 10
1003.5094526204182
 20
937.83116841948652
 11
1003.5306548194058
 21
937.82219353134451
  0
LINE
  8
_4-7_
  6
CONTINUOUS
 62
    7
 10
1003.5306548194058
 20
937.82219353134451
 11
1003.536840580029
 21
937.82041543497348
  0
LINE
  8
_4-7_
  6
CONTINUOUS
 62
    7
 10
1003.4580360982884
 20
937.0113092325787
 11
1003.4580360982884
 21
937.0113092325787
  0
LINE
  8
_4-7_
  6
CONTINUOUS
 62
    7
 10
1003.4580360982884
 20
937.0113092325787
 11
1003.4494972534446
 21
936.99487923134302
  0
LINE
  8
_4-7_
  6
CONTINUOUS
 62
    7
 10
1003.4494972534446
 20
936.99487923134302
 11
1003.4436831849769
 21
936.97706867552199
  0
LINE
  8
_4-7_
  6
CONTINUOUS
 62
    7
 10
1003.4436831849769
 20
936.97706867552199
 11
1003.4407705504134
 21
936.95841872984181
  0
LINE
  8
_4-7_
  6
CONTINUOUS
 62
    7
 10
1003.4407705504134
 20
936.95841872984181
 11
1003.4408478486816
 21
936.93949606346462
  0
LINE
  8
_4-7_
  6
CONTINUOUS
 62
    7
 10
1003.4408478486816
 20
936.93949606346462
 11
1003.4439127311127
 21
936.92087563203279
  0
LINE
  8
_4-7_
  6
CONTINUOUS
 62
    7
 10
1003.4439127311127
 20
936.92087563203279
 11
1003.4498720728051
 21
936.90312320793316
  0
LINE
  8
_4-7_
  6
CONTINUOUS
 62
    7
 10
1003.4498720728051
 20
936.90312320793316
 11
1003.4585448021768
 21
936.88677818958877
  0
LINE
  8
_4-7_
  6
CONTINUOUS
 62
    7
 10
1003.4585448021768
 20
936.88677818958877
 11
1003.4696674027346
 21
936.87233721211112
  0
LINE
  8
_4-7_
  6
CONTINUOUS
 62
    7
 10
1003.4696674027346
 20
936.87233721211112
 11
1003.4829019198887
 21
936.86023905729326
  0
LINE
  8
_4-7_
  6
CONTINUOUS
 62
    7
 10
1003.4829019198887
 20
936.86023905729326
 11
1003.4978462295326
 21
936.85085132144741
  0
LINE
  8
_4-7_
  6
CONTINUOUS
 62
    7
 10
1003.4978462295326
 20
936.85085132144741
 11
1003.5140462563797
 21
936.84445924617683
  0
LINE
  8
_4-7_
  6
CONTINUOUS
 62
    7
 10
1003.5140462563797
 20
936.84445924617683
 11
1003.531009770812
 21
936.84125705145414
  0
LINE
  8
_4-7_
  6
CONTINUOUS
 62
    7
 10
1003.531009770812
 20
936.84125705145414
 11
1003.5311010894472
 21
936.8412487689103
  0
LINE
  8
_4-7_
  6
CONTINUOUS
 62
    7
 10
1003.7205440581964
 20
942.40703823916044
 11
1003.7205440581964
 21
942.40703823916044
  0
LINE
  8
_4-7_
  6
CONTINUOUS
 62
    7
 10
1003.7205440581964
 20
942.40703823916044
 11
1003.6678404139503
 21
942.39937576625562
  0
LINE
  8
_4-7_
  6
CONTINUOUS
 62
    7
 10
1003.6678404139503
 20
942.39937576625562
 11
1003.6171477130389
 21
942.38176797456367
  0
LINE
  8
_4-7_
  6
CONTINUOUS
 62
    7
 10
1003.6171477130389
 20
942.38176797456367
 11
1003.5700062275275
 21
942.35474986792519
  0
LINE
  8
_4-7_
  6
CONTINUOUS
 62
    7
 10
1003.5700062275275
 20
942.35474986792519
 11
1003.5278483275989
 21
942.3191423778386
  0
LINE
  8
_4-7_
  6
CONTINUOUS
 62
    7
 10
1003.5278483275989
 20
942.3191423778386
 11
1003.4919549597092
 21
942.27602741987198
  0
LINE
  8
_4-7_
  6
CONTINUOUS
 62
    7
 10
1003.4919549597092
 20
942.27602741987198
 11
1003.4634167256791
 21
942.2267150202058
  0
LINE
  8
_4-7_
  6
CONTINUOUS
 62
    7
 10
1003.4634167256791
 20
942.2267150202058
 11
1003.4431007453084
 21
942.17270351115064
  0
LINE
  8
_4-7_
  6
CONTINUOUS
 62
    7
 10
1003.4431007453084
 20
942.17270351115064
 11
1003.4316243093801
 21
942.11563400507805
  0
LINE
  8
_4-7_
  6
CONTINUOUS
 62
    7
 10
1003.4316243093801
 20
942.11563400507805
 11
1003.4293361235929
 21
942.05724053005156
  0
LINE
  8
_4-7_
  6
CONTINUOUS
 62
    7
 10
1003.4293361235929
 20
942.05724053005156
 11
1003.4363057133138
 21
941.99929734226112
  0
LINE
  8
_4-7_
  6
CONTINUOUS
 62
    7
 10
1003.4363057133138
 20
941.99929734226112
 11
1003.4523213110861
 21
941.94356501614732
  0
LINE
  8
_4-7_
  6
CONTINUOUS
 62
    7
 10
1003.4523213110861
 20
941.94356501614732
 11
1003.4768962910755
 21
941.89173695023703
  0
LINE
  8
_4-7_
  6
CONTINUOUS
 62
    7
 10
1003.4768962910755
 20
941.89173695023703
 11
1003.5092839549509
 21
941.8453879140867
  0
LINE
  8
_4-7_
  6
CONTINUOUS
 62
    7
 10
1003.5092839549509
 20
941.8453879140867
 11
1003.5485002199341
 21
941.80592619970605
  0
LINE
  8
_4-7_
  6
CONTINUOUS
 62
    7
 10
1003.5485002199341
 20
941.80592619970605
 11
1003.5933535196582
 21
941.77455083131792
  0
LINE
  8
_4-7_
  6
CONTINUOUS
 62
    7
 10
1003.5933535196582
 20
941.77455083131792
 11
1003.6424810093077
 21
941.75221513361419
  0
LINE
  8
_4-7_
  6
CONTINUOUS
 62
    7
 10
1003.6424810093077
 20
941.75221513361419
 11
1003.6943899749696
 21
941.73959776546701
  0
LINE
  8
_4-7_
  6
CONTINUOUS
 62
    7
 10
1003.6943899749696
 20
941.73959776546701
 11
1003.7205440581964
 21
941.7370820992229
  0
LINE
  8
_4-7_
  6
CONTINUOUS
 62
    7
 10
1003.7205440581964
 20
947.3028715694735
 11
1003.7205440581964
 21
947.3028715694735
  0
LINE
  8
_4-7_
  6
CONTINUOUS
 62
    7
 10
1003.7205440581964
 20
947.3028715694735
 11
1003.6678404139503
 21
947.29520909656867
  0
LINE
  8
_4-7_
  6
CONTINUOUS
 62
    7
 10
1003.6678404139503
 20
947.29520909656867
 11
1003.6171477130389
 21
947.27760130487673
  0
LINE
  8
_4-7_
  6
CONTINUOUS
 62
    7
 10
1003.6171477130389
 20
947.27760130487673
 11
1003.5700062275275
 21
947.25058319823825
  0
LINE
  8
_4-7_
  6
CONTINUOUS
 62
    7
 10
1003.5700062275275
 20
947.25058319823825
 11
1003.5278483275989
 21
947.21497570815166
  0
LINE
  8
_4-7_
  6
CONTINUOUS
 62
    7
 10
1003.5278483275989
 20
947.21497570815166
 11
1003.4919549597092
 21
947.17186075018503
  0
LINE
  8
_4-7_
  6
CONTINUOUS
 62
    7
 10
1003.4919549597092
 20
947.17186075018503
 11
1003.4634167256791
 21
947.12254835051885
  0
LINE
  8
_4-7_
  6
CONTINUOUS
 62
    7
 10
1003.4634167256791
 20
947.12254835051885
 11
1003.4431007453084
 21
947.0685368414637
  0
LINE
  8
_4-7_
  6
CONTINUOUS
 62
    7
 10
1003.4431007453084
 20
947.0685368414637
 11
1003.4316243093801
 21
947.0114673353911
  0
LINE
  8
_4-7_
  6
CONTINUOUS
 62
    7
 10
1003.4316243093801
 20
947.0114673353911
 11
1003.4293361235929
 21
946.95307386036461
  0
LINE
  8
_4-7_
  6
CONTINUOUS
 62
    7
 10
1003.4293361235929
 20
946.95307386036461
 11
1003.4363057133138
 21
946.89513067257417
  0
LINE
  8
_4-7_
  6
CONTINUOUS
 62
    7
 10
1003.4363057133138
 20
946.89513067257417
 11
1003.4523213110861
 21
946.83939834646037
  0
LINE
  8
_4-7_
  6
CONTINUOUS
 62
    7
 10
1003.4523213110861
 20
946.83939834646037
 11
1003.4768962910755
 21
946.78757028055009
  0
LINE
  8
_4-7_
  6
CONTINUOUS
 62
    7
 10
1003.4768962910755
 20
946.78757028055009
 11
1003.5092839549509
 21
946.74122124439975
  0
LINE
  8
_4-7_
  6
CONTINUOUS
 62
    7
 10
1003.5092839549509
 20
946.74122124439975
 11
1003.5485002199341
 21
946.7017595300191
  0
LINE
  8
_4-7_
  6
CONTINUOUS
 62
    7
 10
1003.5485002199341
 20
946.7017595300191
 11
1003.5933535196582
 21
946.67038416163098
  0
LINE
  8
_4-7_
  6
CONTINUOUS
 62
    7
 10
1003.5933535196582
 20
946.67038416163098
 11
1003.6424810093077
 21
946.64804846392724
  0
LINE
  8
_4-7_
  6
CONTINUOUS
 62
    7
 10
1003.6424810093077
 20
946.64804846392724
 11
1003.6943899749696
 21
946.63543109578006
  0
LINE
  8
_4-7_
  6
CONTINUOUS
 62
    7
 10
1003.6943899749696
 20
946.63543109578006
 11
1003.7205440581964
 21
946.63291542953596
  0
LINE
  8
_4-7_
  6
CONTINUOUS
 62
    7
 10
1003.517283551446
 20
935.34673122597258
 11
1003.517283551446
 21
935.34673122597258
  0
LINE
  8
_4-7_
  6
CONTINUOUS
 62
    7
 10
1003.517283551446
 20
935.34673122597258
 11
1003.4946677927574
 21
935.26324102174306
  0
LINE
  8
_4-7_
  6
CONTINUOUS
 62
    7
 10
1003.4946677927574
 20
935.26324102174306
 11
1003.4855825577941
 21
935.17670161410842
  0
LINE
  8
_4-7_
  6
CONTINUOUS
 62
    7
 10
1003.4855825577941
 20
935.17670161410842
 11
1003.4858614682659
 21
935.14059087522253
  0
LINE
  8
_4-7_
  6
CONTINUOUS
 62
    7
 10
1003.1686476519462
 20
933.9037487707227
 11
1003.1686476519462
 21
933.9037487707227
  0
LINE
  8
_4-7_
  6
CONTINUOUS
 62
    7
 10
1003.1686476519462
 20
933.9037487707227
 11
1003.1648721659819
 21
933.93845538020878
  0
LINE
  8
_4-7_
  6
CONTINUOUS
 62
    7
 10
1003.1648721659819
 20
933.93845538020878
 11
1003.1556722697634
 21
933.9719139348241
  0
LINE
  8
_4-7_
  6
CONTINUOUS
 62
    7
 10
1003.1556722697634
 20
933.9719139348241
 11
1003.1413274974818
 21
934.00310781331746
  0
LINE
  8
_4-7_
  6
CONTINUOUS
 62
    7
 10
1003.1413274974818
 20
934.00310781331746
 11
1003.1222737077842
 21
934.03108920547584
  0
LINE
  8
_4-7_
  6
CONTINUOUS
 62
    7
 10
1003.1222737077842
 20
934.03108920547584
 11
1003.0990898404289
 21
934.05500791085774
  0
LINE
  8
_4-7_
  6
CONTINUOUS
 62
    7
 10
1003.0990898404289
 20
934.05500791085774
 11
1003.0724803254936
 21
934.07413717170346
  0
LINE
  8
_4-7_
  6
CONTINUOUS
 62
    7
 10
1003.0724803254936
 20
934.07413717170346
 11
1003.043253679625
 21
934.08789575510218
  0
LINE
  8
_4-7_
  6
CONTINUOUS
 62
    7
 10
1003.043253679625
 20
934.08789575510218
 11
1003.012297939668
 21
934.09586561345941
  0
LINE
  8
_4-7_
  6
CONTINUOUS
 62
    7
 10
1003.012297939668
 20
934.09586561345941
 11
1002.9805536801171
 21
934.09780458666205
  0
LINE
  8
_4-7_
  6
CONTINUOUS
 62
    7
 10
1002.9805536801171
 20
934.09780458666205
 11
1002.9489854342352
 21
934.09365375999039
  0
LINE
  8
_4-7_
  6
CONTINUOUS
 62
    7
 10
1002.9489854342352
 20
934.09365375999039
 11
1002.9185523871993
 21
934.0835392542125
  0
LINE
  8
_4-7_
  6
CONTINUOUS
 62
    7
 10
1002.9185523871993
 20
934.0835392542125
 11
1002.8901792317437
 21
934.06776839346821
  0
LINE
  8
_4-7_
  6
CONTINUOUS
 62
    7
 10
1002.8901792317437
 20
934.06776839346821
 11
1002.8647280718392
 21
934.04682036738086
  0
LINE
  8
_4-7_
  6
CONTINUOUS
 62
    7
 10
1002.8647280718392
 20
934.04682036738086
 11
1002.8429722281008
 21
934.02133167112277
  0
LINE
  8
_4-7_
  6
CONTINUOUS
 62
    7
 10
1002.8429722281008
 20
934.02133167112277
 11
1002.8255727408315
 21
933.99207676583194
  0
LINE
  8
_4-7_
  6
CONTINUOUS
 62
    7
 10
1002.8255727408315
 20
933.99207676583194
 11
1002.8130582846472
 21
933.95994454700201
  0
LINE
  8
_4-7_
  6
CONTINUOUS
 62
    7
 10
1002.8130582846472
 20
933.95994454700201
 11
1002.8058091049668
 21
933.92591133584222
  0
LINE
  8
_4-7_
  6
CONTINUOUS
 62
    7
 10
1002.8058091049668
 20
933.92591133584222
 11
1002.8040454644463
 21
933.89101121425222
  0
LINE
  8
_4-7_
  6
CONTINUOUS
 62
    7
 10
1002.8040454644463
 20
933.89101121425222
 11
1002.8040454644463
 21
933.89101121425222
  0
LINE
  8
_4-7_
  6
CONTINUOUS
 62
    7
 10
999.86507530819665
 20
957.00854420602832
 11
999.86507530819665
 21
959.56822243909778
  0
LINE
  8
_4-7_
  6
CONTINUOUS
 62
    7
 10
999.86507530819665
 20
959.56822243909778
 11
1001.7400753081967
 21
959.56822243909778
  0
LINE
  8
_4-7_
  6
CONTINUOUS
 62
    7
 10
999.86507530819665
 20
957.00854420602832
 11
999.39632530819665
 21
956.49319363090081
  0
LINE
  8
_4-7_
  6
CONTINUOUS
 62
    7
 10
999.39632530819665
 20
956.49319363090081
 11
999.39632530819665
 21
955.18156505145407
  0
LINE
  8
_4-7_
  6
CONTINUOUS
 62
    7
 10
999.39632530819665
 20
955.18156505145407
 11
999.73896233944686
 21
952.60806923067344
  0
LINE
  8
_4-7_
  6
CONTINUOUS
 62
    7
 10
999.73896233944686
 20
952.60806923067344
 11
999.89016468319676
 21
952.35331016284727
  0
LINE
  8
_4-7_
  6
CONTINUOUS
 62
    7
 10
999.89016468319676
 20
952.35331016284727
 11
999.86507530819665
 21
952.35331016284727
  0
LINE
  8
_4-7_
  6
CONTINUOUS
 62
    7
 10
999.86507530819665
 20
952.35331016284727
 11
999.86507530819665
 21
951.2195382337236
  0
LINE
  8
_4-7_
  6
CONTINUOUS
 62
    7
 10
999.86507530819665
 20
951.2195382337236
 11
1000.1357081585519
 21
950.70418735684848
  0
LINE
  8
_4-7_
  6
CONTINUOUS
 62
    7
 10
1000.0545182769469
 20
950.54958209378492
 11
999.44320030819597
 21
950.54958209378492
  0
LINE
  8
_4-7_
  6
CONTINUOUS
 62
    7
 10
999.44320030819597
 20
950.54958209378492
 11
999.44320030819597
 21
947.90371297261026
  0
LINE
  8
_4-7_
  6
CONTINUOUS
 62
    7
 10
999.44320030819597
 20
947.90371297261026
 11
999.75661874569653
 21
947.30287156947293
  0
LINE
  8
_4-7_
  6
CONTINUOUS
 62
    7
 10
999.75661874569653
 20
947.30287156947293
 11
999.75960655819733
 21
947.30287156947293
  0
LINE
  8
_4-7_
  6
CONTINUOUS
 62
    7
 10
999.75960916649967
 20
947.30287179058701
 11
999.75960655819733
 21
947.30287156947293
  0
LINE
  8
_4-7_
  6
CONTINUOUS
 62
    7
 10
999.75960916649967
 20
947.30287179058701
 11
999.75960655819733
 21
947.30287156947293
  0
LINE
  8
_4-7_
  6
CONTINUOUS
 62
    7
 10
999.77997608944577
 20
946.63291542953539
 11
999.44320030819597
 21
946.63291542953539
  0
LINE
  8
_4-7_
  6
CONTINUOUS
 62
    7
 10
999.44320030819597
 20
946.63291542953539
 11
999.44320030819597
 21
943.0096447190524
  0
LINE
  8
_4-7_
  6
CONTINUOUS
 62
    7
 10
999.44320030819597
 20
943.0096447190524
 11
999.75960480010997
 21
942.40705011294858
  0
LINE
  8
_4-7_
  6
CONTINUOUS
 62
    7
 10
999.75960655819733
 20
942.40703823915987
 11
999.76185132716921
 21
942.70544536243528
  0
LINE
  8
_4-7_
  6
CONTINUOUS
 62
    7
 10
999.76185132716921
 20
942.70544536243528
 11
999.96227633193428
 21
942.71624876528585
  0
LINE
  8
_4-7_
  6
CONTINUOUS
 62
    7
 10
1000.0614401070385
 20
942.87085402834828
 11
999.77997608944577
 21
943.38620490522226
  0
LINE
  8
_4-7_
  6
CONTINUOUS
 62
    7
 10
999.77997608944577
 20
943.38620490522226
 11
999.77997599436947
 21
943.68461207334485
  0
LINE
  8
_4-7_
  6
CONTINUOUS
 62
    7
 10
999.77997599436947
 20
943.68461207334485
 11
999.99749624569688
 21
943.69541543134824
  0
LINE
  8
_4-7_
  6
CONTINUOUS
 62
    7
 10
1000.0972398392713
 20
943.85002069441066
 11
999.77997608944577
 21
944.36537157128578
  0
LINE
  8
_4-7_
  6
CONTINUOUS
 62
    7
 10
999.77997608944577
 20
944.36537157128578
 11
999.77997608944577
 21
944.66377879697825
  0
LINE
  8
_4-7_
  6
CONTINUOUS
 62
    7
 10
999.77997608944577
 20
944.66377879697825
 11
999.99749624569688
 21
944.67458209741062
  0
LINE
  8
_4-7_
  6
CONTINUOUS
 62
    7
 10
1000.0972398392713
 20
944.82918736047304
 11
999.77997608944577
 21
945.34453823734816
  0
LINE
  8
_4-7_
  6
CONTINUOUS
 62
    7
 10
999.77997608944577
 20
945.34453823734816
 11
999.77997608944577
 21
945.64294546304063
  0
LINE
  8
_4-7_
  6
CONTINUOUS
 62
    7
 10
999.77997608944577
 20
945.64294546304063
 11
999.99749624569688
 21
945.653748763473
  0
LINE
  8
_4-7_
  6
CONTINUOUS
 62
    7
 10
1000.0972398392713
 20
945.80835402653543
 11
999.77997599436947
 21
946.32370490341054
  0
LINE
  8
_4-7_
  6
CONTINUOUS
 62
    7
 10
999.77997599436947
 20
946.32370490341054
 11
999.77997608944577
 21
946.63291542953539
  0
LINE
  8
_4-7_
  6
CONTINUOUS
 62
    7
 10
999.75960916649967
 20
947.30287179058701
 11
999.76191241727804
 21
947.60127895870846
  0
LINE
  8
_4-7_
  6
CONTINUOUS
 62
    7
 10
999.76191241727804
 20
947.60127895870846
 11
999.96031546444613
 21
947.61208209559777
  0
LINE
  8
_4-7_
  6
CONTINUOUS
 62
    7
 10
1000.0616230521467
 20
947.76668735866019
 11
999.77997599436947
 21
948.28203823553531
  0
LINE
  8
_4-7_
  6
CONTINUOUS
 62
    7
 10
999.77997599436947
 20
948.28203823553531
 11
999.77997599436947
 21
948.58044540365677
  0
LINE
  8
_4-7_
  6
CONTINUOUS
 62
    7
 10
999.77997599436947
 20
948.58044540365677
 11
999.99749624569688
 21
948.59124876166015
  0
LINE
  8
_4-7_
  6
CONTINUOUS
 62
    7
 10
1000.0972398392713
 20
948.74585402472258
 11
999.77997608944577
 21
949.26120490159769
  0
LINE
  8
_4-7_
  6
CONTINUOUS
 62
    7
 10
999.77997608944577
 20
949.26120490159769
 11
999.77997599436947
 21
949.55961206971915
  0
LINE
  8
_4-7_
  6
CONTINUOUS
 62
    7
 10
999.77997599436947
 20
949.55961206971915
 11
999.99805005350197
 21
949.57056016594743
  0
LINE
  8
_4-7_
  6
CONTINUOUS
 62
    7
 10
1000.0972398392713
 20
949.7250206907861
 11
999.77997599436947
 21
950.24037156766008
  0
LINE
  8
_4-7_
  6
CONTINUOUS
 62
    7
 10
999.77997599436947
 20
950.24037156766008
 11
999.77997609288821
 21
950.54958209378492
  0
LINE
  8
_4-7_
  6
CONTINUOUS
 62
    7
 10
999.77997608944577
 20
941.73708209922347
 11
999.44320030819597
 21
941.73708209922347
  0
LINE
  8
_4-7_
  6
CONTINUOUS
 62
    7
 10
999.44320030819597
 20
941.73708209922347
 11
999.44320030819597
 21
939.70693101494953
  0
LINE
  8
_4-7_
  6
CONTINUOUS
 62
    7
 10
999.44320030819597
 20
939.70693101494953
 11
999.75931640194688
 21
937.51120490884796
  0
LINE
  8
_4-7_
  6
CONTINUOUS
 62
    7
 10
999.75931640194688
 20
937.51120490884796
 11
999.75977547548553
 21
937.80961183643649
  0
LINE
  8
_4-7_
  6
CONTINUOUS
 62
    7
 10
999.75977547548553
 20
937.80961183643649
 11
999.95270577694725
 21
937.8204154349728
  0
LINE
  8
_4-7_
  6
CONTINUOUS
 62
    7
 10
999.75931640194688
 20
937.51120490884796
 11
1000.0302394085514
 21
936.99585403197284
  0
LINE
  8
_4-7_
  6
CONTINUOUS
 62
    7
 10
1000.0430536299399
 20
937.97502069803522
 11
999.76142717152641
 21
938.49037157491034
  0
LINE
  8
_4-7_
  6
CONTINUOUS
 62
    7
 10
999.76142717152641
 20
938.49037157491034
 11
999.7627302366908
 21
938.78877850249773
  0
LINE
  8
_4-7_
  6
CONTINUOUS
 62
    7
 10
999.7627302366908
 20
938.78877850249773
 11
999.96418452694627
 21
938.79958210103518
  0
LINE
  8
_4-7_
  6
CONTINUOUS
 62
    7
 10
1000.0570004618334
 20
938.95418736409761
 11
999.76708304975489
 21
939.46953800043866
  0
LINE
  8
_4-7_
  6
CONTINUOUS
 62
    7
 10
999.76708304975489
 20
939.46953800043866
 11
999.76962232519043
 21
939.76794516856125
  0
LINE
  8
_4-7_
  6
CONTINUOUS
 62
    7
 10
999.76962232519043
 20
939.76794516856125
 11
999.97878067223326
 21
939.77874876709757
  0
LINE
  8
_4-7_
  6
CONTINUOUS
 62
    7
 10
1000.0770648073382
 20
939.93335403015999
 11
999.77693816721001
 21
940.44870466650218
  0
LINE
  8
_4-7_
  6
CONTINUOUS
 62
    7
 10
999.77693816721001
 20
940.44870466650218
 11
999.77997608944577
 21
940.74711213272758
  0
LINE
  8
_4-7_
  6
CONTINUOUS
 62
    7
 10
999.77997608944577
 20
940.74711213272758
 11
999.99749624569688
 21
940.75791543316109
  0
LINE
  8
_4-7_
  6
CONTINUOUS
 62
    7
 10
1000.0972398392713
 20
940.91252069622237
 11
999.77997599436947
 21
941.42787157309749
  0
LINE
  8
_4-7_
  6
CONTINUOUS
 62
    7
 10
999.77997599436947
 20
941.42787157309749
 11
999.77997608944577
 21
941.73708209922347
  0
LINE
  8
_4-7_
  6
CONTINUOUS
 62
    7
 10
999.9490495269464
 20
936.84124876891042
 11
999.86507530819665
 21
936.84124876891042
  0
LINE
  8
_4-7_
  6
CONTINUOUS
 62
    7
 10
999.86507530819665
 20
936.84124876891042
 11
999.86507530819665
 21
936.35166543587866
  0
LINE
  8
_4-7_
  6
CONTINUOUS
 62
    7
 10
999.86507530819665
 20
936.35166543587866
 11
999.95882530819642
 21
936.35166543587866
  0
LINE
  8
_4-7_
  6
CONTINUOUS
 62
    7
 10
999.95882530819642
 20
936.35166543587866
 11
999.95882530819642
 21
935.34673122597292
  0
LINE
  8
_4-7_
  6
CONTINUOUS
 62
    7
 10
999.95882530819642
 20
935.34673122597292
 11
999.96286706494686
 21
935.34673122597292
  0
LINE
  8
_4-7_
  6
CONTINUOUS
 62
    7
 10
999.99428905819684
 20
935.14059087522264
 11
999.99428914978296
 21
931.42156487971101
  0
LINE
  8
_4-7_
  6
CONTINUOUS
 62
    7
 10
999.99428914978296
 20
931.42156487971101
 11
1000.2695624956965
 21
931.01442686461064
  0
LINE
  8
_4-7_
  6
CONTINUOUS
 62
    7
 10
1000.2695624956965
 20
931.01442686461064
 11
1000.8963253081964
 21
930.19322245722287
  0
LINE
  8
_4-7_
  6
CONTINUOUS
 62
    7
 10
1000.8963253081964
 20
930.19322245722287
 11
1000.9896868578807
 21
930.19322245722287
  0
LINE
  8
_4-7_
  6
CONTINUOUS
 62
    7
 10
1000.9896868578807
 20
930.19322245722287
 11
1000.3115030395583
 21
931.42156487971101
  0
LINE
  8
_4-7_
  6
CONTINUOUS
 62
    7
 10
1000.3115030395583
 20
931.42156487971101
 11
1000.3115029644465
 21
933.90374877072327
  0
LINE
  8
_4-7_
  6
CONTINUOUS
 62
    7
 10
1000.6761051519464
 20
933.90374877072327
 11
1000.6761049810513
 21
931.4215649751477
  0
LINE
  8
_4-7_
  6
CONTINUOUS
 62
    7
 10
1000.6761049810513
 20
931.4215649751477
 11
1001.3542889593219
 21
930.19322245722287
  0
LINE
  8
_4-7_
  6
CONTINUOUS
 62
    7
 10
1001.3542889593219
 20
930.19322245722287
 11
1001.7400753081967
 21
930.19322245722287
  0
LINE
  8
_4-7_
  6
CONTINUOUS
 62
    7
 10
1000.0545182769457
 20
950.54958209378503
 11
1000.0545182769457
 21
950.54958209378503
  0
LINE
  8
_4-7_
  6
CONTINUOUS
 62
    7
 10
1000.0545182769457
 20
950.54958209378503
 11
1000.0713673087586
 21
950.55249070923207
  0
LINE
  8
_4-7_
  6
CONTINUOUS
 62
    7
 10
1000.0713673087586
 20
950.55249070923207
 11
1000.0875009618918
 21
950.55857180931332
  0
LINE
  8
_4-7_
  6
CONTINUOUS
 62
    7
 10
1000.0875009618918
 20
950.55857180931332
 11
1000.1024290234589
 21
950.56764062287982
  0
LINE
  8
_4-7_
  6
CONTINUOUS
 62
    7
 10
1000.1024290234589
 20
950.56764062287982
 11
1000.1156979118631
 21
950.57942159862068
  0
LINE
  8
_4-7_
  6
CONTINUOUS
 62
    7
 10
1000.1156979118631
 20
950.57942159862068
 11
1000.1269044586447
 21
950.59355677754934
  0
LINE
  8
_4-7_
  6
CONTINUOUS
 62
    7
 10
1000.1269044586447
 20
950.59355677754934
 11
1000.1357081585505
 21
950.60961666940671
  0
LINE
  8
_4-7_
  6
CONTINUOUS
 62
    7
 10
1000.1357081585505
 20
950.60961666940671
 11
1000.1418415156138
 21
950.62711330250556
  0
LINE
  8
_4-7_
  6
CONTINUOUS
 62
    7
 10
1000.1418415156138
 20
950.62711330250556
 11
1000.1451181708837
 21
950.64551505050281
  0
LINE
  8
_4-7_
  6
CONTINUOUS
 62
    7
 10
1000.1451181708837
 20
950.64551505050281
 11
1000.1454385648481
 21
950.66426278559732
  0
LINE
  8
_4-7_
  6
CONTINUOUS
 62
    7
 10
1000.1454385648481
 20
950.66426278559732
 11
1000.1427929624984
 21
950.68278686734504
  0
LINE
  8
_4-7_
  6
CONTINUOUS
 62
    7
 10
1000.1427929624984
 20
950.68278686734504
 11
1000.1372617491232
 21
950.70052445089573
  0
LINE
  8
_4-7_
  6
CONTINUOUS
 62
    7
 10
1000.1372617491232
 20
950.70052445089573
 11
1000.1290129878422
 21
950.71693658874881
  0
LINE
  8
_4-7_
  6
CONTINUOUS
 62
    7
 10
1000.1290129878422
 20
950.71693658874881
 11
1000.1290127425189
 21
950.71693698976389
  0
LINE
  8
_4-7_
  6
CONTINUOUS
 62
    7
 10
999.99749624569574
 20
949.57041542772322
 11
999.99749624569574
 21
949.57041542772322
  0
LINE
  8
_4-7_
  6
CONTINUOUS
 62
    7
 10
999.99749624569574
 20
949.57041542772322
 11
1000.0190732634052
 21
949.57823639663513
  0
LINE
  8
_4-7_
  6
CONTINUOUS
 62
    7
 10
1000.0190732634052
 20
949.57823639663513
 11
1000.0390871873758
 21
949.59005784712156
  0
LINE
  8
_4-7_
  6
CONTINUOUS
 62
    7
 10
1000.0390871873758
 20
949.59005784712156
 11
1000.0569299046555
 21
949.60552059039117
  0
LINE
  8
_4-7_
  6
CONTINUOUS
 62
    7
 10
1000.0569299046555
 20
949.60552059039117
 11
1000.0720592733086
 21
949.6241547988144
  0
LINE
  8
_4-7_
  6
CONTINUOUS
 62
    7
 10
1000.0720592733086
 20
949.6241547988144
 11
1000.0840155951242
 21
949.64539428139767
  0
LINE
  8
_4-7_
  6
CONTINUOUS
 62
    7
 10
1000.0840155951242
 20
949.64539428139767
 11
1000.0924355833143
 21
949.66859368721043
  0
LINE
  8
_4-7_
  6
CONTINUOUS
 62
    7
 10
1000.0924355833143
 20
949.66859368721043
 11
1000.0970634007986
 21
949.69304811404641
  0
LINE
  8
_4-7_
  6
CONTINUOUS
 62
    7
 10
1000.0970634007986
 20
949.69304811404641
 11
1000.0977584336842
 21
949.71801452652073
  0
LINE
  8
_4-7_
  6
CONTINUOUS
 62
    7
 10
1000.0977584336842
 20
949.71801452652073
 11
1000.0972398392712
 21
949.72502069078575
  0
LINE
  8
_4-7_
  6
CONTINUOUS
 62
    7
 10
999.99749624569574
 20
948.5912487616597
 11
999.99749624569574
 21
948.5912487616597
  0
LINE
  8
_4-7_
  6
CONTINUOUS
 62
    7
 10
999.99749624569574
 20
948.5912487616597
 11
1000.0190732634052
 21
948.59906973057161
  0
LINE
  8
_4-7_
  6
CONTINUOUS
 62
    7
 10
1000.0190732634052
 20
948.59906973057161
 11
1000.0390871873758
 21
948.61089118105804
  0
LINE
  8
_4-7_
  6
CONTINUOUS
 62
    7
 10
1000.0390871873758
 20
948.61089118105804
 11
1000.0569299046555
 21
948.62635392432765
  0
LINE
  8
_4-7_
  6
CONTINUOUS
 62
    7
 10
1000.0569299046555
 20
948.62635392432765
 11
1000.0720592733086
 21
948.64498813275088
  0
LINE
  8
_4-7_
  6
CONTINUOUS
 62
    7
 10
1000.0720592733086
 20
948.64498813275088
 11
1000.0840155951242
 21
948.66622761533415
  0
LINE
  8
_4-7_
  6
CONTINUOUS
 62
    7
 10
1000.0840155951242
 20
948.66622761533415
 11
1000.0924355833143
 21
948.68942702114691
  0
LINE
  8
_4-7_
  6
CONTINUOUS
 62
    7
 10
1000.0924355833143
 20
948.68942702114691
 11
1000.0970634007986
 21
948.71388144798289
  0
LINE
  8
_4-7_
  6
CONTINUOUS
 62
    7
 10
1000.0970634007986
 20
948.71388144798289
 11
1000.0977584336842
 21
948.73884786045721
  0
LINE
  8
_4-7_
  6
CONTINUOUS
 62
    7
 10
1000.0977584336842
 20
948.73884786045721
 11
1000.0972398392712
 21
948.74585402472223
  0
LINE
  8
_4-7_
  6
CONTINUOUS
 62
    7
 10
999.96187945857116
 20
947.61208209559732
 11
999.96187945857116
 21
947.61208209559732
  0
LINE
  8
_4-7_
  6
CONTINUOUS
 62
    7
 10
999.96187945857116
 20
947.61208209559732
 11
999.98345647628059
 21
947.61990306450923
  0
LINE
  8
_4-7_
  6
CONTINUOUS
 62
    7
 10
999.98345647628059
 20
947.61990306450923
 11
1000.0034704002512
 21
947.63172451499565
  0
LINE
  8
_4-7_
  6
CONTINUOUS
 62
    7
 10
1000.0034704002512
 20
947.63172451499565
 11
1000.0213131175309
 21
947.64718725826526
  0
LINE
  8
_4-7_
  6
CONTINUOUS
 62
    7
 10
1000.0213131175309
 20
947.64718725826526
 11
1000.036442486184
 21
947.6658214666885
  0
LINE
  8
_4-7_
  6
CONTINUOUS
 62
    7
 10
1000.036442486184
 20
947.6658214666885
 11
1000.0483988079997
 21
947.68706094927177
  0
LINE
  8
_4-7_
  6
CONTINUOUS
 62
    7
 10
1000.0483988079997
 20
947.68706094927177
 11
1000.0568187961898
 21
947.71026035508453
  0
LINE
  8
_4-7_
  6
CONTINUOUS
 62
    7
 10
1000.0568187961898
 20
947.71026035508453
 11
1000.061446613674
 21
947.7347147819205
  0
LINE
  8
_4-7_
  6
CONTINUOUS
 62
    7
 10
1000.061446613674
 20
947.7347147819205
 11
1000.0621416465597
 21
947.75968119439483
  0
LINE
  8
_4-7_
  6
CONTINUOUS
 62
    7
 10
1000.0621416465597
 20
947.75968119439483
 11
1000.0616230521466
 21
947.76668735865985
  0
LINE
  8
_4-7_
  6
CONTINUOUS
 62
    7
 10
999.99749624569574
 20
945.65374876347255
 11
999.99749624569574
 21
945.65374876347255
  0
LINE
  8
_4-7_
  6
CONTINUOUS
 62
    7
 10
999.99749624569574
 20
945.65374876347255
 11
1000.0190732634052
 21
945.66156973238446
  0
LINE
  8
_4-7_
  6
CONTINUOUS
 62
    7
 10
1000.0190732634052
 20
945.66156973238446
 11
1000.0390871873758
 21
945.67339118287089
  0
LINE
  8
_4-7_
  6
CONTINUOUS
 62
    7
 10
1000.0390871873758
 20
945.67339118287089
 11
1000.0569299046555
 21
945.6888539261405
  0
LINE
  8
_4-7_
  6
CONTINUOUS
 62
    7
 10
1000.0569299046555
 20
945.6888539261405
 11
1000.0720592733086
 21
945.70748813456373
  0
LINE
  8
_4-7_
  6
CONTINUOUS
 62
    7
 10
1000.0720592733086
 20
945.70748813456373
 11
1000.0840155951242
 21
945.728727617147
  0
LINE
  8
_4-7_
  6
CONTINUOUS
 62
    7
 10
1000.0840155951242
 20
945.728727617147
 11
1000.0924355833143
 21
945.75192702295976
  0
LINE
  8
_4-7_
  6
CONTINUOUS
 62
    7
 10
1000.0924355833143
 20
945.75192702295976
 11
1000.0970634007986
 21
945.77638144979574
  0
LINE
  8
_4-7_
  6
CONTINUOUS
 62
    7
 10
1000.0970634007986
 20
945.77638144979574
 11
1000.0977584336842
 21
945.80134786227006
  0
LINE
  8
_4-7_
  6
CONTINUOUS
 62
    7
 10
1000.0977584336842
 20
945.80134786227006
 11
1000.0972398392712
 21
945.80835402653508
  0
LINE
  8
_4-7_
  6
CONTINUOUS
 62
    7
 10
999.99749624569574
 20
944.67458209741017
 11
999.99749624569574
 21
944.67458209741017
  0
LINE
  8
_4-7_
  6
CONTINUOUS
 62
    7
 10
999.99749624569574
 20
944.67458209741017
 11
1000.0190732634052
 21
944.68240306632208
  0
LINE
  8
_4-7_
  6
CONTINUOUS
 62
    7
 10
1000.0190732634052
 20
944.68240306632208
 11
1000.0390871873758
 21
944.6942245168085
  0
LINE
  8
_4-7_
  6
CONTINUOUS
 62
    7
 10
1000.0390871873758
 20
944.6942245168085
 11
1000.0569299046555
 21
944.70968726007811
  0
LINE
  8
_4-7_
  6
CONTINUOUS
 62
    7
 10
1000.0569299046555
 20
944.70968726007811
 11
1000.0720592733086
 21
944.72832146850135
  0
LINE
  8
_4-7_
  6
CONTINUOUS
 62
    7
 10
1000.0720592733086
 20
944.72832146850135
 11
1000.0840155951242
 21
944.74956095108462
  0
LINE
  8
_4-7_
  6
CONTINUOUS
 62
    7
 10
1000.0840155951242
 20
944.74956095108462
 11
1000.0924355833143
 21
944.77276035689738
  0
LINE
  8
_4-7_
  6
CONTINUOUS
 62
    7
 10
1000.0924355833143
 20
944.77276035689738
 11
1000.0970634007986
 21
944.79721478373335
  0
LINE
  8
_4-7_
  6
CONTINUOUS
 62
    7
 10
1000.0970634007986
 20
944.79721478373335
 11
1000.0977584336842
 21
944.82218119620768
  0
LINE
  8
_4-7_
  6
CONTINUOUS
 62
    7
 10
1000.0977584336842
 20
944.82218119620768
 11
1000.0972398392712
 21
944.8291873604727
  0
LINE
  8
_4-7_
  6
CONTINUOUS
 62
    7
 10
999.99749624569574
 20
943.69541543134778
 11
999.99749624569574
 21
943.69541543134778
  0
LINE
  8
_4-7_
  6
CONTINUOUS
 62
    7
 10
999.99749624569574
 20
943.69541543134778
 11
1000.0190732634052
 21
943.7032364002597
  0
LINE
  8
_4-7_
  6
CONTINUOUS
 62
    7
 10
1000.0190732634052
 20
943.7032364002597
 11
1000.0390871873758
 21
943.71505785074612
  0
LINE
  8
_4-7_
  6
CONTINUOUS
 62
    7
 10
1000.0390871873758
 20
943.71505785074612
 11
1000.0569299046555
 21
943.73052059401573
  0
LINE
  8
_4-7_
  6
CONTINUOUS
 62
    7
 10
1000.0569299046555
 20
943.73052059401573
 11
1000.0720592733086
 21
943.74915480243897
  0
LINE
  8
_4-7_
  6
CONTINUOUS
 62
    7
 10
1000.0720592733086
 20
943.74915480243897
 11
1000.0840155951242
 21
943.77039428502223
  0
LINE
  8
_4-7_
  6
CONTINUOUS
 62
    7
 10
1000.0840155951242
 20
943.77039428502223
 11
1000.0924355833143
 21
943.793593690835
  0
LINE
  8
_4-7_
  6
CONTINUOUS
 62
    7
 10
1000.0924355833143
 20
943.793593690835
 11
1000.0970634007986
 21
943.81804811767097
  0
LINE
  8
_4-7_
  6
CONTINUOUS
 62
    7
 10
1000.0970634007986
 20
943.81804811767097
 11
1000.0977584336842
 21
943.8430145301453
  0
LINE
  8
_4-7_
  6
CONTINUOUS
 62
    7
 10
1000.0977584336842
 20
943.8430145301453
 11
1000.0972398392712
 21
943.85002069441032
  0
LINE
  8
_4-7_
  6
CONTINUOUS
 62
    7
 10
999.96169651346293
 20
942.7162487652854
 11
999.96169651346293
 21
942.7162487652854
  0
LINE
  8
_4-7_
  6
CONTINUOUS
 62
    7
 10
999.96169651346293
 20
942.7162487652854
 11
999.98327353117236
 21
942.72406973419731
  0
LINE
  8
_4-7_
  6
CONTINUOUS
 62
    7
 10
999.98327353117236
 20
942.72406973419731
 11
1000.003287455143
 21
942.73589118468374
  0
LINE
  8
_4-7_
  6
CONTINUOUS
 62
    7
 10
1000.003287455143
 20
942.73589118468374
 11
1000.0211301724227
 21
942.75135392795335
  0
LINE
  8
_4-7_
  6
CONTINUOUS
 62
    7
 10
1000.0211301724227
 20
942.75135392795335
 11
1000.0362595410758
 21
942.76998813637658
  0
LINE
  8
_4-7_
  6
CONTINUOUS
 62
    7
 10
1000.0362595410758
 20
942.76998813637658
 11
1000.0482158628914
 21
942.79122761895985
  0
LINE
  8
_4-7_
  6
CONTINUOUS
 62
    7
 10
1000.0482158628914
 20
942.79122761895985
 11
1000.0566358510815
 21
942.81442702477261
  0
LINE
  8
_4-7_
  6
CONTINUOUS
 62
    7
 10
1000.0566358510815
 20
942.81442702477261
 11
1000.0612636685657
 21
942.83888145160859
  0
LINE
  8
_4-7_
  6
CONTINUOUS
 62
    7
 10
1000.0612636685657
 20
942.83888145160859
 11
1000.0619587014514
 21
942.86384786408291
  0
LINE
  8
_4-7_
  6
CONTINUOUS
 62
    7
 10
1000.0619587014514
 20
942.86384786408291
 11
1000.0614401070384
 21
942.87085402834794
  0
LINE
  8
_4-7_
  6
CONTINUOUS
 62
    7
 10
999.99749624569574
 20
940.75791543316063
 11
999.99749624569574
 21
940.75791543316063
  0
LINE
  8
_4-7_
  6
CONTINUOUS
 62
    7
 10
999.99749624569574
 20
940.75791543316063
 11
1000.0190732634052
 21
940.76573640207255
  0
LINE
  8
_4-7_
  6
CONTINUOUS
 62
    7
 10
1000.0190732634052
 20
940.76573640207255
 11
1000.0390871873758
 21
940.77755785255897
  0
LINE
  8
_4-7_
  6
CONTINUOUS
 62
    7
 10
1000.0390871873758
 20
940.77755785255897
 11
1000.0569299046555
 21
940.79302059582858
  0
LINE
  8
_4-7_
  6
CONTINUOUS
 62
    7
 10
1000.0569299046555
 20
940.79302059582858
 11
1000.0720592733086
 21
940.81165480425182
  0
LINE
  8
_4-7_
  6
CONTINUOUS
 62
    7
 10
1000.0720592733086
 20
940.81165480425182
 11
1000.0840155951242
 21
940.83289428683509
  0
LINE
  8
_4-7_
  6
CONTINUOUS
 62
    7
 10
1000.0840155951242
 20
940.83289428683509
 11
1000.0924355833143
 21
940.85609369264785
  0
LINE
  8
_4-7_
  6
CONTINUOUS
 62
    7
 10
1000.0924355833143
 20
940.85609369264785
 11
1000.0970634007986
 21
940.88054811948382
  0
LINE
  8
_4-7_
  6
CONTINUOUS
 62
    7
 10
1000.0970634007986
 20
940.88054811948382
 11
1000.0977584336842
 21
940.90551453195815
  0
LINE
  8
_4-7_
  6
CONTINUOUS
 62
    7
 10
1000.0977584336842
 20
940.90551453195815
 11
1000.0972398392712
 21
940.91252069622317
  0
LINE
  8
_4-7_
  6
CONTINUOUS
 62
    7
 10
999.97732121376259
 20
939.77874876709711
 11
999.97732121376259
 21
939.77874876709711
  0
LINE
  8
_4-7_
  6
CONTINUOUS
 62
    7
 10
999.97732121376259
 20
939.77874876709711
 11
999.99889823147203
 21
939.78656973600903
  0
LINE
  8
_4-7_
  6
CONTINUOUS
 62
    7
 10
999.99889823147203
 20
939.78656973600903
 11
1000.0189121554426
 21
939.79839118649545
  0
LINE
  8
_4-7_
  6
CONTINUOUS
 62
    7
 10
1000.0189121554426
 20
939.79839118649545
 11
1000.0367548727223
 21
939.81385392976506
  0
LINE
  8
_4-7_
  6
CONTINUOUS
 62
    7
 10
1000.0367548727223
 20
939.81385392976506
 11
1000.0518842413754
 21
939.8324881381883
  0
LINE
  8
_4-7_
  6
CONTINUOUS
 62
    7
 10
1000.0518842413754
 20
939.8324881381883
 11
1000.0638405631911
 21
939.85372762077156
  0
LINE
  8
_4-7_
  6
CONTINUOUS
 62
    7
 10
1000.0638405631911
 20
939.85372762077156
 11
1000.0722605513812
 21
939.87692702658433
  0
LINE
  8
_4-7_
  6
CONTINUOUS
 62
    7
 10
1000.0722605513812
 20
939.87692702658433
 11
1000.0768883688654
 21
939.9013814534203
  0
LINE
  8
_4-7_
  6
CONTINUOUS
 62
    7
 10
1000.0768883688654
 20
939.9013814534203
 11
1000.0775834017511
 21
939.92634786589463
  0
LINE
  8
_4-7_
  6
CONTINUOUS
 62
    7
 10
1000.0775834017511
 20
939.92634786589463
 11
1000.077064807338
 21
939.93335403015965
  0
LINE
  8
_4-7_
  6
CONTINUOUS
 62
    7
 10
999.95725686825779
 20
938.79958210103473
 11
999.95725686825779
 21
938.79958210103473
  0
LINE
  8
_4-7_
  6
CONTINUOUS
 62
    7
 10
999.95725686825779
 20
938.79958210103473
 11
999.97883388596722
 21
938.80740306994664
  0
LINE
  8
_4-7_
  6
CONTINUOUS
 62
    7
 10
999.97883388596722
 20
938.80740306994664
 11
999.99884780993784
 21
938.81922452043307
  0
LINE
  8
_4-7_
  6
CONTINUOUS
 62
    7
 10
999.99884780993784
 20
938.81922452043307
 11
1000.0166905272175
 21
938.83468726370268
  0
LINE
  8
_4-7_
  6
CONTINUOUS
 62
    7
 10
1000.0166905272175
 20
938.83468726370268
 11
1000.0318198958706
 21
938.85332147212591
  0
LINE
  8
_4-7_
  6
CONTINUOUS
 62
    7
 10
1000.0318198958706
 20
938.85332147212591
 11
1000.0437762176863
 21
938.87456095470918
  0
LINE
  8
_4-7_
  6
CONTINUOUS
 62
    7
 10
1000.0437762176863
 20
938.87456095470918
 11
1000.0521962058764
 21
938.89776036052194
  0
LINE
  8
_4-7_
  6
CONTINUOUS
 62
    7
 10
1000.0521962058764
 20
938.89776036052194
 11
1000.0568240233606
 21
938.92221478735792
  0
LINE
  8
_4-7_
  6
CONTINUOUS
 62
    7
 10
1000.0568240233606
 20
938.92221478735792
 11
1000.0575190562463
 21
938.94718119983224
  0
LINE
  8
_4-7_
  6
CONTINUOUS
 62
    7
 10
1000.0575190562463
 20
938.94718119983224
 11
1000.0570004618332
 21
938.95418736409727
  0
LINE
  8
_4-7_
  6
CONTINUOUS
 62
    7
 10
999.94331003636432
 20
937.82041543497348
 11
999.94331003636432
 21
937.82041543497348
  0
LINE
  8
_4-7_
  6
CONTINUOUS
 62
    7
 10
999.94331003636432
 20
937.82041543497348
 11
999.96488705407376
 21
937.8282364038854
  0
LINE
  8
_4-7_
  6
CONTINUOUS
 62
    7
 10
999.96488705407376
 20
937.8282364038854
 11
999.98490097804438
 21
937.84005785437182
  0
LINE
  8
_4-7_
  6
CONTINUOUS
 62
    7
 10
999.98490097804438
 20
937.84005785437182
 11
1000.0027436953241
 21
937.85552059764143
  0
LINE
  8
_4-7_
  6
CONTINUOUS
 62
    7
 10
1000.0027436953241
 20
937.85552059764143
 11
1000.0178730639772
 21
937.87415480606467
  0
LINE
  8
_4-7_
  6
CONTINUOUS
 62
    7
 10
1000.0178730639772
 20
937.87415480606467
 11
1000.0298293857928
 21
937.89539428864794
  0
LINE
  8
_4-7_
  6
CONTINUOUS
 62
    7
 10
1000.0298293857928
 20
937.89539428864794
 11
1000.0382493739829
 21
937.9185936944607
  0
LINE
  8
_4-7_
  6
CONTINUOUS
 62
    7
 10
1000.0382493739829
 20
937.9185936944607
 11
1000.0428771914671
 21
937.94304812129667
  0
LINE
  8
_4-7_
  6
CONTINUOUS
 62
    7
 10
1000.0428771914671
 20
937.94304812129667
 11
1000.0435722243528
 21
937.968014533771
  0
LINE
  8
_4-7_
  6
CONTINUOUS
 62
    7
 10
1000.0435722243528
 20
937.968014533771
 11
1000.0430536299398
 21
937.97502069803602
  0
LINE
  8
_4-7_
  6
CONTINUOUS
 62
    7
 10
999.94904952694606
 20
936.8412487689103
 11
999.94904952694606
 21
936.8412487689103
  0
LINE
  8
_4-7_
  6
CONTINUOUS
 62
    7
 10
999.94904952694606
 20
936.8412487689103
 11
999.96601573690793
 21
936.84443365569075
  0
LINE
  8
_4-7_
  6
CONTINUOUS
 62
    7
 10
999.96601573690793
 20
936.84443365569075
 11
999.98222115205283
 21
936.85080920057305
  0
LINE
  8
_4-7_
  6
CONTINUOUS
 62
    7
 10
999.98222115205283
 20
936.85080920057305
 11
999.9971733790419
 21
936.86018168585201
  0
LINE
  8
_4-7_
  6
CONTINUOUS
 62
    7
 10
999.9971733790419
 20
936.86018168585201
 11
1000.0104181020242
 21
936.87226633330522
  0
LINE
  8
_4-7_
  6
CONTINUOUS
 62
    7
 10
1000.0104181020242
 20
936.87226633330522
 11
1000.0215528867943
 21
936.88669595703493
  0
LINE
  8
_4-7_
  6
CONTINUOUS
 62
    7
 10
1000.0215528867943
 20
936.88669595703493
 11
1000.0302394085512
 21
936.90303212022582
  0
LINE
  8
_4-7_
  6
CONTINUOUS
 62
    7
 10
1000.0302394085512
 20
936.90303212022582
 11
1000.0362137317271
 21
936.92077845682581
  0
LINE
  8
_4-7_
  6
CONTINUOUS
 62
    7
 10
1000.0362137317271
 20
936.92077845682581
 11
1000.0392943295352
 21
936.93939575337754
  0
LINE
  8
_4-7_
  6
CONTINUOUS
 62
    7
 10
1000.0392943295352
 20
936.93939575337754
 11
1000.0393875995702
 21
936.95831833274599
  0
LINE
  8
_4-7_
  6
CONTINUOUS
 62
    7
 10
1000.0393875995702
 20
936.95831833274599
 11
1000.0364907078692
 21
936.97697124193223
  0
LINE
  8
_4-7_
  6
CONTINUOUS
 62
    7
 10
1000.0364907078692
 20
936.97697124193223
 11
1000.0306916750206
 21
936.99478772172972
  0
LINE
  8
_4-7_
  6
CONTINUOUS
 62
    7
 10
1000.0306916750206
 20
936.99478772172972
 11
1000.0221667017031
 21
937.01122642741518
  0
LINE
  8
_4-7_
  6
CONTINUOUS
 62
    7
 10
1000.0221667017031
 20
937.01122642741518
 11
1000.0221145181049
 21
937.0113092325787
  0
LINE
  8
_4-7_
  6
CONTINUOUS
 62
    7
 10
999.75960655819688
 20
941.7370820992229
 11
999.75960655819688
 21
941.7370820992229
  0
LINE
  8
_4-7_
  6
CONTINUOUS
 62
    7
 10
999.75960655819688
 20
941.7370820992229
 11
999.81231020244297
 21
941.74474457212773
  0
LINE
  8
_4-7_
  6
CONTINUOUS
 62
    7
 10
999.81231020244297
 20
941.74474457212773
 11
999.86300290335441
 21
941.76235236381967
  0
LINE
  8
_4-7_
  6
CONTINUOUS
 62
    7
 10
999.86300290335441
 20
941.76235236381967
 11
999.91014438886577
 21
941.78937047045815
  0
LINE
  8
_4-7_
  6
CONTINUOUS
 62
    7
 10
999.91014438886577
 20
941.78937047045815
 11
999.95230228879439
 21
941.82497796054474
  0
LINE
  8
_4-7_
  6
CONTINUOUS
 62
    7
 10
999.95230228879439
 20
941.82497796054474
 11
999.98819565668407
 21
941.86809291851137
  0
LINE
  8
_4-7_
  6
CONTINUOUS
 62
    7
 10
999.98819565668407
 20
941.86809291851137
 11
1000.0167338907142
 21
941.91740531817754
  0
LINE
  8
_4-7_
  6
CONTINUOUS
 62
    7
 10
1000.0167338907142
 20
941.91740531817754
 11
1000.0370498710849
 21
941.9714168272327
  0
LINE
  8
_4-7_
  6
CONTINUOUS
 62
    7
 10
1000.0370498710849
 20
941.9714168272327
 11
1000.0485263070132
 21
942.0284863333053
  0
LINE
  8
_4-7_
  6
CONTINUOUS
 62
    7
 10
1000.0485263070132
 20
942.0284863333053
 11
1000.0508144928004
 21
942.08687980833179
  0
LINE
  8
_4-7_
  6
CONTINUOUS
 62
    7
 10
1000.0508144928004
 20
942.08687980833179
 11
1000.0438449030795
 21
942.14482299612223
  0
LINE
  8
_4-7_
  6
CONTINUOUS
 62
    7
 10
1000.0438449030795
 20
942.14482299612223
 11
1000.0278293053073
 21
942.20055532223603
  0
LINE
  8
_4-7_
  6
CONTINUOUS
 62
    7
 10
1000.0278293053073
 20
942.20055532223603
 11
1000.0032543253178
 21
942.25238338814631
  0
LINE
  8
_4-7_
  6
CONTINUOUS
 62
    7
 10
1000.0032543253178
 20
942.25238338814631
 11
999.97086666144241
 21
942.29873242429665
  0
LINE
  8
_4-7_
  6
CONTINUOUS
 62
    7
 10
999.97086666144241
 20
942.29873242429665
 11
999.93165039645919
 21
942.3381941386773
  0
LINE
  8
_4-7_
  6
CONTINUOUS
 62
    7
 10
999.93165039645919
 20
942.3381941386773
 11
999.88679709673511
 21
942.36956950706542
  0
LINE
  8
_4-7_
  6
CONTINUOUS
 62
    7
 10
999.88679709673511
 20
942.36956950706542
 11
999.83766960708556
 21
942.39190520476916
  0
LINE
  8
_4-7_
  6
CONTINUOUS
 62
    7
 10
999.83766960708556
 20
942.39190520476916
 11
999.78576064142374
 21
942.40452257291633
  0
LINE
  8
_4-7_
  6
CONTINUOUS
 62
    7
 10
999.78576064142374
 20
942.40452257291633
 11
999.75960655819688
 21
942.40703823916044
  0
LINE
  8
_4-7_
  6
CONTINUOUS
 62
    7
 10
999.75960655819688
 20
946.63291542953596
 11
999.75960655819688
 21
946.63291542953596
  0
LINE
  8
_4-7_
  6
CONTINUOUS
 62
    7
 10
999.75960655819688
 20
946.63291542953596
 11
999.81231020244297
 21
946.64057790244078
  0
LINE
  8
_4-7_
  6
CONTINUOUS
 62
    7
 10
999.81231020244297
 20
946.64057790244078
 11
999.86300290335441
 21
946.65818569413273
  0
LINE
  8
_4-7_
  6
CONTINUOUS
 62
    7
 10
999.86300290335441
 20
946.65818569413273
 11
999.91014438886577
 21
946.68520380077121
  0
LINE
  8
_4-7_
  6
CONTINUOUS
 62
    7
 10
999.91014438886577
 20
946.68520380077121
 11
999.95230228879439
 21
946.7208112908578
  0
LINE
  8
_4-7_
  6
CONTINUOUS
 62
    7
 10
999.95230228879439
 20
946.7208112908578
 11
999.98819565668407
 21
946.76392624882442
  0
LINE
  8
_4-7_
  6
CONTINUOUS
 62
    7
 10
999.98819565668407
 20
946.76392624882442
 11
1000.0167338907142
 21
946.8132386484906
  0
LINE
  8
_4-7_
  6
CONTINUOUS
 62
    7
 10
1000.0167338907142
 20
946.8132386484906
 11
1000.0370498710849
 21
946.86725015754575
  0
LINE
  8
_4-7_
  6
CONTINUOUS
 62
    7
 10
1000.0370498710849
 20
946.86725015754575
 11
1000.0485263070132
 21
946.92431966361835
  0
LINE
  8
_4-7_
  6
CONTINUOUS
 62
    7
 10
1000.0485263070132
 20
946.92431966361835
 11
1000.0508144928004
 21
946.98271313864484
  0
LINE
  8
_4-7_
  6
CONTINUOUS
 62
    7
 10
1000.0508144928004
 20
946.98271313864484
 11
1000.0438449030795
 21
947.04065632643528
  0
LINE
  8
_4-7_
  6
CONTINUOUS
 62
    7
 10
1000.0438449030795
 20
947.04065632643528
 11
1000.0278293053073
 21
947.09638865254908
  0
LINE
  8
_4-7_
  6
CONTINUOUS
 62
    7
 10
1000.0278293053073
 20
947.09638865254908
 11
1000.0032543253178
 21
947.14821671845937
  0
LINE
  8
_4-7_
  6
CONTINUOUS
 62
    7
 10
1000.0032543253178
 20
947.14821671845937
 11
999.97086666144241
 21
947.1945657546097
  0
LINE
  8
_4-7_
  6
CONTINUOUS
 62
    7
 10
999.97086666144241
 20
947.1945657546097
 11
999.93165039645919
 21
947.23402746899035
  0
LINE
  8
_4-7_
  6
CONTINUOUS
 62
    7
 10
999.93165039645919
 20
947.23402746899035
 11
999.88679709673511
 21
947.26540283737847
  0
LINE
  8
_4-7_
  6
CONTINUOUS
 62
    7
 10
999.88679709673511
 20
947.26540283737847
 11
999.83766960708556
 21
947.28773853508221
  0
LINE
  8
_4-7_
  6
CONTINUOUS
 62
    7
 10
999.83766960708556
 20
947.28773853508221
 11
999.78576064142374
 21
947.30035590322939
  0
LINE
  8
_4-7_
  6
CONTINUOUS
 62
    7
 10
999.78576064142374
 20
947.30035590322939
 11
999.75960655819688
 21
947.3028715694735
  0
LINE
  8
_4-7_
  6
CONTINUOUS
 62
    7
 10
999.99428914812745
 20
935.14059087522253
 11
999.99428914812745
 21
935.14059087522253
  0
LINE
  8
_4-7_
  6
CONTINUOUS
 62
    7
 10
999.99428914812745
 20
935.14059087522253
 11
999.99091169536098
 21
935.22762563891956
  0
LINE
  8
_4-7_
  6
CONTINUOUS
 62
    7
 10
999.99091169536098
 20
935.22762563891956
 11
999.97383876534889
 21
935.31269335459638
  0
LINE
  8
_4-7_
  6
CONTINUOUS
 62
    7
 10
999.97383876534889
 20
935.31269335459638
 11
999.96286706494732
 21
935.34673122597258
  0
LINE
  8
_4-7_
  6
CONTINUOUS
 62
    7
 10
1000.6761051519459
 20
933.89101121425222
 11
1000.6761051519459
 21
933.89101121425222
  0
LINE
  8
_4-7_
  6
CONTINUOUS
 62
    7
 10
1000.6761051519459
 20
933.89101121425222
 11
1000.6743415114254
 21
933.92591133584222
  0
LINE
  8
_4-7_
  6
CONTINUOUS
 62
    7
 10
1000.6743415114254
 20
933.92591133584222
 11
1000.6670923317449
 21
933.9599445470019
  0
LINE
  8
_4-7_
  6
CONTINUOUS
 62
    7
 10
1000.6670923317449
 20
933.9599445470019
 11
1000.6545778755607
 21
933.99207676583194
  0
LINE
  8
_4-7_
  6
CONTINUOUS
 62
    7
 10
1000.6545778755607
 20
933.99207676583194
 11
1000.6371783882914
 21
934.02133167112277
  0
LINE
  8
_4-7_
  6
CONTINUOUS
 62
    7
 10
1000.6371783882914
 20
934.02133167112277
 11
1000.615422544553
 21
934.04682036738086
  0
LINE
  8
_4-7_
  6
CONTINUOUS
 62
    7
 10
1000.615422544553
 20
934.04682036738086
 11
1000.5899713846486
 21
934.06776839346821
  0
LINE
  8
_4-7_
  6
CONTINUOUS
 62
    7
 10
1000.5899713846486
 20
934.06776839346821
 11
1000.5615982291929
 21
934.0835392542125
  0
LINE
  8
_4-7_
  6
CONTINUOUS
 62
    7
 10
1000.5615982291929
 20
934.0835392542125
 11
1000.531165182157
 21
934.09365375999039
  0
LINE
  8
_4-7_
  6
CONTINUOUS
 62
    7
 10
1000.531165182157
 20
934.09365375999039
 11
1000.4995969362751
 21
934.09780458666205
  0
LINE
  8
_4-7_
  6
CONTINUOUS
 62
    7
 10
1000.4995969362751
 20
934.09780458666205
 11
1000.4678526767242
 21
934.09586561345941
  0
LINE
  8
_4-7_
  6
CONTINUOUS
 62
    7
 10
1000.4678526767242
 20
934.09586561345941
 11
1000.4368969367673
 21
934.08789575510218
  0
LINE
  8
_4-7_
  6
CONTINUOUS
 62
    7
 10
1000.4368969367673
 20
934.08789575510218
 11
1000.4076702908985
 21
934.07413717170346
  0
LINE
  8
_4-7_
  6
CONTINUOUS
 62
    7
 10
1000.4076702908985
 20
934.07413717170346
 11
1000.3810607759634
 21
934.05500791085774
  0
LINE
  8
_4-7_
  6
CONTINUOUS
 62
    7
 10
1000.3810607759634
 20
934.05500791085774
 11
1000.357876908608
 21
934.03108920547595
  0
LINE
  8
_4-7_
  6
CONTINUOUS
 62
    7
 10
1000.357876908608
 20
934.03108920547595
 11
1000.3388231189103
 21
934.00310781331757
  0
LINE
  8
_4-7_
  6
CONTINUOUS
 62
    7
 10
1000.3388231189103
 20
934.00310781331757
 11
1000.3244783466288
 21
933.9719139348241
  0
LINE
  8
_4-7_
  6
CONTINUOUS
 62
    7
 10
1000.3244783466288
 20
933.9719139348241
 11
1000.3152784504102
 21
933.93845538020878
  0
LINE
  8
_4-7_
  6
CONTINUOUS
 62
    7
 10
1000.3152784504102
 20
933.93845538020878
 11
1000.3115029644459
 21
933.9037487707227
  0
LINE
  8
_4-7_
  6
CONTINUOUS
 62
    7
 10
1000.3115029644459
 20
933.9037487707227
 11
1000.3115029644459
 21
933.9037487707227
  0
TEXT
  8
_4-a_
 62
    7
 10
1267.0594943136707
 20
1048.2661573385351
 40
15
 41
1
 50
0
  1
ＱＮパネル
  0
ENDSEC
  0
EOF
