  0
SECTION
  2
HEADER
  9
$ACADVER
  1
AC1009
  9
$INSBASE
 10
0
 20
0
 30
0
  9
$EXTMIN
 10
0
 20
0
  9
$EXTMAX
 10
2100
 20
1485
  9
$LIMMIN
 10
0
 20
0
  9
$LIMMAX
 10
2100
 20
1485
  9
$LTSCALE
 40
5
  0
ENDSEC
  0
SECTION
  2
TABLES
  0
TABLE
  2
LTYPE
 70
     9
  0
LTYPE
  2
CONTINUOUS
 70
    64
  3
実線
 72
    65
 73
     0
 40
0.0
  0
LTYPE
  2
DASHED1
 70
    64
  3
--  --  --  --  --  --  --  --  
 72
    65
 73
     2
 40
2.5
 49
1.25
 49
-1.25
  0
LTYPE
  2
DASHED2
 70
    64
  3
----    ----    ----    ----    
 72
    65
 73
     2
 40
5.0
 49
2.5
 49
-2.5
  0
LTYPE
  2
DASHED3
 70
    64
  3
------  ------  ------  ------  
 72
    65
 73
     2
 40
5.0
 49
3.75
 49
-1.25
  0
LTYPE
  2
CENTER1
 70
    64
  3
----- - ----- - ----- - ----- - 
 72
    65
 73
     4
 40
10.0
 49
6.25
 49
-1.25
 49
1.25
 49
-1.25
  0
LTYPE
  2
CENTER2
 70
    64
  3
----------  --  ----------  --  
 72
    65
 73
     4
 40
20.0
 49
12.5
 49
-2.5
 49
2.5
 49
-2.5
  0
LTYPE
  2
PHANTOM1
 70
    64
  3
--- - - --- - - --- - - --- - - 
 72
    65
 73
     6
 40
10.0
 49
3.25
 49
-1.25
 49
1.25
 49
-1.25
 49
1.25
 49
-1.25
  0
LTYPE
  2
PHANTOM2
 70
    64
  3
--------  -  -  --------  -  -  
 72
    65
 73
     6
 40
20.0
 49
10.0
 49
-2.5
 49
1.25
 49
-2.5
 49
1.25
 49
-2.5
  0
LTYPE
  2
DOT
 70
    64
  3
-   -   -   -   -   -   -   -   
 72
    65
 73
     2
 40
2.5
 49
0.625
 49
-1.875
  0
LTYPE
  2
DUMMY
 70
    64
  3
ダミー
 72
    65
 73
     0
 40
0.0
  0
LTYPE
  2
RAND1
 70
    64
  3
ランダム線1
 72
    65
 73
     4
 40
10.0
 49
1.0
 49
-2.0
 49
3.0
 49
-4.0
  0
LTYPE
  2
RAND2
 70
    64
  3
ランダム線2
 72
    65
 73
     4
 40
14.0
 49
2.0
 49
-3.0
 49
4.0
 49
-5.0
  0
LTYPE
  2
RAND3
 70
    64
  3
ランダム線3
 72
    65
 73
     4
 40
18.0
 49
3.0
 49
-4.0
 49
5.0
 49
-6.0
  0
LTYPE
  2
RAND4
 70
    64
  3
ランダム線4
 72
    65
 73
     4
 40
22.0
 49
4.0
 49
-5.0
 49
6.0
 49
-7.0
  0
LTYPE
  2
RAND5
 70
    64
  3
ランダム線5
 72
    65
 73
     4
 40
26.0
 49
5.0
 49
-6.0
 49
7.0
 49
-8.0
  0
LTYPE
  2
LONG1
 70
    64
  3
----------  --  ----------  --  
 72
    65
 73
     4
 40
40.0
 49
32.5
 49
-2.5
 49
2.5
 49
-2.5
  0
LTYPE
  2
LONG2
 70
    64
  3
--------  -  -  --------  -  -  
 72
    65
 73
     6
 40
40.0
 49
30.0
 49
-2.5
 49
1.25
 49
-2.5
 49
1.25
 49
-2.5
  0
LTYPE
  2
LONG3
 70
    64
  3
+++++++++++++++..+++++++++++++++
 72
    65
 73
     2
 40
40.0
 49
37.5
 49
-2.5
  0
LTYPE
  2
LONG4
 70
    64
  3
+++++++++++++++..+++++++++++++++
 72
    65
 73
     2
 40
80.0
 49
75.0
 49
-5.0
  0
LTYPE
  2
LONG5
 70
    64
  3
----------  --  ----------  --  
 72
    65
 73
     4
 40
60.0
 49
37.5
 49
-7.5
 49
7.5
 49
-7.5
  0
LTYPE
  2
dashed
 70
   64
  3
-------   -------------   ------
 72
   65
 73
    2
 40
7.5
 49
6
 49
-1.5
  0
LTYPE
  2
dashed_spaced
 70
   64
  3
----        --------        ----
 72
   65
 73
    2
 40
12
 49
6
 49
-6
  0
LTYPE
  2
long_dashed_dotted
 70
   64
  3
------------- --- --------------
 72
   65
 73
    4
 40
15.25
 49
12
 49
-1.5
 49
0.25
 49
-1.5
  0
LTYPE
  2
long_dashed_double-dotted
 70
   64
  3
----------- --- --- ------------
 72
   65
 73
    6
 40
17
 49
12
 49
-1.5
 49
0.25
 49
-1.5
 49
0.25
 49
-1.5
  0
LTYPE
  2
long_dashed_triplicate-dotted
 70
   64
  3
--------- --- --- --- ----------
 72
   65
 73
    8
 40
18.75
 49
12
 49
-1.5
 49
0.25
 49
-1.5
 49
0.25
 49
-1.5
 49
0.25
 49
-1.5
  0
LTYPE
  2
dotted
 70
   64
  3
   -       -       -       -    
 72
   65
 73
    2
 40
1.75
 49
0.25
 49
-1.5
  0
LTYPE
  2
chain
 70
   64
  3
-------------- -- --------------
 72
   65
 73
    4
 40
18.5
 49
12
 49
-1.5
 49
3.5
 49
-1.5
  0
LTYPE
  2
chain_double_dash
 70
   64
  3
------------ -- -- -------------
 72
   65
 73
    6
 40
23.5
 49
12
 49
-1.5
 49
3.5
 49
-1.5
 49
3.5
 49
-1.5
  0
LTYPE
  2
dashed_dotted
 70
   64
  3
-----------     -     ----------
 72
   65
 73
    4
 40
9.25
 49
6
 49
-1.5
 49
0.25
 49
-1.5
  0
LTYPE
  2
double-dashed_dotted
 70
   64
  3
------   -----------   -   -----
 72
   65
 73
    6
 40
16.75
 49
6
 49
-1.5
 49
6
 49
-1.5
 49
0.25
 49
-1.5
  0
LTYPE
  2
dashed_double-dotted
 70
   64
  3
---------    -    -    ---------
 72
   65
 73
    6
 40
11
 49
6
 49
-1.5
 49
0.25
 49
-1.5
 49
0.25
 49
-1.5
  0
LTYPE
  2
double-dashed_double-dotted
 70
   64
  3
-----   ---------   -   -   ----
 72
   65
 73
    8
 40
18.5
 49
6
 49
-1.5
 49
6
 49
-1.5
 49
0.25
 49
-1.5
 49
0.25
 49
-1.5
  0
LTYPE
  2
dashed_triplicate-dotted
 70
   64
  3
-------    -    -    -    ------
 72
   65
 73
    8
 40
12.75
 49
6
 49
-1.5
 49
0.25
 49
-1.5
 49
0.25
 49
-1.5
 49
0.25
 49
-1.5
  0
LTYPE
  2
double-dashed_triplicate-dotted
 70
   64
  3
-----  ---------  -  -  -  -----
 72
   65
 73
   10
 40
20.25
 49
6
 49
-1.5
 49
6
 49
-1.5
 49
0.25
 49
-1.5
 49
0.25
 49
-1.5
 49
0.25
 49
-1.5
  0
LTYPE
  2
undefined
 70
   64
  3
--------------------------------
 72
   65
 73
    0
 40
0
  0
ENDTAB
  0
TABLE
  2
STYLE
  5
3
100
AcDbSymbolTable
 70
     1
  0
STYLE
  5
10
100
AcDbSymbolTableRecord
100
AcDbTextStyleTableRecord
  2
STANDARD
 70
     0
 40
0.0
 41
1.0
 50
0.0
 71
     0
 42
0.2
  3
txt
  4
bigfont.shx
  0
STYLE
  5
26
100
AcDbSymbolTableRecord
100
AcDbTextStyleTableRecord
  2
TATEGAKI
 70
    68
 40
0.0
 41
1.0
 50
0.0
 71
     0
 42
1.0
  3
txt
  4
bigfont.shx
  0
ENDTAB
  0
TABLE
  2
LAYER
 70
   12
  0
LAYER
  2
_0-1_線色１__水色__
 70
   64
 62
    7
  6
CONTINUOUS
  0
LAYER
  2
_0-2_線色２__白__
 70
   64
 62
    7
  6
CONTINUOUS
  0
LAYER
  2
_0-3_線色３__緑__
 70
   64
 62
    7
  6
CONTINUOUS
  0
LAYER
  2
_0-4_線色４__黄__
 70
   64
 62
    7
  6
CONTINUOUS
  0
LAYER
  2
_0-5_金属
 70
   64
 62
    7
  6
CONTINUOUS
  0
LAYER
  2
_0-6_鋼板__アングル
 70
   64
 62
    7
  6
CONTINUOUS
  0
LAYER
  2
_0-7_ビス
 70
   64
 62
    7
  6
CONTINUOUS
  0
LAYER
  2
_0-a_文字
 70
   64
 62
    7
  6
CONTINUOUS
  0
LAYER
  2
_0-d_断熱__ハッチ
 70
   64
 62
    7
  6
CONTINUOUS
  0
LAYER
  2
_f-0_
 70
   64
 62
    7
  6
CONTINUOUS
  0
LAYER
  2
_f-f_
 70
   64
 62
    7
  6
CONTINUOUS
  0
LAYER
  2
ADD_LINE
 70
   64
 62
    7
  6
CONTINUOUS
  0
ENDTAB
  0
ENDSEC
  0
SECTION
  2
BLOCKS
  0
ENDSEC
  0
SECTION
  2
ENTITIES
  0
LINE
  8
_f-0_
  6
CONTINUOUS
 62
  136
 10
1714.9999999999989
 20
1192.5
 11
385
 21
1192.5
  0
LINE
  8
_f-0_
  6
CONTINUOUS
 62
  136
 10
385
 20
277.50000000000341
 11
1714.9999999999989
 21
277.50000000000341
  0
LINE
  8
_f-0_
  6
CONTINUOUS
 62
  136
 10
385
 20
1192.5
 11
385
 21
277.50000000000341
  0
LINE
  8
_f-0_
  6
CONTINUOUS
 62
  136
 10
1714.9999999999989
 20
1192.5
 11
1714.9999999999989
 21
277.50000000000341
  0
LINE
  8
_f-0_
  6
CONTINUOUS
 62
    6
 10
1714.9999999999989
 20
1152.5
 11
385
 21
1152.5
  0
LINE
  8
_f-f_
  6
CONTINUOUS
 62
    9
 10
310
 20
217.5
 11
310
 21
1267.5
  0
LINE
  8
_f-f_
  6
CONTINUOUS
 62
    9
 10
1790
 20
217.5
 11
310
 21
217.5
  0
LINE
  8
_f-f_
  6
CONTINUOUS
 62
    9
 10
1790
 20
1267.5
 11
310
 21
1267.5
  0
LINE
  8
_f-f_
  6
CONTINUOUS
 62
    9
 10
1790
 20
1267.5
 11
1790
 21
217.5
  0
LINE
  8
ADD_LINE
  6
DOT
 62
  136
 10
1764.9999999999989
 20
1242.5
 11
335
 21
1242.5
  0
LINE
  8
ADD_LINE
  6
DOT
 62
  136
 10
335
 20
242.50000000000227
 11
335
 21
1242.5
  0
LINE
  8
ADD_LINE
  6
DOT
 62
  136
 10
1765
 20
1242.5
 11
1765
 21
242.5
  0
LINE
  8
ADD_LINE
  6
DOT
 62
  136
 10
1765
 20
242.5
 11
335.00000000000114
 21
242.5
  0
LINE
  8
_0-2_線色２__白__
  6
CONTINUOUS
 62
    7
 10
1040.8351153683566
 20
645.52067499970292
 11
1034.4483295621251
 21
645.52067499970292
  0
LINE
  8
_0-2_線色２__白__
  6
CONTINUOUS
 62
    7
 10
1034.4483295621251
 20
645.52067499970292
 11
1047.2219011745892
 21
667.64515002661199
  0
LINE
  8
_0-2_線色２__白__
  6
CONTINUOUS
 62
    7
 10
1047.2219011745892
 20
667.64515002661199
 11
1040.8351153683577
 21
667.64515002661199
  0
LINE
  8
_0-2_線色２__白__
  6
CONTINUOUS
 62
    7
 10
1053.0851153683568
 20
645.52067499970292
 11
1046.6983295621242
 21
645.52067499970292
  0
LINE
  8
_0-2_線色２__白__
  6
CONTINUOUS
 62
    7
 10
1046.6983295621242
 20
645.52067499970292
 11
1059.4719011745894
 21
667.64515002661199
  0
LINE
  8
_0-2_線色２__白__
  6
CONTINUOUS
 62
    7
 10
1059.4719011745894
 20
667.64515002661199
 11
1053.0851153683579
 21
667.64515002661199
  0
ARC
  8
_0-1_線色１__水色__
  6
CONTINUOUS
 62
    4
 10
1038.5472172623247
 20
677.54124585037232
 40
1.2083333333333581
 50
307.52351320333912
 51
232.47648680464988
  0
ARC
  8
_0-1_線色１__水色__
  6
CONTINUOUS
 62
    4
 10
1020.8836955302479
 20
677.54124584973908
 40
1.2083333333333581
 50
307.52351320333912
 51
232.47648680464988
  0
ARC
  8
_0-1_線色１__水色__
  6
CONTINUOUS
 62
    4
 10
1022.3556556747246
 20
675.62457918313896
 40
1.2083333333333179
 50
127.52351320610693
 51
52.47648680188081
  0
ARC
  8
_0-1_線色１__水色__
  6
CONTINUOUS
 62
    4
 10
1017.939775241565
 20
677.54124584953331
 40
1.2083333333333581
 50
307.52351320333912
 51
232.47648680464988
  0
ARC
  8
_0-1_線色１__水色__
  6
CONTINUOUS
 62
    4
 10
1019.4117353860395
 20
675.62457918293433
 40
1.2083333333333179
 50
127.52351320610693
 51
52.47648680188081
  0
ARC
  8
_0-1_線色１__水色__
  6
CONTINUOUS
 62
    4
 10
1014.9958549528822
 20
677.54124584932867
 40
1.2083333333333581
 50
307.52351320333912
 51
232.47648680464988
  0
ARC
  8
_0-1_線色１__水色__
  6
CONTINUOUS
 62
    4
 10
1016.4678150973566
 20
675.62457918272855
 40
1.2083333333333179
 50
127.52351320610693
 51
52.47648680188081
  0
ARC
  8
_0-1_線色１__水色__
  6
CONTINUOUS
 62
    4
 10
1013.5238948086737
 20
675.62457918252392
 40
1.2083333333333179
 50
127.52351320610693
 51
52.47648680188081
  0
ARC
  8
_0-1_線色１__水色__
  6
CONTINUOUS
 62
    4
 10
1025.2995759634075
 20
675.62457918272855
 40
1.2083333333333179
 50
127.52351320610693
 51
52.47648680188081
  0
ARC
  8
_0-1_線色１__水色__
  6
CONTINUOUS
 62
    4
 10
1023.8276158189308
 20
677.54124584932867
 40
1.2083333333333581
 50
307.52351320333912
 51
232.47648680464988
  0
ARC
  8
_0-1_線色１__水色__
  6
CONTINUOUS
 62
    4
 10
1035.6032969736646
 20
677.54124585014949
 40
1.2083333333333581
 50
307.52351320333912
 51
232.47648680464988
  0
ARC
  8
_0-1_線色１__水色__
  6
CONTINUOUS
 62
    4
 10
1032.6593766849817
 20
677.54124584994372
 40
1.2083333333333581
 50
307.52351320333912
 51
232.47648680464988
  0
ARC
  8
_0-1_線色１__水色__
  6
CONTINUOUS
 62
    4
 10
1034.1313368294561
 20
675.62457918334474
 40
1.2083333333333179
 50
127.52351320610693
 51
52.47648680188081
  0
ARC
  8
_0-1_線色１__水色__
  6
CONTINUOUS
 62
    4
 10
1029.7154563962988
 20
677.54124584973908
 40
1.2083333333333581
 50
307.52351320333912
 51
232.47648680464988
  0
ARC
  8
_0-1_線色１__水色__
  6
CONTINUOUS
 62
    4
 10
1028.2434962520904
 20
675.62457918293433
 40
1.2083333333333179
 50
127.52351320610693
 51
52.47648680188081
  0
ARC
  8
_0-1_線色１__水色__
  6
CONTINUOUS
 62
    4
 10
1031.1874165407733
 20
675.62457918313896
 40
1.2083333333333179
 50
127.52351320610693
 51
52.47648680188081
  0
ARC
  8
_0-1_線色１__水色__
  6
CONTINUOUS
 62
    4
 10
1026.7715361076137
 20
677.54124584953331
 40
1.2083333333333581
 50
307.52351320333912
 51
232.47648680464988
  0
ARC
  8
_0-1_線色１__水色__
  6
CONTINUOUS
 62
    4
 10
1037.075257118139
 20
675.62457918354937
 40
1.2083333333333179
 50
127.52351320610693
 51
52.47648680188081
  0
ARC
  8
_0-1_線色１__水色__
  6
CONTINUOUS
 62
    4
 10
1009.1080143754914
 20
677.54124585264719
 40
1.2083333333333581
 50
307.52351320333912
 51
232.47648680464988
  0
ARC
  8
_0-1_線色１__水色__
  6
CONTINUOUS
 62
    4
 10
1007.636054231283
 20
675.62457918584244
 40
1.2083333333333179
 50
127.52351320610693
 51
52.47648680188081
  0
ARC
  8
_0-1_線色１__水色__
  6
CONTINUOUS
 62
    4
 10
1010.5799745199681
 20
675.62457918604707
 40
1.2083333333333179
 50
127.52351320610693
 51
52.47648680188081
  0
ARC
  8
_0-1_線色１__水色__
  6
CONTINUOUS
 62
    4
 10
1006.1640940868085
 20
677.54124585244142
 40
1.2083333333333581
 50
307.52351320333912
 51
232.47648680464988
  0
ARC
  8
_0-1_線色１__水色__
  6
CONTINUOUS
 62
    4
 10
1003.2201737981484
 20
677.54124585221859
 40
1.2083333333333581
 50
307.52351320333912
 51
232.47648680464988
  0
ARC
  8
_0-1_線色１__水色__
  6
CONTINUOUS
 62
    4
 10
1000.2762535094655
 20
677.54124585201396
 40
1.2083333333333581
 50
307.52351320333912
 51
232.47648680464988
  0
ARC
  8
_0-1_線色１__水色__
  6
CONTINUOUS
 62
    4
 10
1001.74821365394
 20
675.62457918541384
 40
1.2083333333333179
 50
127.52351320610693
 51
52.47648680188081
  0
ARC
  8
_0-1_線色１__水色__
  6
CONTINUOUS
 62
    4
 10
1004.6921339426228
 20
675.62457918561961
 40
1.2083333333333179
 50
127.52351320610693
 51
52.47648680188081
  0
ARC
  8
_0-1_線色１__水色__
  6
CONTINUOUS
 62
    4
 10
1012.0519346641743
 20
677.54124585285183
 40
1.2083333333333581
 50
307.52351320333912
 51
232.47648680464988
  0
ARC
  8
_0-1_線色１__水色__
  6
CONTINUOUS
 62
    4
 10
816.28123546695747
 20
675.62457918293433
 40
1.2083333333333179
 50
267.27680329960265
 51
52.476486801880824
  0
LINE
  8
_0-2_線色２__白__
  6
CONTINUOUS
 62
    7
 10
865.16509206942715
 20
684.08291251315688
 11
873.00315798460701
 21
684.08291251315688
  0
LINE
  8
_0-2_線色２__白__
  6
CONTINUOUS
 62
    7
 10
861.11374349347102
 20
687.53406130008273
 11
865.16509206942715
 21
684.08291251315688
  0
LINE
  8
_0-2_線色２__白__
  6
CONTINUOUS
 62
    7
 10
814.30914526836318
 20
687.53406130008273
 11
861.11374349347102
 21
687.53406130008273
  0
LINE
  8
_0-2_線色２__白__
  6
CONTINUOUS
 62
    7
 10
867.00602591767506
 20
689.08291251315688
 11
867.02424470519759
 21
689.21381745983865
  0
LINE
  8
_0-2_線色２__白__
  6
CONTINUOUS
 62
    7
 10
867.02424470519759
 20
689.21381745983865
 11
867.05731148485825
 21
689.43889139485748
  0
LINE
  8
_0-2_線色２__白__
  6
CONTINUOUS
 62
    7
 10
867.05731148485825
 20
689.43889139485748
 11
867.09497570072358
 21
689.66223130511537
  0
LINE
  8
_0-2_線色２__白__
  6
CONTINUOUS
 62
    7
 10
867.09497570072358
 20
689.66223130511537
 11
867.1401471225488
 21
689.88273970658668
  0
LINE
  8
_0-2_線色２__白__
  6
CONTINUOUS
 62
    7
 10
867.1401471225488
 20
689.88273970658668
 11
867.19573552007773
 21
690.09931911524347
  0
LINE
  8
_0-2_線色２__白__
  6
CONTINUOUS
 62
    7
 10
867.19573552007773
 20
690.09931911524347
 11
867.26465066306787
 21
690.31087204706239
  0
LINE
  8
_0-2_線色２__白__
  6
CONTINUOUS
 62
    7
 10
867.26465066306787
 20
690.31087204706239
 11
867.31187436136111
 21
690.4308371500548
  0
LINE
  8
_0-2_線色２__白__
  6
CONTINUOUS
 62
    7
 10
867.31187436136111
 20
690.4308371500548
 11
867.35281542262442
 21
690.52295398964645
  0
LINE
  8
_0-2_線色２__白__
  6
CONTINUOUS
 62
    7
 10
867.35281542262442
 20
690.52295398964645
 11
867.43123059530603
 21
690.67866829265824
  0
LINE
  8
_0-2_線色２__白__
  6
CONTINUOUS
 62
    7
 10
867.43123059530603
 20
690.67866829265824
 11
867.51833760963223
 21
690.83067189554015
  0
LINE
  8
_0-2_線色２__白__
  6
CONTINUOUS
 62
    7
 10
867.51833760963223
 20
690.83067189554015
 11
867.61272259877956
 21
690.97922441134017
  0
LINE
  8
_0-2_線色２__白__
  6
CONTINUOUS
 62
    7
 10
867.61272259877956
 20
690.97922441134017
 11
867.71297169592458
 21
691.12458545311085
  0
LINE
  8
_0-2_線色２__白__
  6
CONTINUOUS
 62
    7
 10
867.71297169592458
 20
691.12458545311085
 11
867.81767103424158
 21
691.26701463390702
  0
LINE
  8
_0-2_線色２__白__
  6
CONTINUOUS
 62
    7
 10
867.81767103424158
 20
691.26701463390702
 11
867.87987861392025
 21
691.34838248111294
  0
LINE
  8
_0-2_線色２__白__
  6
CONTINUOUS
 62
    7
 10
867.87987861392025
 20
691.34838248111294
 11
867.95409488785594
 21
691.44306607391457
  0
LINE
  8
_0-2_線色２__白__
  6
CONTINUOUS
 62
    7
 10
867.95409488785594
 20
691.44306607391457
 11
868.08431982795923
 21
691.60378486777802
  0
LINE
  8
_0-2_線色２__白__
  6
CONTINUOUS
 62
    7
 10
868.08431982795923
 20
691.60378486777802
 11
868.21717164718052
 21
691.76165163016833
  0
LINE
  8
_0-2_線色２__白__
  6
CONTINUOUS
 62
    7
 10
868.21717164718052
 20
691.76165163016833
 11
868.35236978530816
 21
691.91707212363383
  0
LINE
  8
_0-2_線色２__白__
  6
CONTINUOUS
 62
    7
 10
868.35236978530816
 20
691.91707212363383
 11
868.48963368213276
 21
692.07045211072284
  0
LINE
  8
_0-2_線色２__白__
  6
CONTINUOUS
 62
    7
 10
868.48963368213276
 20
692.07045211072284
 11
868.62868277744042
 21
692.22219735397687
  0
LINE
  8
_0-2_線色２__白__
  6
CONTINUOUS
 62
    7
 10
868.62868277744042
 20
692.22219735397687
 11
868.71003867535251
 21
692.30962044698401
  0
LINE
  8
_0-2_線色２__白__
  6
CONTINUOUS
 62
    7
 10
868.71003867535251
 20
692.30962044698401
 11
868.79567374876729
 21
692.40069062138275
  0
LINE
  8
_0-2_線色２__白__
  6
CONTINUOUS
 62
    7
 10
868.79567374876729
 20
692.40069062138275
 11
868.94487110707473
 21
692.55639237021398
  0
LINE
  8
_0-2_線色２__白__
  6
CONTINUOUS
 62
    7
 10
868.94487110707473
 20
692.55639237021398
 11
869.09662132064454
 21
692.70973834861536
  0
LINE
  8
_0-2_線色２__白__
  6
CONTINUOUS
 62
    7
 10
869.09662132064454
 20
692.70973834861536
 11
869.25161040014814
 21
692.85992598753467
  0
LINE
  8
_0-2_線色２__白__
  6
CONTINUOUS
 62
    7
 10
869.25161040014814
 20
692.85992598753467
 11
869.41052435625465
 21
693.00615271793333
  0
LINE
  8
_0-2_線色２__白__
  6
CONTINUOUS
 62
    7
 10
869.41052435625465
 20
693.00615271793333
 11
869.57404919963551
 21
693.14761597075915
  0
LINE
  8
_0-2_線色２__白__
  6
CONTINUOUS
 62
    7
 10
869.57404919963551
 20
693.14761597075915
 11
869.67127664122359
 21
693.22716577803988
  0
LINE
  8
_0-2_線色２__白__
  6
CONTINUOUS
 62
    7
 10
869.67127664122359
 20
693.22716577803988
 11
869.75893034076648
 21
693.29589113053601
  0
LINE
  8
_0-2_線色２__白__
  6
CONTINUOUS
 62
    7
 10
869.75893034076648
 20
693.29589113053601
 11
869.91354344068554
 21
693.41010389833684
  0
LINE
  8
_0-2_線色２__白__
  6
CONTINUOUS
 62
    7
 10
869.91354344068554
 20
693.41010389833684
 11
870.07250858387465
 21
693.51807658726841
  0
LINE
  8
_0-2_線色２__白__
  6
CONTINUOUS
 62
    7
 10
870.07250858387465
 20
693.51807658726841
 11
870.23575524110242
 21
693.61885181869468
  0
LINE
  8
_0-2_線色２__白__
  6
CONTINUOUS
 62
    7
 10
870.23575524110242
 20
693.61885181869468
 11
870.40321288313294
 21
693.71147221397962
  0
LINE
  8
_0-2_線色２__白__
  6
CONTINUOUS
 62
    7
 10
870.40321288313294
 20
693.71147221397962
 11
870.57481098073708
 21
693.79498039449174
  0
LINE
  8
_0-2_線色２__白__
  6
CONTINUOUS
 62
    7
 10
870.57481098073708
 20
693.79498039449174
 11
870.67620724190533
 21
693.83886266541197
  0
LINE
  8
_0-2_線色２__白__
  6
CONTINUOUS
 62
    7
 10
870.67620724190533
 20
693.83886266541197
 11
870.79011273464516
 21
693.8833913786749
  0
LINE
  8
_0-2_線色２__白__
  6
CONTINUOUS
 62
    7
 10
870.79011273464516
 20
693.8833913786749
 11
870.99000119250036
 21
693.95070200708972
  0
LINE
  8
_0-2_線色２__白__
  6
CONTINUOUS
 62
    7
 10
870.99000119250036
 20
693.95070200708972
 11
871.19370329135677
 21
694.00730555858729
  0
LINE
  8
_0-2_線色２__白__
  6
CONTINUOUS
 62
    7
 10
871.19370329135677
 20
694.00730555858729
 11
871.40050236816592
 21
694.05468043231906
  0
LINE
  8
_0-2_線色２__白__
  6
CONTINUOUS
 62
    7
 10
871.40050236816592
 20
694.05468043231906
 11
871.60968175987477
 21
694.09430502742737
  0
LINE
  8
_0-2_線色２__白__
  6
CONTINUOUS
 62
    7
 10
871.60968175987477
 20
694.09430502742737
 11
871.82052480343032
 21
694.12765774306365
  0
LINE
  8
_0-2_線色２__白__
  6
CONTINUOUS
 62
    7
 10
871.82052480343032
 20
694.12765774306365
 11
871.94329365146018
 21
694.14471110909801
  0
LINE
  8
_0-2_線色２__白__
  6
CONTINUOUS
 62
    7
 10
871.94329365146018
 20
694.14471110909801
 11
872.09175062154486
 21
694.16342810836625
  0
LINE
  8
_0-2_線色２__白__
  6
CONTINUOUS
 62
    7
 10
872.09175062154486
 20
694.16342810836625
 11
872.34807088682942
 21
694.19033486945466
  0
LINE
  8
_0-2_線色２__白__
  6
CONTINUOUS
 62
    7
 10
872.34807088682942
 20
694.19033486945466
 11
872.60446621541064
 21
694.20919311675391
  0
LINE
  8
_0-2_線色２__白__
  6
CONTINUOUS
 62
    7
 10
872.60446621541064
 20
694.20919311675391
 11
872.86049405204153
 21
694.21853920793922
  0
LINE
  8
_0-2_線色２__白__
  6
CONTINUOUS
 62
    7
 10
872.86049405204153
 20
694.21853920793922
 11
873.1157118414751
 21
694.21690950069262
  0
LINE
  8
_0-2_線色２__白__
  6
CONTINUOUS
 62
    7
 10
873.1157118414751
 20
694.21690950069262
 11
873.36967702846664
 21
694.20284035268935
  0
LINE
  8
_0-2_線色２__白__
  6
CONTINUOUS
 62
    7
 10
873.36967702846664
 20
694.20284035268935
 11
873.51622850470335
 21
694.18840374391095
  0
LINE
  8
_0-2_線色２__白__
  6
CONTINUOUS
 62
    7
 10
873.51622850470335
 20
694.18840374391095
 11
873.62357269626841
 21
694.1747139578257
  0
LINE
  8
_0-2_線色２__白__
  6
CONTINUOUS
 62
    7
 10
873.62357269626841
 20
694.1747139578257
 11
873.80802275703786
 21
694.14575432658523
  0
LINE
  8
_0-2_線色２__白__
  6
CONTINUOUS
 62
    7
 10
873.80802275703786
 20
694.14575432658523
 11
873.99199361447813
 21
694.11143884504611
  0
LINE
  8
_0-2_線色２__白__
  6
CONTINUOUS
 62
    7
 10
873.99199361447813
 20
694.11143884504611
 11
874.17584965033598
 21
694.07342401901872
  0
LINE
  8
_0-2_線色２__白__
  6
CONTINUOUS
 62
    7
 10
874.17584965033598
 20
694.07342401901872
 11
874.35995524635814
 21
694.03336635431117
  0
LINE
  8
_0-2_線色２__白__
  6
CONTINUOUS
 62
    7
 10
874.35995524635814
 20
694.03336635431117
 11
874.54467478428455
 21
693.99292235673613
  0
LINE
  8
_0-2_線色２__白__
  6
CONTINUOUS
 62
    7
 10
874.54467478428455
 20
693.99292235673613
 11
874.65223700982165
 21
693.96994056984852
  0
LINE
  8
_0-2_線色２__白__
  6
CONTINUOUS
 62
    7
 10
874.65223700982165
 20
693.96994056984852
 11
874.77434824114994
 21
693.94466684834981
  0
LINE
  8
_0-2_線色２__白__
  6
CONTINUOUS
 62
    7
 10
874.77434824114994
 20
693.94466684834981
 11
874.98514626471319
 21
693.90131733211604
  0
LINE
  8
_0-2_線色２__白__
  6
CONTINUOUS
 62
    7
 10
874.98514626471319
 20
693.90131733211604
 11
875.19485148855097
 21
693.85518417396781
  0
LINE
  8
_0-2_線色２__白__
  6
CONTINUOUS
 62
    7
 10
875.19485148855097
 20
693.85518417396781
 11
875.40180843781741
 21
693.80269813226334
  0
LINE
  8
_0-2_線色２__白__
  6
CONTINUOUS
 62
    7
 10
875.40180843781741
 20
693.80269813226334
 11
875.60436163767349
 21
693.74028996536538
  0
LINE
  8
_0-2_線色２__白__
  6
CONTINUOUS
 62
    7
 10
875.60436163767349
 20
693.74028996536538
 11
875.80085561327337
 21
693.66439043162984
  0
LINE
  8
_0-2_線色２__白__
  6
CONTINUOUS
 62
    7
 10
875.80085561327337
 20
693.66439043162984
 11
875.9113934393929
 21
693.61278049097393
  0
LINE
  8
_0-2_線色２__白__
  6
CONTINUOUS
 62
    7
 10
875.9113934393929
 20
693.61278049097393
 11
876.01071567057375
 21
693.55969501905122
  0
LINE
  8
_0-2_線色２__白__
  6
CONTINUOUS
 62
    7
 10
876.01071567057375
 20
693.55969501905122
 11
876.17613958576271
 21
693.45640873795276
  0
LINE
  8
_0-2_線色２__白__
  6
CONTINUOUS
 62
    7
 10
876.17613958576271
 20
693.45640873795276
 11
876.33419115712172
 21
693.33985910622062
  0
LINE
  8
_0-2_線色２__白__
  6
CONTINUOUS
 62
    7
 10
876.33419115712172
 20
693.33985910622062
 11
876.48486620353992
 21
693.21193243290566
  0
LINE
  8
_0-2_線色２__白__
  6
CONTINUOUS
 62
    7
 10
876.48486620353992
 20
693.21193243290566
 11
876.62816054390646
 21
693.07451502705874
  0
LINE
  8
_0-2_線色２__白__
  6
CONTINUOUS
 62
    7
 10
876.62816054390646
 20
693.07451502705874
 11
876.76406999711048
 21
692.92949319772845
  0
LINE
  8
_0-2_線色２__白__
  6
CONTINUOUS
 62
    7
 10
876.76406999711048
 20
692.92949319772845
 11
876.83951207709583
 21
692.84263949373155
  0
LINE
  8
_0-2_線色２__白__
  6
CONTINUOUS
 62
    7
 10
876.83951207709583
 20
692.84263949373155
 11
876.92380710146722
 21
692.74007210573984
  0
LINE
  8
_0-2_線色２__白__
  6
CONTINUOUS
 62
    7
 10
876.92380710146722
 20
692.74007210573984
 11
877.06197896073604
 21
692.55878709600495
  0
LINE
  8
_0-2_線色２__白__
  6
CONTINUOUS
 62
    7
 10
877.06197896073604
 20
692.55878709600495
 11
877.19208922775465
 21
692.37256242138358
  0
LINE
  8
_0-2_線色２__白__
  6
CONTINUOUS
 62
    7
 10
877.19208922775465
 20
692.37256242138358
 11
877.31530912974108
 21
692.18219636029346
  0
LINE
  8
_0-2_線色２__白__
  6
CONTINUOUS
 62
    7
 10
877.31530912974108
 20
692.18219636029346
 11
877.4328098939111
 21
691.98848719115006
  0
LINE
  8
_0-2_線色２__白__
  6
CONTINUOUS
 62
    7
 10
877.4328098939111
 20
691.98848719115006
 11
877.54576274747819
 21
691.79223319236883
  0
LINE
  8
_0-2_線色２__白__
  6
CONTINUOUS
 62
    7
 10
877.54576274747819
 20
691.79223319236883
 11
877.60965307433821
 21
691.67755439534005
  0
LINE
  8
_0-2_線色２__白__
  6
CONTINUOUS
 62
    7
 10
877.60965307433821
 20
691.67755439534005
 11
877.676920441844
 21
691.55448780320341
  0
LINE
  8
_0-2_線色２__白__
  6
CONTINUOUS
 62
    7
 10
877.676920441844
 20
691.55448780320341
 11
877.79090168305288
 21
691.34128104683498
  0
LINE
  8
_0-2_線色２__白__
  6
CONTINUOUS
 62
    7
 10
877.79090168305288
 20
691.34128104683498
 11
877.90301623141772
 21
691.12698404729883
  0
LINE
  8
_0-2_線色２__白__
  6
CONTINUOUS
 62
    7
 10
877.90301623141772
 20
691.12698404729883
 11
878.01403284066396
 21
690.91183478622327
  0
LINE
  8
_0-2_線色２__白__
  6
CONTINUOUS
 62
    7
 10
878.01403284066396
 20
690.91183478622327
 11
878.12472026452383
 21
690.69607124524339
  0
LINE
  8
_0-2_線色２__白__
  6
CONTINUOUS
 62
    7
 10
878.12472026452383
 20
690.69607124524339
 11
878.23584725672049
 21
690.47993140598749
  0
LINE
  8
_0-2_線色２__白__
  6
CONTINUOUS
 62
    7
 10
878.23584725672049
 20
690.47993140598749
 11
878.30080525135031
 21
690.35449165648799
  0
LINE
  8
_0-2_線色２__白__
  6
CONTINUOUS
 62
    7
 10
878.30080525135031
 20
690.35449165648799
 11
878.38921870552781
 21
690.18566347348099
  0
LINE
  8
_0-2_線色２__白__
  6
CONTINUOUS
 62
    7
 10
878.38921870552781
 20
690.18566347348099
 11
878.54572352145738
 21
689.89626770759344
  0
LINE
  8
_0-2_線色２__白__
  6
CONTINUOUS
 62
    7
 10
878.54572352145738
 20
689.89626770759344
 11
878.70994511468439
 21
689.61155953134096
  0
LINE
  8
_0-2_線色２__白__
  6
CONTINUOUS
 62
    7
 10
878.70994511468439
 20
689.61155953134096
 11
878.88486910207007
 21
689.33450610332386
  0
LINE
  8
_0-2_線色２__白__
  6
CONTINUOUS
 62
    7
 10
878.88486910207007
 20
689.33450610332386
 11
879.0734811004711
 21
689.06807458213791
  0
LINE
  8
_0-2_線色２__白__
  6
CONTINUOUS
 62
    7
 10
879.0734811004711
 20
689.06807458213791
 11
879.27876672674415
 21
688.81523212637887
  0
LINE
  8
_0-2_線色２__白__
  6
CONTINUOUS
 62
    7
 10
879.27876672674415
 20
688.81523212637887
 11
879.40664873457195
 21
688.67597922659854
  0
LINE
  8
_0-2_線色２__白__
  6
CONTINUOUS
 62
    7
 10
879.40664873457195
 20
688.67597922659854
 11
879.45286390687556
 21
688.62887422068809
  0
LINE
  8
_0-2_線色２__白__
  6
CONTINUOUS
 62
    7
 10
879.45286390687556
 20
688.62887422068809
 11
879.53456316841653
 21
688.54952912565352
  0
LINE
  8
_0-2_線色２__白__
  6
CONTINUOUS
 62
    7
 10
879.53456316841653
 20
688.54952912565352
 11
879.61876556074571
 21
688.47272901621238
  0
LINE
  8
_0-2_線色２__白__
  6
CONTINUOUS
 62
    7
 10
879.61876556074571
 20
688.47272901621238
 11
879.7054115362414
 21
688.39868011288502
  0
LINE
  8
_0-2_線色２__白__
  6
CONTINUOUS
 62
    7
 10
879.7054115362414
 20
688.39868011288502
 11
879.7944415472773
 21
688.32758863619631
  0
LINE
  8
_0-2_線色２__白__
  6
CONTINUOUS
 62
    7
 10
879.7944415472773
 20
688.32758863619631
 11
879.88579604622942
 21
688.2596608066666
  0
LINE
  8
_0-2_線色２__白__
  6
CONTINUOUS
 62
    7
 10
879.88579604622942
 20
688.2596608066666
 11
879.93982327112349
 21
688.22179351027728
  0
LINE
  8
_0-2_線色２__白__
  6
CONTINUOUS
 62
    7
 10
879.93982327112349
 20
688.22179351027728
 11
880.02942468221249
 21
688.16250081989722
  0
LINE
  8
_0-2_線色２__白__
  6
CONTINUOUS
 62
    7
 10
880.02942468221249
 20
688.16250081989722
 11
880.18761612638286
 21
688.0660875557038
  0
LINE
  8
_0-2_線色２__白__
  6
CONTINUOUS
 62
    7
 10
880.18761612638286
 20
688.0660875557038
 11
880.34902741341625
 21
687.97475914663266
  0
LINE
  8
_0-2_線色２__白__
  6
CONTINUOUS
 62
    7
 10
880.34902741341625
 20
687.97475914663266
 11
880.51194736170714
 21
687.88586843818223
  0
LINE
  8
_0-2_線色２__白__
  6
CONTINUOUS
 62
    7
 10
880.51194736170714
 20
687.88586843818223
 11
880.67466478966139
 21
687.79676827584638
  0
LINE
  8
_0-2_線色２__白__
  6
CONTINUOUS
 62
    7
 10
880.67466478966139
 20
687.79676827584638
 11
880.83546851567348
 21
687.70481150512126
  0
LINE
  8
_0-2_線色２__白__
  6
CONTINUOUS
 62
    7
 10
880.83546851567348
 20
687.70481150512126
 11
880.92718352399856
 21
687.64912456360946
  0
LINE
  8
_0-2_線色２__白__
  6
CONTINUOUS
 62
    7
 10
880.92718352399856
 20
687.64912456360946
 11
881.019594516398
 21
687.58975979373702
  0
LINE
  8
_0-2_線色２__白__
  6
CONTINUOUS
 62
    7
 10
881.019594516398
 20
687.58975979373702
 11
881.17553751855098
 21
687.48225803196931
  0
LINE
  8
_0-2_線色２__白__
  6
CONTINUOUS
 62
    7
 10
881.17553751855098
 20
687.48225803196931
 11
881.32786006077481
 21
687.36927484199953
  0
LINE
  8
_0-2_線色２__白__
  6
CONTINUOUS
 62
    7
 10
881.32786006077481
 20
687.36927484199953
 11
881.47733654950912
 21
687.252014789604
  0
LINE
  8
_0-2_線色２__白__
  6
CONTINUOUS
 62
    7
 10
881.47733654950912
 20
687.252014789604
 11
881.62474139120263
 21
687.1316824405568
  0
LINE
  8
_0-2_線色２__白__
  6
CONTINUOUS
 62
    7
 10
881.62474139120263
 20
687.1316824405568
 11
881.77084899229726
 21
687.00948236063198
  0
LINE
  8
_0-2_線色２__白__
  6
CONTINUOUS
 62
    7
 10
881.77084899229726
 20
687.00948236063198
 11
881.8553021617015
 21
686.93822518153922
  0
LINE
  8
_0-2_線色２__白__
  6
CONTINUOUS
 62
    7
 10
881.8553021617015
 20
686.93822518153922
 11
881.96114402531862
 21
686.84874459763762
  0
LINE
  8
_0-2_線色２__白__
  6
CONTINUOUS
 62
    7
 10
881.96114402531862
 20
686.84874459763762
 11
882.14271680362913
 21
686.69366154384363
  0
LINE
  8
_0-2_線色２__白__
  6
CONTINUOUS
 62
    7
 10
882.14271680362913
 20
686.69366154384363
 11
882.32189145625512
 21
686.53627237560215
  0
LINE
  8
_0-2_線色２__白__
  6
CONTINUOUS
 62
    7
 10
882.32189145625512
 20
686.53627237560215
 11
882.4972235824805
 21
686.37508217767675
  0
LINE
  8
_0-2_線色２__白__
  6
CONTINUOUS
 62
    7
 10
882.4972235824805
 20
686.37508217767675
 11
882.6672687815892
 21
686.20859603482643
  0
LINE
  8
_0-2_線色２__白__
  6
CONTINUOUS
 62
    7
 10
882.6672687815892
 20
686.20859603482643
 11
882.83058265286741
 21
686.03531903181704
  0
LINE
  8
_0-2_線色２__白__
  6
CONTINUOUS
 62
    7
 10
882.83058265286741
 20
686.03531903181704
 11
882.92165123480686
 21
685.93111772360601
  0
LINE
  8
_0-2_線色２__白__
  6
CONTINUOUS
 62
    7
 10
882.92165123480686
 20
685.93111772360601
 11
882.97331050744447
 21
685.86903044808253
  0
LINE
  8
_0-2_線色２__白__
  6
CONTINUOUS
 62
    7
 10
882.97331050744447
 20
685.86903044808253
 11
883.05963561775002
 21
685.75955770824578
  0
LINE
  8
_0-2_線色２__白__
  6
CONTINUOUS
 62
    7
 10
883.05963561775002
 20
685.75955770824578
 11
883.14199548988086
 21
685.64705645048718
  0
LINE
  8
_0-2_線色２__白__
  6
CONTINUOUS
 62
    7
 10
883.14199548988086
 20
685.64705645048718
 11
883.2198161806275
 21
685.5315755177736
  0
LINE
  8
_0-2_線色２__白__
  6
CONTINUOUS
 62
    7
 10
883.2198161806275
 20
685.5315755177736
 11
883.29252374677139
 21
685.41316375308099
  0
LINE
  8
_0-2_線色２__白__
  6
CONTINUOUS
 62
    7
 10
883.29252374677139
 20
685.41316375308099
 11
883.35954424510078
 21
685.29186999937849
  0
LINE
  8
_0-2_線色２__白__
  6
CONTINUOUS
 62
    7
 10
883.35954424510078
 20
685.29186999937849
 11
883.39558415618626
 21
685.22021834153577
  0
LINE
  8
_0-2_線色２__白__
  6
CONTINUOUS
 62
    7
 10
883.39558415618626
 20
685.22021834153577
 11
883.44223600954479
 21
685.11874245048659
  0
LINE
  8
_0-2_線色２__白__
  6
CONTINUOUS
 62
    7
 10
883.44223600954479
 20
685.11874245048659
 11
883.51372276789448
 21
684.93997807143671
  0
LINE
  8
_0-2_線色２__白__
  6
CONTINUOUS
 62
    7
 10
883.51372276789448
 20
684.93997807143671
 11
883.57567410651768
 21
684.75715765328744
  0
LINE
  8
_0-2_線色２__白__
  6
CONTINUOUS
 62
    7
 10
883.57567410651768
 20
684.75715765328744
 11
883.63017199478804
 21
684.57116679409694
  0
LINE
  8
_0-2_線色２__白__
  6
CONTINUOUS
 62
    7
 10
883.63017199478804
 20
684.57116679409694
 11
883.67929840207466
 21
684.38289109192112
  0
LINE
  8
_0-2_線色２__白__
  6
CONTINUOUS
 62
    7
 10
883.67929840207466
 20
684.38289109192112
 11
883.72513529775347
 21
684.19321614481817
  0
LINE
  8
_0-2_線色２__白__
  6
CONTINUOUS
 62
    7
 10
883.72513529775347
 20
684.19321614481817
 11
883.75103384722138
 21
684.08291251315688
  0
LINE
  8
_0-2_線色２__白__
  6
CONTINUOUS
 62
    7
 10
862.309145268365
 20
679.94755317666716
 11
863.32415822117923
 21
679.08291251315688
  0
LINE
  8
_0-4_線色４__黄__
  6
CONTINUOUS
 62
    2
 10
873.00315798460701
 20
689.08291251315688
 11
873.00315798460701
 21
684.08291251315688
  0
LINE
  8
_0-4_線色４__黄__
  6
CONTINUOUS
 62
    2
 10
867.00602591767506
 20
689.08291251315688
 11
873.00315798460701
 21
689.08291251315688
  0
LINE
  8
_0-4_線色４__黄__
  6
CONTINUOUS
 62
    2
 10
822.309145268365
 20
692.53406130008273
 11
862.9546773417178
 21
692.53406130008273
  0
LINE
  8
_0-4_線色４__黄__
  6
CONTINUOUS
 62
    2
 10
862.9546773417178
 20
692.53406130008273
 11
867.00602591767506
 21
689.08291251315688
  0
ARC
  8
_0-1_線色１__水色__
  6
CONTINUOUS
 62
    4
 10
850.1363187866616
 20
677.54124585139778
 40
1.2083333333333581
 50
307.52351320333912
 51
232.47648680464988
  0
ARC
  8
_0-1_線色１__水色__
  6
CONTINUOUS
 62
    4
 10
848.66435864245318
 20
675.62457918459302
 40
1.2083333333333179
 50
127.52351320610693
 51
52.47648680188081
  0
ARC
  8
_0-1_線色１__水色__
  6
CONTINUOUS
 62
    4
 10
847.19239849797873
 20
677.54124585139778
 40
1.2083333333333581
 50
307.52351320333912
 51
232.47648680464988
  0
ARC
  8
_0-1_線色１__水色__
  6
CONTINUOUS
 62
    4
 10
845.72043835377031
 20
675.62457918459302
 40
1.2083333333333179
 50
127.52351320610693
 51
52.47648680188081
  0
ARC
  8
_0-1_線色１__水色__
  6
CONTINUOUS
 62
    4
 10
844.24847820929358
 20
677.54124585139778
 40
1.2083333333333581
 50
307.52351320333912
 51
232.47648680464988
  0
ARC
  8
_0-1_線色１__水色__
  6
CONTINUOUS
 62
    4
 10
842.77651806508516
 20
675.62457918459302
 40
1.2083333333333179
 50
127.52351320610693
 51
52.47648680188081
  0
ARC
  8
_0-1_線色１__水色__
  6
CONTINUOUS
 62
    4
 10
988.50057235473173
 20
677.54124585180818
 40
1.2083333333333581
 50
307.52351320333912
 51
232.47648680464988
  0
ARC
  8
_0-1_線色１__水色__
  6
CONTINUOUS
 62
    4
 10
989.97253249920618
 20
675.6245791852092
 40
1.2083333333333179
 50
127.52351320610693
 51
52.47648680188081
  0
ARC
  8
_0-1_線色１__水色__
  6
CONTINUOUS
 62
    4
 10
985.55665206604885
 20
677.54124585160355
 40
1.2083333333333581
 50
307.52351320333912
 51
232.47648680464988
  0
ARC
  8
_0-1_線色１__水色__
  6
CONTINUOUS
 62
    4
 10
987.02861221052331
 20
675.62457918500343
 40
1.2083333333333179
 50
127.52351320610693
 51
52.47648680188081
  0
ARC
  8
_0-1_線色１__水色__
  6
CONTINUOUS
 62
    4
 10
982.61273177736598
 20
677.54124585139778
 40
1.2083333333333581
 50
307.52351320333912
 51
232.47648680464988
  0
ARC
  8
_0-1_線色１__水色__
  6
CONTINUOUS
 62
    4
 10
984.08469192184043
 20
675.62457918479879
 40
1.2083333333333179
 50
127.52351320610693
 51
52.47648680188081
  0
ARC
  8
_0-1_線色１__水色__
  6
CONTINUOUS
 62
    4
 10
979.66881148868083
 20
677.54124585119314
 40
1.2083333333333581
 50
307.52351320333912
 51
232.47648680464988
  0
ARC
  8
_0-1_線色１__水色__
  6
CONTINUOUS
 62
    4
 10
981.14077163315756
 20
675.62457918459302
 40
1.2083333333333179
 50
127.52351320610693
 51
52.47648680188081
  0
ARC
  8
_0-1_線色１__水色__
  6
CONTINUOUS
 62
    4
 10
976.72489119999796
 20
677.54124585098737
 40
1.2083333333333581
 50
307.52351320333912
 51
232.47648680464988
  0
ARC
  8
_0-1_線色１__水色__
  6
CONTINUOUS
 62
    4
 10
978.19685134447241
 20
675.62457918438838
 40
1.2083333333333179
 50
127.52351320610693
 51
52.47648680188081
  0
ARC
  8
_0-1_線色１__水色__
  6
CONTINUOUS
 62
    4
 10
973.78097091131508
 20
677.54124585078273
 40
1.2083333333333581
 50
307.52351320333912
 51
232.47648680464988
  0
ARC
  8
_0-1_線色１__水色__
  6
CONTINUOUS
 62
    4
 10
975.25293105578953
 20
675.62457918418261
 40
1.2083333333333179
 50
127.52351320610693
 51
52.47648680188081
  0
ARC
  8
_0-1_線色１__水色__
  6
CONTINUOUS
 62
    4
 10
970.8370506226322
 20
677.54124585057696
 40
1.2083333333333581
 50
307.52351320333912
 51
232.47648680464988
  0
ARC
  8
_0-1_線色１__水色__
  6
CONTINUOUS
 62
    4
 10
969.36509047842378
 20
675.6245791837722
 40
1.2083333333333179
 50
127.52351320610693
 51
52.47648680188081
  0
ARC
  8
_0-1_線色１__水色__
  6
CONTINUOUS
 62
    4
 10
972.30901076710666
 20
675.62457918397797
 40
1.2083333333333179
 50
127.52351320610693
 51
52.47648680188081
  0
ARC
  8
_0-1_線色１__水色__
  6
CONTINUOUS
 62
    4
 10
992.91645278788906
 20
675.62457918479879
 40
1.2083333333333179
 50
127.52351320610693
 51
52.47648680188081
  0
ARC
  8
_0-1_線色１__水色__
  6
CONTINUOUS
 62
    4
 10
991.44449264341461
 20
677.54124585139778
 40
1.2083333333333581
 50
307.52351320333912
 51
232.47648680464988
  0
ARC
  8
_0-1_線色１__水色__
  6
CONTINUOUS
 62
    4
 10
967.89313033394706
 20
677.54124585037232
 40
1.2083333333333581
 50
307.52351320333912
 51
232.47648680464988
  0
ARC
  8
_0-1_線色１__水色__
  6
CONTINUOUS
 62
    4
 10
997.33233322078036
 20
677.54124585180818
 40
1.2083333333333581
 50
307.52351320333912
 51
232.47648680464988
  0
ARC
  8
_0-1_線色１__水色__
  6
CONTINUOUS
 62
    4
 10
995.86037307657421
 20
675.62457918500343
 40
1.2083333333333179
 50
127.52351320610693
 51
52.47648680188081
  0
ARC
  8
_0-1_線色１__水色__
  6
CONTINUOUS
 62
    4
 10
998.80429336525708
 20
675.6245791852092
 40
1.2083333333333179
 50
127.52351320610693
 51
52.47648680188081
  0
ARC
  8
_0-1_線色１__水色__
  6
CONTINUOUS
 62
    4
 10
994.38841293209748
 20
677.54124585160355
 40
1.2083333333333581
 50
307.52351320333912
 51
232.47648680464988
  0
ARC
  8
_0-1_線色１__水色__
  6
CONTINUOUS
 62
    4
 10
950.22960860187027
 20
677.54124584973908
 40
1.2083333333333581
 50
307.52351320333912
 51
232.47648680464988
  0
ARC
  8
_0-1_線色１__水色__
  6
CONTINUOUS
 62
    4
 10
951.70156874634699
 20
675.62457918313896
 40
1.2083333333333179
 50
127.52351320610693
 51
52.47648680188081
  0
ARC
  8
_0-1_線色１__水色__
  6
CONTINUOUS
 62
    4
 10
947.28568831318739
 20
677.54124584953331
 40
1.2083333333333581
 50
307.52351320333912
 51
232.47648680464988
  0
ARC
  8
_0-1_線色１__水色__
  6
CONTINUOUS
 62
    4
 10
948.75764845766184
 20
675.62457918293433
 40
1.2083333333333179
 50
127.52351320610693
 51
52.47648680188081
  0
ARC
  8
_0-1_線色１__水色__
  6
CONTINUOUS
 62
    4
 10
944.34176802450452
 20
677.54124584932867
 40
1.2083333333333581
 50
307.52351320333912
 51
232.47648680464988
  0
ARC
  8
_0-1_線色１__水色__
  6
CONTINUOUS
 62
    4
 10
945.81372816897897
 20
675.62457918272855
 40
1.2083333333333179
 50
127.52351320610693
 51
52.47648680188081
  0
ARC
  8
_0-1_線色１__水色__
  6
CONTINUOUS
 62
    4
 10
942.86980788029609
 20
675.62457918252392
 40
1.2083333333333179
 50
127.52351320610693
 51
52.47648680188081
  0
ARC
  8
_0-1_線色１__水色__
  6
CONTINUOUS
 62
    4
 10
954.64548903502987
 20
675.62457918272855
 40
1.2083333333333179
 50
127.52351320610693
 51
52.47648680188081
  0
ARC
  8
_0-1_線色１__水色__
  6
CONTINUOUS
 62
    4
 10
953.17352889055314
 20
677.54124584932867
 40
1.2083333333333581
 50
307.52351320333912
 51
232.47648680464988
  0
ARC
  8
_0-1_線色１__水色__
  6
CONTINUOUS
 62
    4
 10
964.94921004528692
 20
677.54124585014949
 40
1.2083333333333581
 50
307.52351320333912
 51
232.47648680464988
  0
ARC
  8
_0-1_線色１__水色__
  6
CONTINUOUS
 62
    4
 10
962.00528975660404
 20
677.54124584994372
 40
1.2083333333333581
 50
307.52351320333912
 51
232.47648680464988
  0
ARC
  8
_0-1_線色１__水色__
  6
CONTINUOUS
 62
    4
 10
963.47724990107849
 20
675.62457918334474
 40
1.2083333333333179
 50
127.52351320610693
 51
52.47648680188081
  0
ARC
  8
_0-1_線色１__水色__
  6
CONTINUOUS
 62
    4
 10
959.06136946792117
 20
677.54124584973908
 40
1.2083333333333581
 50
307.52351320333912
 51
232.47648680464988
  0
ARC
  8
_0-1_線色１__水色__
  6
CONTINUOUS
 62
    4
 10
957.58940932371274
 20
675.62457918293433
 40
1.2083333333333179
 50
127.52351320610693
 51
52.47648680188081
  0
ARC
  8
_0-1_線色１__水色__
  6
CONTINUOUS
 62
    4
 10
960.53332961239562
 20
675.62457918313896
 40
1.2083333333333179
 50
127.52351320610693
 51
52.47648680188081
  0
ARC
  8
_0-1_線色１__水色__
  6
CONTINUOUS
 62
    4
 10
956.11744917923829
 20
677.54124584953331
 40
1.2083333333333581
 50
307.52351320333912
 51
232.47648680464988
  0
ARC
  8
_0-1_線色１__水色__
  6
CONTINUOUS
 62
    4
 10
966.42117018976364
 20
675.62457918354937
 40
1.2083333333333179
 50
127.52351320610693
 51
52.47648680188081
  0
ARC
  8
_0-1_線色１__水色__
  6
CONTINUOUS
 62
    4
 10
938.45392744711376
 20
677.54124585264719
 40
1.2083333333333581
 50
307.52351320333912
 51
232.47648680464988
  0
ARC
  8
_0-1_線色１__水色__
  6
CONTINUOUS
 62
    4
 10
936.98196730290761
 20
675.62457918584244
 40
1.2083333333333179
 50
127.52351320610693
 51
52.47648680188081
  0
ARC
  8
_0-1_線色１__水色__
  6
CONTINUOUS
 62
    4
 10
939.92588759159048
 20
675.62457918604707
 40
1.2083333333333179
 50
127.52351320610693
 51
52.47648680188081
  0
ARC
  8
_0-1_線色１__水色__
  6
CONTINUOUS
 62
    4
 10
935.51000715843088
 20
677.54124585244142
 40
1.2083333333333581
 50
307.52351320333912
 51
232.47648680464988
  0
ARC
  8
_0-1_線色１__水色__
  6
CONTINUOUS
 62
    4
 10
917.84648542635409
 20
677.54124585180818
 40
1.2083333333333581
 50
307.52351320333912
 51
232.47648680464988
  0
ARC
  8
_0-1_線色１__水色__
  6
CONTINUOUS
 62
    4
 10
919.31844557082854
 20
675.6245791852092
 40
1.2083333333333179
 50
127.52351320610693
 51
52.47648680188081
  0
ARC
  8
_0-1_線色１__水色__
  6
CONTINUOUS
 62
    4
 10
914.90256513767122
 20
677.54124585160355
 40
1.2083333333333581
 50
307.52351320333912
 51
232.47648680464988
  0
ARC
  8
_0-1_線色１__水色__
  6
CONTINUOUS
 62
    4
 10
916.37452528214567
 20
675.62457918500343
 40
1.2083333333333179
 50
127.52351320610693
 51
52.47648680188081
  0
ARC
  8
_0-1_線色１__水色__
  6
CONTINUOUS
 62
    4
 10
911.95864484898834
 20
677.54124585139778
 40
1.2083333333333581
 50
307.52351320333912
 51
232.47648680464988
  0
ARC
  8
_0-1_線色１__水色__
  6
CONTINUOUS
 62
    4
 10
913.43060499346279
 20
675.62457918479879
 40
1.2083333333333179
 50
127.52351320610693
 51
52.47648680188081
  0
ARC
  8
_0-1_線色１__水色__
  6
CONTINUOUS
 62
    4
 10
909.01472456030319
 20
677.54124585119314
 40
1.2083333333333581
 50
307.52351320333912
 51
232.47648680464988
  0
ARC
  8
_0-1_線色１__水色__
  6
CONTINUOUS
 62
    4
 10
910.48668470477992
 20
675.62457918459302
 40
1.2083333333333179
 50
127.52351320610693
 51
52.47648680188081
  0
ARC
  8
_0-1_線色１__水色__
  6
CONTINUOUS
 62
    4
 10
906.07080427162032
 20
677.54124585098737
 40
1.2083333333333581
 50
307.52351320333912
 51
232.47648680464988
  0
ARC
  8
_0-1_線色１__水色__
  6
CONTINUOUS
 62
    4
 10
907.54276441609477
 20
675.62457918438838
 40
1.2083333333333179
 50
127.52351320610693
 51
52.47648680188081
  0
ARC
  8
_0-1_線色１__水色__
  6
CONTINUOUS
 62
    4
 10
903.12688398293744
 20
677.54124585078273
 40
1.2083333333333581
 50
307.52351320333912
 51
232.47648680464988
  0
ARC
  8
_0-1_線色１__水色__
  6
CONTINUOUS
 62
    4
 10
904.59884412741189
 20
675.62457918418261
 40
1.2083333333333179
 50
127.52351320610693
 51
52.47648680188081
  0
ARC
  8
_0-1_線色１__水色__
  6
CONTINUOUS
 62
    4
 10
900.18296369425457
 20
677.54124585057696
 40
1.2083333333333581
 50
307.52351320333912
 51
232.47648680464988
  0
ARC
  8
_0-1_線色１__水色__
  6
CONTINUOUS
 62
    4
 10
898.71100355004614
 20
675.6245791837722
 40
1.2083333333333179
 50
127.52351320610693
 51
52.47648680188081
  0
ARC
  8
_0-1_線色１__水色__
  6
CONTINUOUS
 62
    4
 10
901.65492383872902
 20
675.62457918397797
 40
1.2083333333333179
 50
127.52351320610693
 51
52.47648680188081
  0
ARC
  8
_0-1_線色１__水色__
  6
CONTINUOUS
 62
    4
 10
922.26236585951142
 20
675.62457918479879
 40
1.2083333333333179
 50
127.52351320610693
 51
52.47648680188081
  0
ARC
  8
_0-1_線色１__水色__
  6
CONTINUOUS
 62
    4
 10
920.79040571503697
 20
677.54124585139778
 40
1.2083333333333581
 50
307.52351320333912
 51
232.47648680464988
  0
ARC
  8
_0-1_線色１__水色__
  6
CONTINUOUS
 62
    4
 10
897.23904340556942
 20
677.54124585037232
 40
1.2083333333333581
 50
307.52351320333912
 51
232.47648680464988
  0
ARC
  8
_0-1_線色１__水色__
  6
CONTINUOUS
 62
    4
 10
932.56608686977074
 20
677.54124585221859
 40
1.2083333333333581
 50
307.52351320333912
 51
232.47648680464988
  0
ARC
  8
_0-1_線色１__水色__
  6
CONTINUOUS
 62
    4
 10
929.62216658108787
 20
677.54124585201396
 40
1.2083333333333581
 50
307.52351320333912
 51
232.47648680464988
  0
ARC
  8
_0-1_線色１__水色__
  6
CONTINUOUS
 62
    4
 10
931.09412672556232
 20
675.62457918541384
 40
1.2083333333333179
 50
127.52351320610693
 51
52.47648680188081
  0
ARC
  8
_0-1_線色１__水色__
  6
CONTINUOUS
 62
    4
 10
926.67824629240499
 20
677.54124585180818
 40
1.2083333333333581
 50
307.52351320333912
 51
232.47648680464988
  0
ARC
  8
_0-1_線色１__水色__
  6
CONTINUOUS
 62
    4
 10
925.20628614819657
 20
675.62457918500343
 40
1.2083333333333179
 50
127.52351320610693
 51
52.47648680188081
  0
ARC
  8
_0-1_線色１__水色__
  6
CONTINUOUS
 62
    4
 10
928.15020643687944
 20
675.6245791852092
 40
1.2083333333333179
 50
127.52351320610693
 51
52.47648680188081
  0
ARC
  8
_0-1_線色１__水色__
  6
CONTINUOUS
 62
    4
 10
923.73432600371984
 20
677.54124585160355
 40
1.2083333333333581
 50
307.52351320333912
 51
232.47648680464988
  0
ARC
  8
_0-1_線色１__水色__
  6
CONTINUOUS
 62
    4
 10
934.03804701424519
 20
675.62457918561961
 40
1.2083333333333179
 50
127.52351320610693
 51
52.47648680188081
  0
ARC
  8
_0-1_線色１__水色__
  6
CONTINUOUS
 62
    4
 10
879.57552167349263
 20
677.54124584973908
 40
1.2083333333333581
 50
307.52351320333912
 51
232.47648680464988
  0
ARC
  8
_0-1_線色１__水色__
  6
CONTINUOUS
 62
    4
 10
881.04748181796936
 20
675.62457918313896
 40
1.2083333333333179
 50
127.52351320610693
 51
52.47648680188081
  0
ARC
  8
_0-1_線色１__水色__
  6
CONTINUOUS
 62
    4
 10
876.63160138480976
 20
677.54124584953331
 40
1.2083333333333581
 50
307.52351320333912
 51
232.47648680464988
  0
ARC
  8
_0-1_線色１__水色__
  6
CONTINUOUS
 62
    4
 10
878.10356152928648
 20
675.62457918293433
 40
1.2083333333333179
 50
127.52351320610693
 51
52.47648680188081
  0
ARC
  8
_0-1_線色１__水色__
  6
CONTINUOUS
 62
    4
 10
873.68768109612688
 20
677.54124584932867
 40
1.2083333333333581
 50
307.52351320333912
 51
232.47648680464988
  0
ARC
  8
_0-1_線色１__水色__
  6
CONTINUOUS
 62
    4
 10
875.15964124060133
 20
675.62457918272855
 40
1.2083333333333179
 50
127.52351320610693
 51
52.47648680188081
  0
ARC
  8
_0-1_線色１__水色__
  6
CONTINUOUS
 62
    4
 10
872.21572095191846
 20
675.62457918252392
 40
1.2083333333333179
 50
127.52351320610693
 51
52.47648680188081
  0
ARC
  8
_0-1_線色１__水色__
  6
CONTINUOUS
 62
    4
 10
883.99140210665223
 20
675.62457918272855
 40
1.2083333333333179
 50
127.52351320610693
 51
52.47648680188081
  0
ARC
  8
_0-1_線色１__水色__
  6
CONTINUOUS
 62
    4
 10
882.51944196217778
 20
677.54124584932867
 40
1.2083333333333581
 50
307.52351320333912
 51
232.47648680464988
  0
ARC
  8
_0-1_線色１__水色__
  6
CONTINUOUS
 62
    4
 10
894.29512311690928
 20
677.54124585014949
 40
1.2083333333333581
 50
307.52351320333912
 51
232.47648680464988
  0
ARC
  8
_0-1_線色１__水色__
  6
CONTINUOUS
 62
    4
 10
891.35120282822641
 20
677.54124584994372
 40
1.2083333333333581
 50
307.52351320333912
 51
232.47648680464988
  0
ARC
  8
_0-1_線色１__水色__
  6
CONTINUOUS
 62
    4
 10
892.82316297270313
 20
675.62457918334474
 40
1.2083333333333179
 50
127.52351320610693
 51
52.47648680188081
  0
ARC
  8
_0-1_線色１__水色__
  6
CONTINUOUS
 62
    4
 10
888.40728253954353
 20
677.54124584973908
 40
1.2083333333333581
 50
307.52351320333912
 51
232.47648680464988
  0
ARC
  8
_0-1_線色１__水色__
  6
CONTINUOUS
 62
    4
 10
886.93532239533511
 20
675.62457918293433
 40
1.2083333333333179
 50
127.52351320610693
 51
52.47648680188081
  0
ARC
  8
_0-1_線色１__水色__
  6
CONTINUOUS
 62
    4
 10
889.87924268401798
 20
675.62457918313896
 40
1.2083333333333179
 50
127.52351320610693
 51
52.47648680188081
  0
ARC
  8
_0-1_線色１__水色__
  6
CONTINUOUS
 62
    4
 10
885.46336225086065
 20
677.54124584953331
 40
1.2083333333333581
 50
307.52351320333912
 51
232.47648680464988
  0
ARC
  8
_0-1_線色１__水色__
  6
CONTINUOUS
 62
    4
 10
895.76708326138601
 20
675.62457918354937
 40
1.2083333333333179
 50
127.52351320610693
 51
52.47648680188081
  0
ARC
  8
_0-1_線色１__水色__
  6
CONTINUOUS
 62
    4
 10
941.3978477357989
 20
677.54124585285183
 40
1.2083333333333581
 50
307.52351320333912
 51
232.47648680464988
  0
ARC
  8
_0-1_線色１__水色__
  6
CONTINUOUS
 62
    4
 10
867.79984051873612
 20
677.54124585264719
 40
1.2083333333333581
 50
307.52351320333912
 51
232.47648680464988
  0
ARC
  8
_0-1_線色１__水色__
  6
CONTINUOUS
 62
    4
 10
866.32788037452997
 20
675.62457918584244
 40
1.2083333333333179
 50
127.52351320610693
 51
52.47648680188081
  0
ARC
  8
_0-1_線色１__水色__
  6
CONTINUOUS
 62
    4
 10
869.27180066321284
 20
675.62457918604707
 40
1.2083333333333179
 50
127.52351320610693
 51
52.47648680188081
  0
ARC
  8
_0-1_線色１__水色__
  6
CONTINUOUS
 62
    4
 10
864.85592023005324
 20
677.54124585244142
 40
1.2083333333333581
 50
307.52351320333912
 51
232.47648680464988
  0
ARC
  8
_0-1_線色１__水色__
  6
CONTINUOUS
 62
    4
 10
841.3045579206107
 20
677.54124585139778
 40
1.2083333333333581
 50
307.52351320333912
 51
232.47648680464988
  0
ARC
  8
_0-1_線色１__水色__
  6
CONTINUOUS
 62
    4
 10
838.36063763192783
 20
677.54124585119314
 40
1.2083333333333581
 50
307.52351320333912
 51
232.47648680464988
  0
ARC
  8
_0-1_線色１__水色__
  6
CONTINUOUS
 62
    4
 10
839.83259777640228
 20
675.62457918459302
 40
1.2083333333333179
 50
127.52351320610693
 51
52.47648680188081
  0
ARC
  8
_0-1_線色１__水色__
  6
CONTINUOUS
 62
    4
 10
835.41671734324268
 20
677.54124585098737
 40
1.2083333333333581
 50
307.52351320333912
 51
232.47648680464988
  0
ARC
  8
_0-1_線色１__水色__
  6
CONTINUOUS
 62
    4
 10
836.88867748771941
 20
675.62457918438838
 40
1.2083333333333179
 50
127.52351320610693
 51
52.47648680188081
  0
ARC
  8
_0-1_線色１__水色__
  6
CONTINUOUS
 62
    4
 10
832.47279705455981
 20
677.54124585078273
 40
1.2083333333333581
 50
307.52351320333912
 51
232.47648680464988
  0
ARC
  8
_0-1_線色１__水色__
  6
CONTINUOUS
 62
    4
 10
833.94475719903426
 20
675.62457918418261
 40
1.2083333333333179
 50
127.52351320610693
 51
52.47648680188081
  0
ARC
  8
_0-1_線色１__水色__
  6
CONTINUOUS
 62
    4
 10
829.52887676587693
 20
677.54124585057696
 40
1.2083333333333581
 50
307.52351320333912
 51
232.47648680464988
  0
ARC
  8
_0-1_線色１__水色__
  6
CONTINUOUS
 62
    4
 10
828.05691662166851
 20
675.6245791837722
 40
1.2083333333333179
 50
127.52351320610693
 51
52.47648680188081
  0
ARC
  8
_0-1_線色１__水色__
  6
CONTINUOUS
 62
    4
 10
831.00083691035138
 20
675.62457918397797
 40
1.2083333333333179
 50
127.52351320610693
 51
52.47648680188081
  0
ARC
  8
_0-1_線色１__水色__
  6
CONTINUOUS
 62
    4
 10
851.60827893113606
 20
675.62457918479879
 40
1.2083333333333179
 50
127.52351320610693
 51
52.47648680188081
  0
ARC
  8
_0-1_線色１__水色__
  6
CONTINUOUS
 62
    4
 10
826.58495647719405
 20
677.54124585037232
 40
1.2083333333333581
 50
307.52351320333912
 51
232.47648680464988
  0
ARC
  8
_0-1_線色１__水色__
  6
CONTINUOUS
 62
    4
 10
861.91199994139311
 20
677.54124585221859
 40
1.2083333333333581
 50
307.52351320333912
 51
232.47648680464988
  0
ARC
  8
_0-1_線色１__水色__
  6
CONTINUOUS
 62
    4
 10
858.96807965271023
 20
677.54124585201396
 40
1.2083333333333581
 50
307.52351320333912
 51
232.47648680464988
  0
ARC
  8
_0-1_線色１__水色__
  6
CONTINUOUS
 62
    4
 10
860.44003979718468
 20
675.62457918541384
 40
1.2083333333333179
 50
127.52351320610693
 51
52.47648680188081
  0
ARC
  8
_0-1_線色１__水色__
  6
CONTINUOUS
 62
    4
 10
856.02415936402735
 20
677.54124585180818
 40
1.2083333333333581
 50
307.52351320333912
 51
232.47648680464988
  0
ARC
  8
_0-1_線色１__水色__
  6
CONTINUOUS
 62
    4
 10
854.55219921981893
 20
675.62457918500343
 40
1.2083333333333179
 50
127.52351320610693
 51
52.47648680188081
  0
ARC
  8
_0-1_線色１__水色__
  6
CONTINUOUS
 62
    4
 10
857.49611950850181
 20
675.6245791852092
 40
1.2083333333333179
 50
127.52351320610693
 51
52.47648680188081
  0
ARC
  8
_0-1_線色１__水色__
  6
CONTINUOUS
 62
    4
 10
853.08023907534448
 20
677.54124585160355
 40
1.2083333333333581
 50
307.52351320333912
 51
232.47648680464988
  0
ARC
  8
_0-1_線色１__水色__
  6
CONTINUOUS
 62
    4
 10
863.38396008586983
 20
675.62457918561961
 40
1.2083333333333179
 50
127.52351320610693
 51
52.47648680188081
  0
ARC
  8
_0-1_線色１__水色__
  6
CONTINUOUS
 62
    4
 10
823.64103618853392
 20
677.54124585014949
 40
1.2083333333333581
 50
307.52351320333912
 51
232.47648680464988
  0
ARC
  8
_0-1_線色１__水色__
  6
CONTINUOUS
 62
    4
 10
820.69711589984877
 20
677.54124584994372
 40
1.2083333333333581
 50
307.52351320333912
 51
232.47648680464988
  0
ARC
  8
_0-1_線色１__水色__
  6
CONTINUOUS
 62
    4
 10
822.16907604432549
 20
675.62457918334474
 40
1.2083333333333179
 50
127.52351320610693
 51
52.47648680188081
  0
ARC
  8
_0-1_線色１__水色__
  6
CONTINUOUS
 62
    4
 10
817.75319561116589
 20
677.54124584973908
 40
1.2083333333333581
 50
307.52351320333912
 51
232.47648680464988
  0
ARC
  8
_0-1_線色１__水色__
  6
CONTINUOUS
 62
    4
 10
819.22515575564262
 20
675.62457918313896
 40
1.2083333333333179
 50
127.52351320610693
 51
52.47648680188081
  0
ARC
  8
_0-1_線色１__水色__
  6
CONTINUOUS
 62
    4
 10
825.11299633300837
 20
675.62457918354937
 40
1.2083333333333179
 50
127.52351320610693
 51
52.47648680188081
  0
ARC
  8
_0-1_線色１__水色__
  6
CONTINUOUS
 62
    4
 10
870.74376080742127
 20
677.54124585285183
 40
1.2083333333333581
 50
307.52351320333912
 51
232.47648680464988
  0
ARC
  8
_0-2_線色２__白__
  6
CONTINUOUS
 62
    7
 10
822.309145268365
 20
695.53406130008227
 40
8
 50
180
 51
270
  0
ARC
  8
_0-4_線色４__黄__
  6
CONTINUOUS
 62
    2
 10
822.309145268365
 20
695.53406130008227
 40
3.0000000000000004
 50
180
 51
270
  0
LINE
  8
_0-5_金属
  6
CONTINUOUS
 62
    7
 10
776.30914526836136
 20
689.08291151488754
 11
776.30914526836136
 21
514.78378075187891
  0
LINE
  8
_0-5_金属
  6
CONTINUOUS
 62
    7
 10
716.30914526836136
 20
689.08291151488754
 11
716.30914526836136
 21
514.78378075187891
  0
LINE
  8
_0-5_金属
  6
CONTINUOUS
 62
    7
 10
776.30914526836136
 20
691.38291151488772
 11
776.30914526836136
 21
689.08291151488754
  0
LINE
  8
_0-5_金属
  6
CONTINUOUS
 62
    7
 10
716.30914526836136
 20
691.38291151488772
 11
716.30914526836136
 21
689.08291151488754
  0
LINE
  8
_0-5_金属
  6
CONTINUOUS
 62
    7
 10
700.609145268362
 20
691.38291151488772
 11
716.30914526836136
 21
691.38291151488772
  0
ARC
  8
_0-5_金属
  6
CONTINUOUS
 62
    7
 10
700.609145268362
 20
693.38291151488818
 40
2
 50
180
 51
270
  0
LINE
  8
_0-5_金属
  6
CONTINUOUS
 62
    7
 10
698.60914526836382
 20
734.78291151488804
 11
698.60914526836382
 21
693.38291151488818
  0
ARC
  8
_0-5_金属
  6
CONTINUOUS
 62
    7
 10
700.609145268362
 20
734.78291151488804
 40
2
 50
90
 51
180
  0
LINE
  8
_0-5_金属
  6
CONTINUOUS
 62
    7
 10
792.009145268363
 20
736.78291151488736
 11
700.609145268362
 21
736.78291151488736
  0
ARC
  8
_0-5_金属
  6
CONTINUOUS
 62
    7
 10
792.009145268363
 20
734.78291151488804
 40
2
 50
0
 51
90.000000000000014
  0
LINE
  8
_0-5_金属
  6
CONTINUOUS
 62
    7
 10
792.009145268363
 20
691.38291151488772
 11
776.30914526836136
 21
691.38291151488772
  0
ARC
  8
_0-5_金属
  6
CONTINUOUS
 62
    7
 10
792.009145268363
 20
693.38291151488818
 40
2
 50
270
 51
0
  0
LINE
  8
_0-5_金属
  6
CONTINUOUS
 62
    7
 10
792.009145268363
 20
689.08291151488754
 11
776.30914526836136
 21
689.08291151488754
  0
ARC
  8
_0-5_金属
  6
CONTINUOUS
 62
    7
 10
792.009145268363
 20
693.38291151488818
 40
4.2999999999999989
 50
270
 51
0
  0
ARC
  8
_0-5_金属
  6
CONTINUOUS
 62
    7
 10
792.009145268363
 20
734.78291151488804
 40
4.2999999999999989
 50
0
 51
90
  0
LINE
  8
_0-5_金属
  6
CONTINUOUS
 62
    7
 10
700.609145268362
 20
739.08291151488868
 11
792.009145268363
 21
739.08291151488868
  0
ARC
  8
_0-5_金属
  6
CONTINUOUS
 62
    7
 10
700.609145268362
 20
734.78291151488804
 40
4.2999999999999989
 50
90
 51
180
  0
LINE
  8
_0-5_金属
  6
CONTINUOUS
 62
    7
 10
700.609145268362
 20
689.08291151488754
 11
716.30914526836136
 21
689.08291151488754
  0
ARC
  8
_0-5_金属
  6
CONTINUOUS
 62
    7
 10
700.609145268362
 20
693.38291151488818
 40
4.2999999999999989
 50
180
 51
270
  0
LINE
  8
_0-5_金属
  6
CONTINUOUS
 62
    7
 10
794.00914526836118
 20
693.38291151488818
 11
794.00914526836118
 21
734.78291151488804
  0
LINE
  8
_0-2_線色２__白__
  6
CONTINUOUS
 62
    7
 10
815.81566546840008
 20
679.08291251315688
 11
1040.8351153683566
 21
679.08291251315688
  0
LINE
  8
_0-4_線色４__黄__
  6
CONTINUOUS
 62
    2
 10
873.00315798460701
 20
684.08291251315688
 11
1040.8351153683566
 21
684.08291251315688
  0
LINE
  8
_0-2_線色２__白__
  6
CONTINUOUS
 62
    7
 10
816.25310878603045
 20
674.08291251315688
 11
1040.8351153683566
 21
674.08291251315688
  0
LINE
  8
_0-5_金属
  6
CONTINUOUS
 62
    7
 10
1293.6125202683627
 20
739.08316251489225
 11
1497.8818876519745
 21
739.08316251489225
  0
ARC
  8
_0-1_線色１__水色__
  6
CONTINUOUS
 62
    4
 10
1490.4388547054486
 20
777.54149585708603
 40
1.2083333333333581
 50
307.52351320333912
 51
232.47648680464988
  0
ARC
  8
_0-1_線色１__水色__
  6
CONTINUOUS
 62
    4
 10
1472.7753329733719
 20
777.5414958564528
 40
1.2083333333333581
 50
307.52351320333912
 51
232.47648680464988
  0
ARC
  8
_0-1_線色１__水色__
  6
CONTINUOUS
 62
    4
 10
1474.2472931178486
 20
775.62482918985268
 40
1.2083333333333179
 50
127.52351320610693
 51
52.47648680188081
  0
ARC
  8
_0-1_線色１__水色__
  6
CONTINUOUS
 62
    4
 10
1469.831412684689
 20
777.54149585624702
 40
1.2083333333333581
 50
307.52351320333912
 51
232.47648680464988
  0
ARC
  8
_0-1_線色１__水色__
  6
CONTINUOUS
 62
    4
 10
1471.3033728291634
 20
775.62482918964804
 40
1.2083333333333179
 50
127.52351320610693
 51
52.47648680188081
  0
ARC
  8
_0-1_線色１__水色__
  6
CONTINUOUS
 62
    4
 10
1466.8874923960061
 20
777.54149585604239
 40
1.2083333333333581
 50
307.52351320333912
 51
232.47648680464988
  0
ARC
  8
_0-1_線色１__水色__
  6
CONTINUOUS
 62
    4
 10
1468.3594525404806
 20
775.62482918944227
 40
1.2083333333333179
 50
127.52351320610693
 51
52.47648680188081
  0
ARC
  8
_0-1_線色１__水色__
  6
CONTINUOUS
 62
    4
 10
1465.4155322517977
 20
775.62482918923763
 40
1.2083333333333179
 50
127.52351320610693
 51
52.47648680188081
  0
ARC
  8
_0-1_線色１__水色__
  6
CONTINUOUS
 62
    4
 10
1477.1912134065315
 20
775.62482918944227
 40
1.2083333333333179
 50
127.52351320610693
 51
52.47648680188081
  0
ARC
  8
_0-1_線色１__水色__
  6
CONTINUOUS
 62
    4
 10
1475.7192532620547
 20
777.54149585604239
 40
1.2083333333333581
 50
307.52351320333912
 51
232.47648680464988
  0
ARC
  8
_0-1_線色１__水色__
  6
CONTINUOUS
 62
    4
 10
1487.4949344167885
 20
777.54149585686321
 40
1.2083333333333581
 50
307.52351320333912
 51
232.47648680464988
  0
ARC
  8
_0-1_線色１__水色__
  6
CONTINUOUS
 62
    4
 10
1484.5510141281056
 20
777.54149585665743
 40
1.2083333333333581
 50
307.52351320333912
 51
232.47648680464988
  0
ARC
  8
_0-1_線色１__水色__
  6
CONTINUOUS
 62
    4
 10
1486.0229742725801
 20
775.62482919005845
 40
1.2083333333333179
 50
127.52351320610693
 51
52.47648680188081
  0
ARC
  8
_0-1_線色１__水色__
  6
CONTINUOUS
 62
    4
 10
1481.6070938394228
 20
777.5414958564528
 40
1.2083333333333581
 50
307.52351320333912
 51
232.47648680464988
  0
ARC
  8
_0-1_線色１__水色__
  6
CONTINUOUS
 62
    4
 10
1480.1351336952143
 20
775.62482918964804
 40
1.2083333333333179
 50
127.52351320610693
 51
52.47648680188081
  0
ARC
  8
_0-1_線色１__水色__
  6
CONTINUOUS
 62
    4
 10
1483.0790539838972
 20
775.62482918985268
 40
1.2083333333333179
 50
127.52351320610693
 51
52.47648680188081
  0
ARC
  8
_0-1_線色１__水色__
  6
CONTINUOUS
 62
    4
 10
1478.6631735507376
 20
777.54149585624702
 40
1.2083333333333581
 50
307.52351320333912
 51
232.47648680464988
  0
ARC
  8
_0-1_線色１__水色__
  6
CONTINUOUS
 62
    4
 10
1488.966894561263
 20
775.62482919026309
 40
1.2083333333333179
 50
127.52351320610693
 51
52.47648680188081
  0
ARC
  8
_0-1_線色１__水色__
  6
CONTINUOUS
 62
    4
 10
1463.9435721072982
 20
777.54149585956554
 40
1.2083333333333581
 50
307.52351320333912
 51
232.47648680464988
  0
ARC
  8
_0-1_線色１__水色__
  6
CONTINUOUS
 62
    4
 10
1460.9996518186165
 20
777.54149585935977
 40
1.2083333333333581
 50
307.52351320333912
 51
232.47648680464988
  0
ARC
  8
_0-1_線色１__水色__
  6
CONTINUOUS
 62
    4
 10
1462.4716119630909
 20
775.62482919276079
 40
1.2083333333333179
 50
127.52351320610693
 51
52.47648680188081
  0
ARC
  8
_0-1_線色１__水色__
  6
CONTINUOUS
 62
    4
 10
1458.0557315299336
 20
777.54149585915513
 40
1.2083333333333581
 50
307.52351320333912
 51
232.47648680464988
  0
ARC
  8
_0-1_線色１__水色__
  6
CONTINUOUS
 62
    4
 10
1459.5276916744081
 20
775.62482919255501
 40
1.2083333333333179
 50
127.52351320610693
 51
52.47648680188081
  0
ARC
  8
_0-1_線色１__水色__
  6
CONTINUOUS
 62
    4
 10
1455.1118112412485
 20
777.54149585894936
 40
1.2083333333333581
 50
307.52351320333912
 51
232.47648680464988
  0
ARC
  8
_0-1_線色１__水色__
  6
CONTINUOUS
 62
    4
 10
1453.6398510970423
 20
775.6248291921446
 40
1.2083333333333179
 50
127.52351320610693
 51
52.47648680188081
  0
ARC
  8
_0-1_線色１__水色__
  6
CONTINUOUS
 62
    4
 10
1456.5837713857252
 20
775.62482919235038
 40
1.2083333333333179
 50
127.52351320610693
 51
52.47648680188081
  0
ARC
  8
_0-1_線色１__水色__
  6
CONTINUOUS
 62
    4
 10
1452.1678909525656
 20
777.54149585874472
 40
1.2083333333333581
 50
307.52351320333912
 51
232.47648680464988
  0
ARC
  8
_0-1_線色１__水色__
  6
CONTINUOUS
 62
    4
 10
1434.5043692204888
 20
777.54149585811035
 40
1.2083333333333581
 50
307.52351320333912
 51
232.47648680464988
  0
ARC
  8
_0-1_線色１__水色__
  6
CONTINUOUS
 62
    4
 10
1435.9763293649655
 20
775.62482919151137
 40
1.2083333333333179
 50
127.52351320610693
 51
52.47648680188081
  0
ARC
  8
_0-1_線色１__水色__
  6
CONTINUOUS
 62
    4
 10
1431.5604489318059
 20
777.54149585790572
 40
1.2083333333333581
 50
307.52351320333912
 51
232.47648680464988
  0
ARC
  8
_0-1_線色１__水色__
  6
CONTINUOUS
 62
    4
 10
1433.0324090762804
 20
775.62482919130559
 40
1.2083333333333179
 50
127.52351320610693
 51
52.47648680188081
  0
ARC
  8
_0-1_線色１__水色__
  6
CONTINUOUS
 62
    4
 10
1428.616528643123
 20
777.54149585769994
 40
1.2083333333333581
 50
307.52351320333912
 51
232.47648680464988
  0
ARC
  8
_0-1_線色１__水色__
  6
CONTINUOUS
 62
    4
 10
1430.0884887875975
 20
775.62482919110096
 40
1.2083333333333179
 50
127.52351320610693
 51
52.47648680188081
  0
ARC
  8
_0-1_線色１__水色__
  6
CONTINUOUS
 62
    4
 10
1427.1445684989146
 20
775.62482919089518
 40
1.2083333333333179
 50
127.52351320610693
 51
52.47648680188081
  0
ARC
  8
_0-1_線色１__水色__
  6
CONTINUOUS
 62
    4
 10
1438.9202496536484
 20
775.62482919110096
 40
1.2083333333333179
 50
127.52351320610693
 51
52.47648680188081
  0
ARC
  8
_0-1_線色１__水色__
  6
CONTINUOUS
 62
    4
 10
1437.4482895091717
 20
777.54149585769994
 40
1.2083333333333581
 50
307.52351320333912
 51
232.47648680464988
  0
ARC
  8
_0-1_線色１__水色__
  6
CONTINUOUS
 62
    4
 10
1449.2239706639054
 20
777.54149585852076
 40
1.2083333333333581
 50
307.52351320333912
 51
232.47648680464988
  0
ARC
  8
_0-1_線色１__水色__
  6
CONTINUOUS
 62
    4
 10
1446.2800503752226
 20
777.54149585831613
 40
1.2083333333333581
 50
307.52351320333912
 51
232.47648680464988
  0
ARC
  8
_0-1_線色１__水色__
  6
CONTINUOUS
 62
    4
 10
1447.752010519697
 20
775.624829191716
 40
1.2083333333333179
 50
127.52351320610693
 51
52.47648680188081
  0
ARC
  8
_0-1_線色１__水色__
  6
CONTINUOUS
 62
    4
 10
1443.3361300865397
 20
777.54149585811035
 40
1.2083333333333581
 50
307.52351320333912
 51
232.47648680464988
  0
ARC
  8
_0-1_線色１__水色__
  6
CONTINUOUS
 62
    4
 10
1441.8641699423313
 20
775.62482919130559
 40
1.2083333333333179
 50
127.52351320610693
 51
52.47648680188081
  0
ARC
  8
_0-1_線色１__水色__
  6
CONTINUOUS
 62
    4
 10
1444.8080902310141
 20
775.62482919151137
 40
1.2083333333333179
 50
127.52351320610693
 51
52.47648680188081
  0
ARC
  8
_0-1_線色１__水色__
  6
CONTINUOUS
 62
    4
 10
1440.3922097978545
 20
777.54149585790572
 40
1.2083333333333581
 50
307.52351320333912
 51
232.47648680464988
  0
ARC
  8
_0-1_線色１__水色__
  6
CONTINUOUS
 62
    4
 10
1450.6959308083799
 20
775.62482919192178
 40
1.2083333333333179
 50
127.52351320610693
 51
52.47648680188081
  0
ARC
  8
_0-1_線色１__水色__
  6
CONTINUOUS
 62
    4
 10
1425.6726083544152
 20
777.54149586122423
 40
1.2083333333333581
 50
307.52351320333912
 51
232.47648680464988
  0
ARC
  8
_0-1_線色１__水色__
  6
CONTINUOUS
 62
    4
 10
1422.7286880657334
 20
777.54149586101846
 40
1.2083333333333581
 50
307.52351320333912
 51
232.47648680464988
  0
ARC
  8
_0-1_線色１__水色__
  6
CONTINUOUS
 62
    4
 10
1424.2006482102079
 20
775.62482919441948
 40
1.2083333333333179
 50
127.52351320610693
 51
52.47648680188081
  0
ARC
  8
_0-1_線色１__水色__
  6
CONTINUOUS
 62
    4
 10
1419.7847677770505
 20
777.54149586081382
 40
1.2083333333333581
 50
307.52351320333912
 51
232.47648680464988
  0
ARC
  8
_0-1_線色１__水色__
  6
CONTINUOUS
 62
    4
 10
1421.256727921525
 20
775.6248291942137
 40
1.2083333333333179
 50
127.52351320610693
 51
52.47648680188081
  0
ARC
  8
_0-1_線色１__水色__
  6
CONTINUOUS
 62
    4
 10
1416.8408474883654
 20
777.54149586060805
 40
1.2083333333333581
 50
307.52351320333912
 51
232.47648680464988
  0
ARC
  8
_0-1_線色１__水色__
  6
CONTINUOUS
 62
    4
 10
1415.3688873441592
 20
775.62482919380329
 40
1.2083333333333179
 50
127.52351320610693
 51
52.47648680188081
  0
ARC
  8
_0-1_線色１__水色__
  6
CONTINUOUS
 62
    4
 10
1418.3128076328421
 20
775.62482919400907
 40
1.2083333333333179
 50
127.52351320610693
 51
52.47648680188081
  0
ARC
  8
_0-1_線色１__水色__
  6
CONTINUOUS
 62
    4
 10
1413.8969271996825
 20
777.54149586040342
 40
1.2083333333333581
 50
307.52351320333912
 51
232.47648680464988
  0
ARC
  8
_0-1_線色１__水色__
  6
CONTINUOUS
 62
    4
 10
1396.2334054676057
 20
777.54149585976904
 40
1.2083333333333581
 50
307.52351320333912
 51
232.47648680464988
  0
ARC
  8
_0-1_線色１__水色__
  6
CONTINUOUS
 62
    4
 10
1397.7053656120825
 20
775.62482919317006
 40
1.2083333333333179
 50
127.52351320610693
 51
52.47648680188081
  0
ARC
  8
_0-1_線色１__水色__
  6
CONTINUOUS
 62
    4
 10
1393.2894851789229
 20
777.54149585956441
 40
1.2083333333333581
 50
307.52351320333912
 51
232.47648680464988
  0
ARC
  8
_0-1_線色１__水色__
  6
CONTINUOUS
 62
    4
 10
1394.7614453233973
 20
775.62482919296428
 40
1.2083333333333179
 50
127.52351320610693
 51
52.47648680188081
  0
ARC
  8
_0-1_線色１__水色__
  6
CONTINUOUS
 62
    4
 10
1390.34556489024
 20
777.54149585935863
 40
1.2083333333333581
 50
307.52351320333912
 51
232.47648680464988
  0
ARC
  8
_0-1_線色１__水色__
  6
CONTINUOUS
 62
    4
 10
1391.8175250347144
 20
775.62482919275965
 40
1.2083333333333179
 50
127.52351320610693
 51
52.47648680188081
  0
ARC
  8
_0-1_線色１__水色__
  6
CONTINUOUS
 62
    4
 10
1388.8736047460316
 20
775.62482919255388
 40
1.2083333333333179
 50
127.52351320610693
 51
52.47648680188081
  0
ARC
  8
_0-1_線色１__水色__
  6
CONTINUOUS
 62
    4
 10
1400.6492859007653
 20
775.62482919275965
 40
1.2083333333333179
 50
127.52351320610693
 51
52.47648680188081
  0
ARC
  8
_0-1_線色１__水色__
  6
CONTINUOUS
 62
    4
 10
1399.1773257562886
 20
777.54149585935863
 40
1.2083333333333581
 50
307.52351320333912
 51
232.47648680464988
  0
ARC
  8
_0-1_線色１__水色__
  6
CONTINUOUS
 62
    4
 10
1410.9530069110224
 20
777.54149586017945
 40
1.2083333333333581
 50
307.52351320333912
 51
232.47648680464988
  0
ARC
  8
_0-1_線色１__水色__
  6
CONTINUOUS
 62
    4
 10
1408.0090866223395
 20
777.54149585997482
 40
1.2083333333333581
 50
307.52351320333912
 51
232.47648680464988
  0
ARC
  8
_0-1_線色１__水色__
  6
CONTINUOUS
 62
    4
 10
1409.481046766814
 20
775.62482919337469
 40
1.2083333333333179
 50
127.52351320610693
 51
52.47648680188081
  0
ARC
  8
_0-1_線色１__水色__
  6
CONTINUOUS
 62
    4
 10
1405.0651663336566
 20
777.54149585976904
 40
1.2083333333333581
 50
307.52351320333912
 51
232.47648680464988
  0
ARC
  8
_0-1_線色１__水色__
  6
CONTINUOUS
 62
    4
 10
1403.5932061894482
 20
775.62482919296428
 40
1.2083333333333179
 50
127.52351320610693
 51
52.47648680188081
  0
ARC
  8
_0-1_線色１__水色__
  6
CONTINUOUS
 62
    4
 10
1406.5371264781311
 20
775.62482919317006
 40
1.2083333333333179
 50
127.52351320610693
 51
52.47648680188081
  0
ARC
  8
_0-1_線色１__水色__
  6
CONTINUOUS
 62
    4
 10
1402.1212460449715
 20
777.54149585956441
 40
1.2083333333333581
 50
307.52351320333912
 51
232.47648680464988
  0
ARC
  8
_0-1_線色１__水色__
  6
CONTINUOUS
 62
    4
 10
1412.4249670554968
 20
775.62482919358047
 40
1.2083333333333179
 50
127.52351320610693
 51
52.47648680188081
  0
ARC
  8
_0-1_線色１__水色__
  6
CONTINUOUS
 62
    4
 10
1387.4016446015321
 20
777.54149586288293
 40
1.2083333333333581
 50
307.52351320333912
 51
232.47648680464988
  0
ARC
  8
_0-1_線色１__水色__
  6
CONTINUOUS
 62
    4
 10
1384.4577243128504
 20
777.54149586267602
 40
1.2083333333333581
 50
307.52351320333912
 51
232.47648680464988
  0
ARC
  8
_0-1_線色１__水色__
  6
CONTINUOUS
 62
    4
 10
1385.9296844573248
 20
775.62482919607703
 40
1.2083333333333179
 50
127.52351320610693
 51
52.47648680188081
  0
ARC
  8
_0-1_線色１__水色__
  6
CONTINUOUS
 62
    4
 10
1381.5138040241675
 20
777.54149586247138
 40
1.2083333333333581
 50
307.52351320333912
 51
232.47648680464988
  0
ARC
  8
_0-1_線色１__水色__
  6
CONTINUOUS
 62
    4
 10
1382.9857641686419
 20
775.62482919587126
 40
1.2083333333333179
 50
127.52351320610693
 51
52.47648680188081
  0
ARC
  8
_0-1_線色１__水色__
  6
CONTINUOUS
 62
    4
 10
1378.5698837354823
 20
777.54149586226561
 40
1.2083333333333581
 50
307.52351320333912
 51
232.47648680464988
  0
ARC
  8
_0-1_線色１__水色__
  6
CONTINUOUS
 62
    4
 10
1377.0979235912762
 20
775.62482919546085
 40
1.2083333333333179
 50
127.52351320610693
 51
52.47648680188081
  0
ARC
  8
_0-1_線色１__水色__
  6
CONTINUOUS
 62
    4
 10
1380.0418438799591
 20
775.62482919566662
 40
1.2083333333333179
 50
127.52351320610693
 51
52.47648680188081
  0
ARC
  8
_0-1_線色１__水色__
  6
CONTINUOUS
 62
    4
 10
1375.6259634467995
 20
777.54149586206097
 40
1.2083333333333581
 50
307.52351320333912
 51
232.47648680464988
  0
ARC
  8
_0-1_線色１__水色__
  6
CONTINUOUS
 62
    4
 10
1357.9624417147227
 20
777.54149586142773
 40
1.2083333333333581
 50
307.52351320333912
 51
232.47648680464988
  0
ARC
  8
_0-1_線色１__水色__
  6
CONTINUOUS
 62
    4
 10
1359.4344018591994
 20
775.62482919482761
 40
1.2083333333333179
 50
127.52351320610693
 51
52.47648680188081
  0
ARC
  8
_0-1_線色１__水色__
  6
CONTINUOUS
 62
    4
 10
1355.0185214260398
 20
777.54149586122196
 40
1.2083333333333581
 50
307.52351320333912
 51
232.47648680464988
  0
ARC
  8
_0-1_線色１__水色__
  6
CONTINUOUS
 62
    4
 10
1356.4904815705142
 20
775.62482919462298
 40
1.2083333333333179
 50
127.52351320610693
 51
52.47648680188081
  0
ARC
  8
_0-1_線色１__水色__
  6
CONTINUOUS
 62
    4
 10
1352.0746011373569
 20
777.54149586101732
 40
1.2083333333333581
 50
307.52351320333912
 51
232.47648680464988
  0
ARC
  8
_0-1_線色１__水色__
  6
CONTINUOUS
 62
    4
 10
1353.5465612818314
 20
775.6248291944172
 40
1.2083333333333179
 50
127.52351320610693
 51
52.47648680188081
  0
ARC
  8
_0-1_線色１__水色__
  6
CONTINUOUS
 62
    4
 10
1350.6026409931485
 20
775.62482919421257
 40
1.2083333333333179
 50
127.52351320610693
 51
52.47648680188081
  0
ARC
  8
_0-1_線色１__水色__
  6
CONTINUOUS
 62
    4
 10
1362.3783221478823
 20
775.6248291944172
 40
1.2083333333333179
 50
127.52351320610693
 51
52.47648680188081
  0
ARC
  8
_0-1_線色１__水色__
  6
CONTINUOUS
 62
    4
 10
1360.9063620034055
 20
777.54149586101732
 40
1.2083333333333581
 50
307.52351320333912
 51
232.47648680464988
  0
ARC
  8
_0-1_線色１__水色__
  6
CONTINUOUS
 62
    4
 10
1372.6820431581393
 20
777.54149586183814
 40
1.2083333333333581
 50
307.52351320333912
 51
232.47648680464988
  0
ARC
  8
_0-1_線色１__水色__
  6
CONTINUOUS
 62
    4
 10
1369.7381228694564
 20
777.54149586163237
 40
1.2083333333333581
 50
307.52351320333912
 51
232.47648680464988
  0
ARC
  8
_0-1_線色１__水色__
  6
CONTINUOUS
 62
    4
 10
1371.2100830139309
 20
775.62482919503339
 40
1.2083333333333179
 50
127.52351320610693
 51
52.47648680188081
  0
ARC
  8
_0-1_線色１__水色__
  6
CONTINUOUS
 62
    4
 10
1366.7942025807736
 20
777.54149586142773
 40
1.2083333333333581
 50
307.52351320333912
 51
232.47648680464988
  0
ARC
  8
_0-1_線色１__水色__
  6
CONTINUOUS
 62
    4
 10
1365.3222424365651
 20
775.62482919462298
 40
1.2083333333333179
 50
127.52351320610693
 51
52.47648680188081
  0
ARC
  8
_0-1_線色１__水色__
  6
CONTINUOUS
 62
    4
 10
1368.266162725248
 20
775.62482919482761
 40
1.2083333333333179
 50
127.52351320610693
 51
52.47648680188081
  0
ARC
  8
_0-1_線色１__水色__
  6
CONTINUOUS
 62
    4
 10
1363.8502822920884
 20
777.54149586122196
 40
1.2083333333333581
 50
307.52351320333912
 51
232.47648680464988
  0
ARC
  8
_0-1_線色１__水色__
  6
CONTINUOUS
 62
    4
 10
1374.1540033026138
 20
775.62482919523802
 40
1.2083333333333179
 50
127.52351320610693
 51
52.47648680188081
  0
ARC
  8
_0-1_線色１__水色__
  6
CONTINUOUS
 62
    4
 10
1349.130680848649
 20
777.54149586454048
 40
1.2083333333333581
 50
307.52351320333912
 51
232.47648680464988
  0
ARC
  8
_0-1_線色１__水色__
  6
CONTINUOUS
 62
    4
 10
1346.1867605599673
 20
777.54149586433471
 40
1.2083333333333581
 50
307.52351320333912
 51
232.47648680464988
  0
ARC
  8
_0-1_線色１__水色__
  6
CONTINUOUS
 62
    4
 10
1347.6587207044417
 20
775.62482919773572
 40
1.2083333333333179
 50
127.52351320610693
 51
52.47648680188081
  0
ARC
  8
_0-1_線色１__水色__
  6
CONTINUOUS
 62
    4
 10
1343.2428402712844
 20
777.54149586413007
 40
1.2083333333333581
 50
307.52351320333912
 51
232.47648680464988
  0
ARC
  8
_0-1_線色１__水色__
  6
CONTINUOUS
 62
    4
 10
1344.7148004157589
 20
775.62482919752995
 40
1.2083333333333179
 50
127.52351320610693
 51
52.47648680188081
  0
ARC
  8
_0-1_線色１__水色__
  6
CONTINUOUS
 62
    4
 10
1340.2989199825993
 20
777.5414958639243
 40
1.2083333333333581
 50
307.52351320333912
 51
232.47648680464988
  0
ARC
  8
_0-1_線色１__水色__
  6
CONTINUOUS
 62
    4
 10
1338.8269598383931
 20
775.62482919711954
 40
1.2083333333333179
 50
127.52351320610693
 51
52.47648680188081
  0
ARC
  8
_0-1_線色１__水色__
  6
CONTINUOUS
 62
    4
 10
1341.770880127076
 20
775.62482919732531
 40
1.2083333333333179
 50
127.52351320610693
 51
52.47648680188081
  0
ARC
  8
_0-1_線色１__水色__
  6
CONTINUOUS
 62
    4
 10
1337.3549996939164
 20
777.54149586371966
 40
1.2083333333333581
 50
307.52351320333912
 51
232.47648680464988
  0
ARC
  8
_0-1_線色１__水色__
  6
CONTINUOUS
 62
    4
 10
1319.6914779618396
 20
777.54149586308642
 40
1.2083333333333581
 50
307.52351320333912
 51
232.47648680464988
  0
ARC
  8
_0-1_線色１__水色__
  6
CONTINUOUS
 62
    4
 10
1321.1634381063163
 20
775.6248291964863
 40
1.2083333333333179
 50
127.52351320610693
 51
52.47648680188081
  0
ARC
  8
_0-1_線色１__水色__
  6
CONTINUOUS
 62
    4
 10
1316.7475576731567
 20
777.54149586288065
 40
1.2083333333333581
 50
307.52351320333912
 51
232.47648680464988
  0
ARC
  8
_0-1_線色１__水色__
  6
CONTINUOUS
 62
    4
 10
1318.2195178176312
 20
775.62482919628167
 40
1.2083333333333179
 50
127.52351320610693
 51
52.47648680188081
  0
ARC
  8
_0-1_線色１__水色__
  6
CONTINUOUS
 62
    4
 10
1313.8036373844739
 20
777.54149586267602
 40
1.2083333333333581
 50
307.52351320333912
 51
232.47648680464988
  0
ARC
  8
_0-1_線色１__水色__
  6
CONTINUOUS
 62
    4
 10
1315.2755975289483
 20
775.62482919607589
 40
1.2083333333333179
 50
127.52351320610693
 51
52.47648680188081
  0
ARC
  8
_0-1_線色１__水色__
  6
CONTINUOUS
 62
    4
 10
1312.3316772402654
 20
775.62482919587126
 40
1.2083333333333179
 50
127.52351320610693
 51
52.47648680188081
  0
ARC
  8
_0-1_線色１__水色__
  6
CONTINUOUS
 62
    4
 10
1324.1073583949992
 20
775.62482919607589
 40
1.2083333333333179
 50
127.52351320610693
 51
52.47648680188081
  0
ARC
  8
_0-1_線色１__水色__
  6
CONTINUOUS
 62
    4
 10
1322.6353982505225
 20
777.54149586267602
 40
1.2083333333333581
 50
307.52351320333912
 51
232.47648680464988
  0
ARC
  8
_0-1_線色１__水色__
  6
CONTINUOUS
 62
    4
 10
1334.4110794052563
 20
777.54149586349683
 40
1.2083333333333581
 50
307.52351320333912
 51
232.47648680464988
  0
ARC
  8
_0-1_線色１__水色__
  6
CONTINUOUS
 62
    4
 10
1331.4671591165734
 20
777.54149586329106
 40
1.2083333333333581
 50
307.52351320333912
 51
232.47648680464988
  0
ARC
  8
_0-1_線色１__水色__
  6
CONTINUOUS
 62
    4
 10
1332.9391192610478
 20
775.62482919669208
 40
1.2083333333333179
 50
127.52351320610693
 51
52.47648680188081
  0
ARC
  8
_0-1_線色１__水色__
  6
CONTINUOUS
 62
    4
 10
1328.5232388278905
 20
777.54149586308642
 40
1.2083333333333581
 50
307.52351320333912
 51
232.47648680464988
  0
ARC
  8
_0-1_線色１__水色__
  6
CONTINUOUS
 62
    4
 10
1327.0512786836821
 20
775.62482919628167
 40
1.2083333333333179
 50
127.52351320610693
 51
52.47648680188081
  0
ARC
  8
_0-1_線色１__水色__
  6
CONTINUOUS
 62
    4
 10
1329.995198972365
 20
775.6248291964863
 40
1.2083333333333179
 50
127.52351320610693
 51
52.47648680188081
  0
ARC
  8
_0-1_線色１__水色__
  6
CONTINUOUS
 62
    4
 10
1325.5793185392054
 20
777.54149586288065
 40
1.2083333333333581
 50
307.52351320333912
 51
232.47648680464988
  0
ARC
  8
_0-1_線色１__水色__
  6
CONTINUOUS
 62
    4
 10
1335.8830395497307
 20
775.62482919689671
 40
1.2083333333333179
 50
127.52351320610693
 51
52.47648680188081
  0
ARC
  8
_0-1_線色１__水色__
  6
CONTINUOUS
 62
    4
 10
1310.859717095766
 20
777.54149586619917
 40
1.2083333333333581
 50
307.52351320333912
 51
232.47648680464988
  0
ARC
  8
_0-1_線色１__水色__
  6
CONTINUOUS
 62
    4
 10
1307.9157968070842
 20
777.5414958659934
 40
1.2083333333333581
 50
307.52351320333912
 51
232.47648680464988
  0
ARC
  8
_0-1_線色１__水色__
  6
CONTINUOUS
 62
    4
 10
1309.3877569515587
 20
775.62482919939441
 40
1.2083333333333179
 50
127.52351320610693
 51
52.47648680188081
  0
ARC
  8
_0-1_線色１__水色__
  6
CONTINUOUS
 62
    4
 10
1304.9718765184014
 20
777.54149586578876
 40
1.2083333333333581
 50
307.52351320333912
 51
232.47648680464988
  0
ARC
  8
_0-1_線色１__水色__
  6
CONTINUOUS
 62
    4
 10
1306.4438366628758
 20
775.62482919918864
 40
1.2083333333333179
 50
127.52351320610693
 51
52.47648680188081
  0
ARC
  8
_0-1_線色１__水色__
  6
CONTINUOUS
 62
    4
 10
1302.0279562297162
 20
777.54149586558299
 40
1.2083333333333581
 50
307.52351320333912
 51
232.47648680464988
  0
ARC
  8
_0-1_線色１__水色__
  6
CONTINUOUS
 62
    4
 10
1300.5559960855101
 20
775.62482919877823
 40
1.2083333333333179
 50
127.52351320610693
 51
52.47648680188081
  0
ARC
  8
_0-1_線色１__水色__
  6
CONTINUOUS
 62
    4
 10
1303.4999163741929
 20
775.624829198984
 40
1.2083333333333179
 50
127.52351320610693
 51
52.47648680188081
  0
ARC
  8
_0-1_線色１__水色__
  6
CONTINUOUS
 62
    4
 10
1299.0840359410333
 20
777.54149586537835
 40
1.2083333333333581
 50
307.52351320333912
 51
232.47648680464988
  0
ARC
  8
_0-1_線色１__水色__
  6
CONTINUOUS
 62
    4
 10
1281.4205142089565
 20
777.54149586474398
 40
1.2083333333333581
 50
307.52351320333912
 51
232.47648680464988
  0
ARC
  8
_0-1_線色１__水色__
  6
CONTINUOUS
 62
    4
 10
1282.8924743534333
 20
775.62482919814499
 40
1.2083333333333179
 50
127.52351320610693
 51
52.47648680188081
  0
ARC
  8
_0-1_線色１__水色__
  6
CONTINUOUS
 62
    4
 10
1278.4765939202737
 20
777.54149586453934
 40
1.2083333333333581
 50
307.52351320333912
 51
232.47648680464988
  0
ARC
  8
_0-1_線色１__水色__
  6
CONTINUOUS
 62
    4
 10
1279.9485540647481
 20
775.62482919793922
 40
1.2083333333333179
 50
127.52351320610693
 51
52.47648680188081
  0
ARC
  8
_0-1_線色１__水色__
  6
CONTINUOUS
 62
    4
 10
1275.5326736315908
 20
777.54149586433357
 40
1.2083333333333581
 50
307.52351320333912
 51
232.47648680464988
  0
ARC
  8
_0-1_線色１__水色__
  6
CONTINUOUS
 62
    4
 10
1277.0046337760652
 20
775.62482919773458
 40
1.2083333333333179
 50
127.52351320610693
 51
52.47648680188081
  0
ARC
  8
_0-1_線色１__水色__
  6
CONTINUOUS
 62
    4
 10
1274.0607134873824
 20
775.62482919752881
 40
1.2083333333333179
 50
127.52351320610693
 51
52.47648680188081
  0
ARC
  8
_0-1_線色１__水色__
  6
CONTINUOUS
 62
    4
 10
1285.8363946421161
 20
775.62482919773458
 40
1.2083333333333179
 50
127.52351320610693
 51
52.47648680188081
  0
ARC
  8
_0-1_線色１__水色__
  6
CONTINUOUS
 62
    4
 10
1284.3644344976394
 20
777.54149586433357
 40
1.2083333333333581
 50
307.52351320333912
 51
232.47648680464988
  0
ARC
  8
_0-1_線色１__水色__
  6
CONTINUOUS
 62
    4
 10
1296.1401156523732
 20
777.54149586515439
 40
1.2083333333333581
 50
307.52351320333912
 51
232.47648680464988
  0
ARC
  8
_0-1_線色１__水色__
  6
CONTINUOUS
 62
    4
 10
1293.1961953636903
 20
777.54149586494975
 40
1.2083333333333581
 50
307.52351320333912
 51
232.47648680464988
  0
ARC
  8
_0-1_線色１__水色__
  6
CONTINUOUS
 62
    4
 10
1294.6681555081648
 20
775.62482919834963
 40
1.2083333333333179
 50
127.52351320610693
 51
52.47648680188081
  0
ARC
  8
_0-1_線色１__水色__
  6
CONTINUOUS
 62
    4
 10
1290.2522750750074
 20
777.54149586474398
 40
1.2083333333333581
 50
307.52351320333912
 51
232.47648680464988
  0
ARC
  8
_0-1_線色１__水色__
  6
CONTINUOUS
 62
    4
 10
1288.780314930799
 20
775.62482919793922
 40
1.2083333333333179
 50
127.52351320610693
 51
52.47648680188081
  0
ARC
  8
_0-1_線色１__水色__
  6
CONTINUOUS
 62
    4
 10
1291.7242352194819
 20
775.62482919814499
 40
1.2083333333333179
 50
127.52351320610693
 51
52.47648680188081
  0
ARC
  8
_0-1_線色１__水色__
  6
CONTINUOUS
 62
    4
 10
1287.3083547863223
 20
777.54149586453934
 40
1.2083333333333581
 50
307.52351320333912
 51
232.47648680464988
  0
ARC
  8
_0-1_線色１__水色__
  6
CONTINUOUS
 62
    4
 10
1297.6120757968476
 20
775.6248291985554
 40
1.2083333333333179
 50
127.52351320610693
 51
52.47648680188081
  0
ARC
  8
_0-1_線色１__水色__
  6
CONTINUOUS
 62
    4
 10
1272.5887533428829
 20
777.54149586785786
 40
1.2083333333333581
 50
307.52351320333912
 51
232.47648680464988
  0
ARC
  8
_0-1_線色１__水色__
  6
CONTINUOUS
 62
    4
 10
1269.6448330542012
 20
777.54149586765209
 40
1.2083333333333581
 50
307.52351320333912
 51
232.47648680464988
  0
ARC
  8
_0-1_線色１__水色__
  6
CONTINUOUS
 62
    4
 10
1271.1167931986756
 20
775.6248292010531
 40
1.2083333333333179
 50
127.52351320610693
 51
52.47648680188081
  0
ARC
  8
_0-1_線色１__水色__
  6
CONTINUOUS
 62
    4
 10
1266.7009127655183
 20
777.54149586744745
 40
1.2083333333333581
 50
307.52351320333912
 51
232.47648680464988
  0
ARC
  8
_0-1_線色１__水色__
  6
CONTINUOUS
 62
    4
 10
1268.1728729099927
 20
775.62482920084733
 40
1.2083333333333179
 50
127.52351320610693
 51
52.47648680188081
  0
ARC
  8
_0-1_線色１__水色__
  6
CONTINUOUS
 62
    4
 10
1263.7569924768331
 20
777.54149586724168
 40
1.2083333333333581
 50
307.52351320333912
 51
232.47648680464988
  0
ARC
  8
_0-1_線色１__水色__
  6
CONTINUOUS
 62
    4
 10
1262.285032332627
 20
775.62482920043692
 40
1.2083333333333179
 50
127.52351320610693
 51
52.47648680188081
  0
ARC
  8
_0-1_線色１__水色__
  6
CONTINUOUS
 62
    4
 10
1265.2289526213099
 20
775.62482920064269
 40
1.2083333333333179
 50
127.52351320610693
 51
52.47648680188081
  0
ARC
  8
_0-1_線色１__水色__
  6
CONTINUOUS
 62
    4
 10
1260.8130721881503
 20
777.54149586703704
 40
1.2083333333333581
 50
307.52351320333912
 51
232.47648680464988
  0
ARC
  8
_0-1_線色１__水色__
  6
CONTINUOUS
 62
    4
 10
1257.8691518994901
 20
777.54149586681308
 40
1.2083333333333581
 50
307.52351320333912
 51
232.47648680464988
  0
ARC
  8
_0-1_線色１__水色__
  6
CONTINUOUS
 62
    4
 10
1254.9252316108073
 20
777.54149586660844
 40
1.2083333333333581
 50
307.52351320333912
 51
232.47648680464988
  0
ARC
  8
_0-1_線色１__水色__
  6
CONTINUOUS
 62
    4
 10
1256.3971917552817
 20
775.62482920000832
 40
1.2083333333333179
 50
127.52351320610693
 51
52.47648680188081
  0
ARC
  8
_0-1_線色１__水色__
  6
CONTINUOUS
 62
    4
 10
1259.3411120439646
 20
775.62482920021409
 40
1.2083333333333179
 50
127.52351320610693
 51
52.47648680188081
  0
ARC
  8
_0-1_線色１__水色__
  6
CONTINUOUS
 62
    4
 10
1251.9813113221244
 20
777.54149586640267
 40
1.2083333333333581
 50
307.52351320333918
 51
69.092359369636583
  0
ARC
  8
_0-1_線色１__水色__
  6
CONTINUOUS
 62
    4
 10
1253.4532714665988
 20
775.62482919980368
 40
1.2083333333333179
 50
127.52351320610693
 51
149.46414004239466
  0
ARC
  8
_0-1_線色１__水色__
  6
CONTINUOUS
 62
    4
 10
1253.4532714665988
 20
775.62482919980368
 40
1.2083333333333179
 50
210.53585995760537
 51
52.47648680188081
  0
ARC
  8
_0-4_線色４__黄__
  6
CONTINUOUS
 62
    2
 10
1247.6962408104885
 20
784.53431130181855
 40
3.0000000000000004
 50
90
 51
185.00000000008285
  0
LINE
  8
_0-2_線色２__白__
  6
CONTINUOUS
 62
    7
 10
1292.4125202683626
 20
740.2831625148923
 11
1292.4125202683626
 21
774.08316251489225
  0
LINE
  8
_0-5_金属
  6
CONTINUOUS
 62
    7
 10
1293.6125202683627
 20
739.08316251489225
 11
1293.6125202683627
 21
689.08316251489225
  0
LINE
  8
_0-5_金属
  6
DASHED1
 62
    7
 10
1293.6125202683627
 20
702.08316251722351
 11
1497.8818876519745
 21
702.08316251722351
  0
LINE
  8
_0-2_線色２__白__
  6
CONTINUOUS
 62
    7
 10
1252.4125202683626
 20
779.08316251489225
 11
1497.8818876519745
 21
779.08316251489225
  0
LINE
  8
_0-2_線色２__白__
  6
CONTINUOUS
 62
    7
 10
1257.4125202683626
 20
774.08316251489225
 11
1497.8818876519745
 21
774.08316251489225
  0
LINE
  8
_0-2_線色２__白__
  6
CONTINUOUS
 62
    7
 10
1257.4125202683626
 20
774.08316251489225
 11
1257.4125202683626
 21
640.2831625148923
  0
LINE
  8
_0-2_線色２__白__
  6
CONTINUOUS
 62
    7
 10
1251.2079364633428
 20
767.34287280993556
 11
1252.4125202683626
 21
753.57441691572433
  0
LINE
  8
_0-4_線色４__黄__
  6
CONTINUOUS
 62
    2
 10
1244.7076567162128
 20
784.27284407357149
 11
1247.4125202683626
 21
753.35611220118892
  0
LINE
  8
_0-2_線色２__白__
  6
CONTINUOUS
 62
    7
 10
1194.1131288303063
 20
679.94755317666716
 11
1193.098115877491
 21
679.08291251315688
  0
LINE
  8
_0-4_線色４__黄__
  6
CONTINUOUS
 62
    2
 10
1193.4675967569513
 20
692.53406130008273
 11
1189.4162481809951
 21
689.08291251315688
  0
LINE
  8
_0-4_線色４__黄__
  6
CONTINUOUS
 62
    2
 10
1240.7532068737385
 20
692.53406130008273
 11
1193.4675967569513
 21
692.53406130008273
  0
LINE
  8
_0-4_線色４__黄__
  6
CONTINUOUS
 62
    2
 10
1243.707630132775
 20
695.01311676708099
 11
1244.0806233694286
 21
697.1284665289528
  0
ARC
  8
_0-4_線色４__黄__
  6
CONTINUOUS
 62
    2
 10
1240.7532068737385
 20
695.53406130008341
 40
3.0000000000000004
 50
270
 51
349.99999999998295
  0
ARC
  8
_0-2_線色２__白__
  6
CONTINUOUS
 62
    7
 10
1240.7532068737385
 20
695.53406130008341
 40
8
 50
270
 51
349.99999999998295
  0
LINE
  8
_0-2_線色２__白__
  6
CONTINUOUS
 62
    7
 10
1189.4162481809951
 20
689.08291251315688
 11
1189.3980293934715
 21
689.21381745983865
  0
LINE
  8
_0-2_線色２__白__
  6
CONTINUOUS
 62
    7
 10
1189.3980293934715
 20
689.21381745983865
 11
1189.3649626138108
 21
689.43889139485748
  0
LINE
  8
_0-2_線色２__白__
  6
CONTINUOUS
 62
    7
 10
1189.3649626138108
 20
689.43889139485748
 11
1189.3272983979443
 21
689.66223130511537
  0
LINE
  8
_0-2_線色２__白__
  6
CONTINUOUS
 62
    7
 10
1189.3272983979443
 20
689.66223130511537
 11
1189.2821269761214
 21
689.88273970658668
  0
LINE
  8
_0-2_線色２__白__
  6
CONTINUOUS
 62
    7
 10
1189.2821269761214
 20
689.88273970658668
 11
1189.2265385785902
 21
690.09931911524461
  0
LINE
  8
_0-2_線色２__白__
  6
CONTINUOUS
 62
    7
 10
1189.2265385785902
 20
690.09931911524461
 11
1189.1576234356012
 21
690.31087204706353
  0
LINE
  8
_0-2_線色２__白__
  6
CONTINUOUS
 62
    7
 10
1189.1576234356012
 20
690.31087204706353
 11
1189.1103997373091
 21
690.43083715005594
  0
LINE
  8
_0-2_線色２__白__
  6
CONTINUOUS
 62
    7
 10
1189.1103997373091
 20
690.43083715005594
 11
1189.0694586760458
 21
690.52295398964645
  0
LINE
  8
_0-2_線色２__白__
  6
CONTINUOUS
 62
    7
 10
1189.0694586760458
 20
690.52295398964645
 11
1188.9910435033642
 21
690.67866829265938
  0
LINE
  8
_0-2_線色２__白__
  6
CONTINUOUS
 62
    7
 10
1188.9910435033642
 20
690.67866829265938
 11
1188.9039364890368
 21
690.83067189554015
  0
LINE
  8
_0-2_線色２__白__
  6
CONTINUOUS
 62
    7
 10
1188.9039364890368
 20
690.83067189554015
 11
1188.8095514998884
 21
690.97922441134017
  0
LINE
  8
_0-2_線色２__白__
  6
CONTINUOUS
 62
    7
 10
1188.8095514998884
 20
690.97922441134017
 11
1188.7093024027445
 21
691.12458545311199
  0
LINE
  8
_0-2_線色２__白__
  6
CONTINUOUS
 62
    7
 10
1188.7093024027445
 20
691.12458545311199
 11
1188.6046030644275
 21
691.26701463390816
  0
LINE
  8
_0-2_線色２__白__
  6
CONTINUOUS
 62
    7
 10
1188.6046030644275
 20
691.26701463390816
 11
1188.5423954847488
 21
691.34838248111294
  0
LINE
  8
_0-2_線色２__白__
  6
CONTINUOUS
 62
    7
 10
1188.5423954847488
 20
691.34838248111294
 11
1188.4681792108131
 21
691.4430660739157
  0
LINE
  8
_0-2_線色２__白__
  6
CONTINUOUS
 62
    7
 10
1188.4681792108131
 20
691.4430660739157
 11
1188.3379542707087
 21
691.60378486777688
  0
LINE
  8
_0-2_線色２__白__
  6
CONTINUOUS
 62
    7
 10
1188.3379542707087
 20
691.60378486777688
 11
1188.2051024514885
 21
691.76165163016833
  0
LINE
  8
_0-2_線色２__白__
  6
CONTINUOUS
 62
    7
 10
1188.2051024514885
 20
691.76165163016833
 11
1188.0699043133598
 21
691.91707212363383
  0
LINE
  8
_0-2_線色２__白__
  6
CONTINUOUS
 62
    7
 10
1188.0699043133598
 20
691.91707212363383
 11
1187.9326404165374
 21
692.0704521107217
  0
LINE
  8
_0-2_線色２__白__
  6
CONTINUOUS
 62
    7
 10
1187.9326404165374
 20
692.0704521107217
 11
1187.7935913212286
 21
692.22219735397687
  0
LINE
  8
_0-2_線色２__白__
  6
CONTINUOUS
 62
    7
 10
1187.7935913212286
 20
692.22219735397687
 11
1187.7122354233154
 21
692.30962044698288
  0
LINE
  8
_0-2_線色２__白__
  6
CONTINUOUS
 62
    7
 10
1187.7122354233154
 20
692.30962044698288
 11
1187.6266003499018
 21
692.40069062138161
  0
LINE
  8
_0-2_線色２__白__
  6
CONTINUOUS
 62
    7
 10
1187.6266003499018
 20
692.40069062138161
 11
1187.4774029915943
 21
692.55639237021512
  0
LINE
  8
_0-2_線色２__白__
  6
CONTINUOUS
 62
    7
 10
1187.4774029915943
 20
692.55639237021512
 11
1187.3256527780234
 21
692.70973834861422
  0
LINE
  8
_0-2_線色２__白__
  6
CONTINUOUS
 62
    7
 10
1187.3256527780234
 20
692.70973834861422
 11
1187.1706636985209
 21
692.85992598753467
  0
LINE
  8
_0-2_線色２__白__
  6
CONTINUOUS
 62
    7
 10
1187.1706636985209
 20
692.85992598753467
 11
1187.0117497424144
 21
693.0061527179322
  0
LINE
  8
_0-2_線色２__白__
  6
CONTINUOUS
 62
    7
 10
1187.0117497424144
 20
693.0061527179322
 11
1186.8482248990324
 21
693.14761597076028
  0
LINE
  8
_0-2_線色２__白__
  6
CONTINUOUS
 62
    7
 10
1186.8482248990324
 20
693.14761597076028
 11
1186.7509974574466
 21
693.22716577804101
  0
LINE
  8
_0-2_線色２__白__
  6
CONTINUOUS
 62
    7
 10
1186.7509974574466
 20
693.22716577804101
 11
1186.6633437579037
 21
693.29589113053714
  0
LINE
  8
_0-2_線色２__白__
  6
CONTINUOUS
 62
    7
 10
1186.6633437579037
 20
693.29589113053714
 11
1186.5087306579835
 21
693.41010389833684
  0
LINE
  8
_0-2_線色２__白__
  6
CONTINUOUS
 62
    7
 10
1186.5087306579835
 20
693.41010389833684
 11
1186.3497655147933
 21
693.51807658726841
  0
LINE
  8
_0-2_線色２__白__
  6
CONTINUOUS
 62
    7
 10
1186.3497655147933
 20
693.51807658726841
 11
1186.1865188575678
 21
693.61885181869468
  0
LINE
  8
_0-2_線色２__白__
  6
CONTINUOUS
 62
    7
 10
1186.1865188575678
 20
693.61885181869468
 11
1186.0190612155361
 21
693.71147221398076
  0
LINE
  8
_0-2_線色２__白__
  6
CONTINUOUS
 62
    7
 10
1186.0190612155361
 20
693.71147221398076
 11
1185.8474631179331
 21
693.79498039449174
  0
LINE
  8
_0-2_線色２__白__
  6
CONTINUOUS
 62
    7
 10
1185.8474631179331
 20
693.79498039449174
 11
1185.7460668567637
 21
693.8388626654131
  0
LINE
  8
_0-2_線色２__白__
  6
CONTINUOUS
 62
    7
 10
1185.7460668567637
 20
693.8388626654131
 11
1185.632161364025
 21
693.88339137867604
  0
LINE
  8
_0-2_線色２__白__
  6
CONTINUOUS
 62
    7
 10
1185.632161364025
 20
693.88339137867604
 11
1185.4322729061698
 21
693.95070200708972
  0
LINE
  8
_0-2_線色２__白__
  6
CONTINUOUS
 62
    7
 10
1185.4322729061698
 20
693.95070200708972
 11
1185.2285708073111
 21
694.00730555858843
  0
LINE
  8
_0-2_線色２__白__
  6
CONTINUOUS
 62
    7
 10
1185.2285708073111
 20
694.00730555858843
 11
1185.0217717305031
 21
694.05468043231906
  0
LINE
  8
_0-2_線色２__白__
  6
CONTINUOUS
 62
    7
 10
1185.0217717305031
 20
694.05468043231906
 11
1184.8125923387943
 21
694.0943050274285
  0
LINE
  8
_0-2_線色２__白__
  6
CONTINUOUS
 62
    7
 10
1184.8125923387943
 20
694.0943050274285
 11
1184.6017492952376
 21
694.12765774306365
  0
LINE
  8
_0-2_線色２__白__
  6
CONTINUOUS
 62
    7
 10
1184.6017492952376
 20
694.12765774306365
 11
1184.4789804472077
 21
694.14471110909801
  0
LINE
  8
_0-2_線色２__白__
  6
CONTINUOUS
 62
    7
 10
1184.4789804472077
 20
694.14471110909801
 11
1184.3305234771253
 21
694.16342810836511
  0
LINE
  8
_0-2_線色２__白__
  6
CONTINUOUS
 62
    7
 10
1184.3305234771253
 20
694.16342810836511
 11
1184.0742032118408
 21
694.19033486945466
  0
LINE
  8
_0-2_線色２__白__
  6
CONTINUOUS
 62
    7
 10
1184.0742032118408
 20
694.19033486945466
 11
1183.8178078832595
 21
694.20919311675391
  0
LINE
  8
_0-2_線色２__白__
  6
CONTINUOUS
 62
    7
 10
1183.8178078832595
 20
694.20919311675391
 11
1183.5617800466287
 21
694.21853920794035
  0
LINE
  8
_0-2_線色２__白__
  6
CONTINUOUS
 62
    7
 10
1183.5617800466287
 20
694.21853920794035
 11
1183.3065622571939
 21
694.21690950069376
  0
LINE
  8
_0-2_線色２__白__
  6
CONTINUOUS
 62
    7
 10
1183.3065622571939
 20
694.21690950069376
 11
1183.0525970702024
 21
694.20284035269049
  0
LINE
  8
_0-2_線色２__白__
  6
CONTINUOUS
 62
    7
 10
1183.0525970702024
 20
694.20284035269049
 11
1182.9060455939668
 21
694.18840374391095
  0
LINE
  8
_0-2_線色２__白__
  6
CONTINUOUS
 62
    7
 10
1182.9060455939668
 20
694.18840374391095
 11
1182.7987014023995
 21
694.1747139578257
  0
LINE
  8
_0-2_線色２__白__
  6
CONTINUOUS
 62
    7
 10
1182.7987014023995
 20
694.1747139578257
 11
1182.6142513416301
 21
694.1457543265841
  0
LINE
  8
_0-2_線色２__白__
  6
CONTINUOUS
 62
    7
 10
1182.6142513416301
 20
694.1457543265841
 11
1182.4302804841898
 21
694.11143884504611
  0
LINE
  8
_0-2_線色２__白__
  6
CONTINUOUS
 62
    7
 10
1182.4302804841898
 20
694.11143884504611
 11
1182.2464244483319
 21
694.07342401901872
  0
LINE
  8
_0-2_線色２__白__
  6
CONTINUOUS
 62
    7
 10
1182.2464244483319
 20
694.07342401901872
 11
1182.062318852312
 21
694.03336635431231
  0
LINE
  8
_0-2_線色２__白__
  6
CONTINUOUS
 62
    7
 10
1182.062318852312
 20
694.03336635431231
 11
1181.8775993143834
 21
693.99292235673613
  0
LINE
  8
_0-2_線色２__白__
  6
CONTINUOUS
 62
    7
 10
1181.8775993143834
 20
693.99292235673613
 11
1181.7700370888474
 21
693.96994056984965
  0
LINE
  8
_0-2_線色２__白__
  6
CONTINUOUS
 62
    7
 10
1181.7700370888474
 20
693.96994056984965
 11
1181.6479258575191
 21
693.94466684835095
  0
LINE
  8
_0-2_線色２__白__
  6
CONTINUOUS
 62
    7
 10
1181.6479258575191
 20
693.94466684835095
 11
1181.4371278339559
 21
693.90131733211604
  0
LINE
  8
_0-2_線色２__白__
  6
CONTINUOUS
 62
    7
 10
1181.4371278339559
 20
693.90131733211604
 11
1181.2274226101181
 21
693.85518417396781
  0
LINE
  8
_0-2_線色２__白__
  6
CONTINUOUS
 62
    7
 10
1181.2274226101181
 20
693.85518417396781
 11
1181.0204656608505
 21
693.80269813226448
  0
LINE
  8
_0-2_線色２__白__
  6
CONTINUOUS
 62
    7
 10
1181.0204656608505
 20
693.80269813226448
 11
1180.8179124609956
 21
693.74028996536538
  0
LINE
  8
_0-2_線色２__白__
  6
CONTINUOUS
 62
    7
 10
1180.8179124609956
 20
693.74028996536538
 11
1180.6214184853968
 21
693.66439043163098
  0
LINE
  8
_0-2_線色２__白__
  6
CONTINUOUS
 62
    7
 10
1180.6214184853968
 20
693.66439043163098
 11
1180.510880659275
 21
693.61278049097507
  0
LINE
  8
_0-2_線色２__白__
  6
CONTINUOUS
 62
    7
 10
1180.510880659275
 20
693.61278049097507
 11
1180.4115584280964
 21
693.55969501905122
  0
LINE
  8
_0-2_線色２__白__
  6
CONTINUOUS
 62
    7
 10
1180.4115584280964
 20
693.55969501905122
 11
1180.2461345129052
 21
693.45640873795162
  0
LINE
  8
_0-2_線色２__白__
  6
CONTINUOUS
 62
    7
 10
1180.2461345129052
 20
693.45640873795162
 11
1180.0880829415462
 21
693.33985910622062
  0
LINE
  8
_0-2_線色２__白__
  6
CONTINUOUS
 62
    7
 10
1180.0880829415462
 20
693.33985910622062
 11
1179.9374078951291
 21
693.21193243290566
  0
LINE
  8
_0-2_線色２__白__
  6
CONTINUOUS
 62
    7
 10
1179.9374078951291
 20
693.21193243290566
 11
1179.7941135547637
 21
693.07451502705874
  0
LINE
  8
_0-2_線色２__白__
  6
CONTINUOUS
 62
    7
 10
1179.7941135547637
 20
693.07451502705874
 11
1179.6582041015597
 21
692.92949319772958
  0
LINE
  8
_0-2_線色２__白__
  6
CONTINUOUS
 62
    7
 10
1179.6582041015597
 20
692.92949319772958
 11
1179.5827620215732
 21
692.84263949373155
  0
LINE
  8
_0-2_線色２__白__
  6
CONTINUOUS
 62
    7
 10
1179.5827620215732
 20
692.84263949373155
 11
1179.4984669972018
 21
692.74007210574098
  0
LINE
  8
_0-2_線色２__白__
  6
CONTINUOUS
 62
    7
 10
1179.4984669972018
 20
692.74007210574098
 11
1179.3602951379341
 21
692.55878709600495
  0
LINE
  8
_0-2_線色２__白__
  6
CONTINUOUS
 62
    7
 10
1179.3602951379341
 20
692.55878709600495
 11
1179.2301848709144
 21
692.37256242138471
  0
LINE
  8
_0-2_線色２__白__
  6
CONTINUOUS
 62
    7
 10
1179.2301848709144
 20
692.37256242138471
 11
1179.106964968928
 21
692.1821963602946
  0
LINE
  8
_0-2_線色２__白__
  6
CONTINUOUS
 62
    7
 10
1179.106964968928
 20
692.1821963602946
 11
1178.9894642047591
 21
691.98848719115119
  0
LINE
  8
_0-2_線色２__白__
  6
CONTINUOUS
 62
    7
 10
1178.9894642047591
 20
691.98848719115119
 11
1178.8765113511897
 21
691.79223319236883
  0
LINE
  8
_0-2_線色２__白__
  6
CONTINUOUS
 62
    7
 10
1178.8765113511897
 20
691.79223319236883
 11
1178.8126210243297
 21
691.67755439534005
  0
LINE
  8
_0-2_線色２__白__
  6
CONTINUOUS
 62
    7
 10
1178.8126210243297
 20
691.67755439534005
 11
1178.7453536568239
 21
691.55448780320341
  0
LINE
  8
_0-2_線色２__白__
  6
CONTINUOUS
 62
    7
 10
1178.7453536568239
 20
691.55448780320341
 11
1178.6313724156162
 21
691.34128104683498
  0
LINE
  8
_0-2_線色２__白__
  6
CONTINUOUS
 62
    7
 10
1178.6313724156162
 20
691.34128104683498
 11
1178.5192578672525
 21
691.12698404729883
  0
LINE
  8
_0-2_線色２__白__
  6
CONTINUOUS
 62
    7
 10
1178.5192578672525
 20
691.12698404729883
 11
1178.408241258004
 21
690.9118347862244
  0
LINE
  8
_0-2_線色２__白__
  6
CONTINUOUS
 62
    7
 10
1178.408241258004
 20
690.9118347862244
 11
1178.2975538341464
 21
690.69607124524339
  0
LINE
  8
_0-2_線色２__白__
  6
CONTINUOUS
 62
    7
 10
1178.2975538341464
 20
690.69607124524339
 11
1178.1864268419486
 21
690.47993140598749
  0
LINE
  8
_0-2_線色２__白__
  6
CONTINUOUS
 62
    7
 10
1178.1864268419486
 20
690.47993140598749
 11
1178.1214688473176
 21
690.35449165648686
  0
LINE
  8
_0-2_線色２__白__
  6
CONTINUOUS
 62
    7
 10
1178.1214688473176
 20
690.35449165648686
 11
1178.0330553931424
 21
690.18566347348099
  0
LINE
  8
_0-2_線色２__白__
  6
CONTINUOUS
 62
    7
 10
1178.0330553931424
 20
690.18566347348099
 11
1177.8765505772128
 21
689.89626770759344
  0
LINE
  8
_0-2_線色２__白__
  6
CONTINUOUS
 62
    7
 10
1177.8765505772128
 20
689.89626770759344
 11
1177.7123289839847
 21
689.6115595313421
  0
LINE
  8
_0-2_線色２__白__
  6
CONTINUOUS
 62
    7
 10
1177.7123289839847
 20
689.6115595313421
 11
1177.5374049966001
 21
689.33450610332386
  0
LINE
  8
_0-2_線色２__白__
  6
CONTINUOUS
 62
    7
 10
1177.5374049966001
 20
689.33450610332386
 11
1177.3487929981991
 21
689.06807458213791
  0
LINE
  8
_0-2_線色２__白__
  6
CONTINUOUS
 62
    7
 10
1177.3487929981991
 20
689.06807458213791
 11
1177.1435073719238
 21
688.81523212638001
  0
LINE
  8
_0-2_線色２__白__
  6
CONTINUOUS
 62
    7
 10
1177.1435073719238
 20
688.81523212638001
 11
1177.0156253640982
 21
688.67597922659968
  0
LINE
  8
_0-2_線色２__白__
  6
CONTINUOUS
 62
    7
 10
1177.0156253640982
 20
688.67597922659968
 11
1176.9694101917923
 21
688.62887422068923
  0
LINE
  8
_0-2_線色２__白__
  6
CONTINUOUS
 62
    7
 10
1176.9694101917923
 20
688.62887422068923
 11
1176.8877109302525
 21
688.54952912565352
  0
LINE
  8
_0-2_線色２__白__
  6
CONTINUOUS
 62
    7
 10
1176.8877109302525
 20
688.54952912565352
 11
1176.8035085379222
 21
688.47272901621238
  0
LINE
  8
_0-2_線色２__白__
  6
CONTINUOUS
 62
    7
 10
1176.8035085379222
 20
688.47272901621238
 11
1176.7168625624265
 21
688.39868011288615
  0
LINE
  8
_0-2_線色２__白__
  6
CONTINUOUS
 62
    7
 10
1176.7168625624265
 20
688.39868011288615
 11
1176.6278325513906
 21
688.32758863619631
  0
LINE
  8
_0-2_線色２__白__
  6
CONTINUOUS
 62
    7
 10
1176.6278325513906
 20
688.32758863619631
 11
1176.5364780524396
 21
688.2596608066666
  0
LINE
  8
_0-2_線色２__白__
  6
CONTINUOUS
 62
    7
 10
1176.5364780524396
 20
688.2596608066666
 11
1176.4824508275444
 21
688.22179351027614
  0
LINE
  8
_0-2_線色２__白__
  6
CONTINUOUS
 62
    7
 10
1176.4824508275444
 20
688.22179351027614
 11
1176.3928494164577
 21
688.16250081989836
  0
LINE
  8
_0-2_線色２__白__
  6
CONTINUOUS
 62
    7
 10
1176.3928494164577
 20
688.16250081989836
 11
1176.2346579722862
 21
688.0660875557038
  0
LINE
  8
_0-2_線色２__白__
  6
CONTINUOUS
 62
    7
 10
1176.2346579722862
 20
688.0660875557038
 11
1176.0732466852539
 21
687.97475914663266
  0
LINE
  8
_0-2_線色２__白__
  6
CONTINUOUS
 62
    7
 10
1176.0732466852539
 20
687.97475914663266
 11
1175.9103267369608
 21
687.88586843818223
  0
LINE
  8
_0-2_線色２__白__
  6
CONTINUOUS
 62
    7
 10
1175.9103267369608
 20
687.88586843818223
 11
1175.7476093090077
 21
687.79676827584638
  0
LINE
  8
_0-2_線色２__白__
  6
CONTINUOUS
 62
    7
 10
1175.7476093090077
 20
687.79676827584638
 11
1175.5868055829956
 21
687.70481150512012
  0
LINE
  8
_0-2_線色２__白__
  6
CONTINUOUS
 62
    7
 10
1175.5868055829956
 20
687.70481150512012
 11
1175.4950905746693
 21
687.64912456360946
  0
LINE
  8
_0-2_線色２__白__
  6
CONTINUOUS
 62
    7
 10
1175.4950905746693
 20
687.64912456360946
 11
1175.402679582271
 21
687.58975979373702
  0
LINE
  8
_0-2_線色２__白__
  6
CONTINUOUS
 62
    7
 10
1175.402679582271
 20
687.58975979373702
 11
1175.2467365801169
 21
687.48225803196931
  0
LINE
  8
_0-2_線色２__白__
  6
CONTINUOUS
 62
    7
 10
1175.2467365801169
 20
687.48225803196931
 11
1175.0944140378954
 21
687.36927484200066
  0
LINE
  8
_0-2_線色２__白__
  6
CONTINUOUS
 62
    7
 10
1175.0944140378954
 20
687.36927484200066
 11
1174.9449375491611
 21
687.25201478960514
  0
LINE
  8
_0-2_線色２__白__
  6
CONTINUOUS
 62
    7
 10
1174.9449375491611
 20
687.25201478960514
 11
1174.7975327074676
 21
687.1316824405568
  0
LINE
  8
_0-2_線色２__白__
  6
CONTINUOUS
 62
    7
 10
1174.7975327074676
 20
687.1316824405568
 11
1174.6514251063707
 21
687.00948236063198
  0
LINE
  8
_0-2_線色２__白__
  6
CONTINUOUS
 62
    7
 10
1174.6514251063707
 20
687.00948236063198
 11
1174.5669719369675
 21
686.93822518153922
  0
LINE
  8
_0-2_線色２__白__
  6
CONTINUOUS
 62
    7
 10
1174.5669719369675
 20
686.93822518153922
 11
1174.4611300733493
 21
686.84874459763876
  0
LINE
  8
_0-2_線色２__白__
  6
CONTINUOUS
 62
    7
 10
1174.4611300733493
 20
686.84874459763876
 11
1174.2795572950388
 21
686.69366154384363
  0
LINE
  8
_0-2_線色２__白__
  6
CONTINUOUS
 62
    7
 10
1174.2795572950388
 20
686.69366154384363
 11
1174.1003826424151
 21
686.53627237560215
  0
LINE
  8
_0-2_線色２__白__
  6
CONTINUOUS
 62
    7
 10
1174.1003826424151
 20
686.53627237560215
 11
1173.9250505161897
 21
686.37508217767561
  0
LINE
  8
_0-2_線色２__白__
  6
CONTINUOUS
 62
    7
 10
1173.9250505161897
 20
686.37508217767561
 11
1173.7550053170798
 21
686.20859603482643
  0
LINE
  8
_0-2_線色２__白__
  6
CONTINUOUS
 62
    7
 10
1173.7550053170798
 20
686.20859603482643
 11
1173.5916914458016
 21
686.03531903181704
  0
LINE
  8
_0-2_線色２__白__
  6
CONTINUOUS
 62
    7
 10
1173.5916914458016
 20
686.03531903181704
 11
1173.5006228638622
 21
685.93111772360601
  0
LINE
  8
_0-2_線色２__白__
  6
CONTINUOUS
 62
    7
 10
1173.5006228638622
 20
685.93111772360601
 11
1173.4489635912257
 21
685.86903044808366
  0
LINE
  8
_0-2_線色２__白__
  6
CONTINUOUS
 62
    7
 10
1173.4489635912257
 20
685.86903044808366
 11
1173.3626384809202
 21
685.75955770824578
  0
LINE
  8
_0-2_線色２__白__
  6
CONTINUOUS
 62
    7
 10
1173.3626384809202
 20
685.75955770824578
 11
1173.2802786087871
 21
685.64705645048605
  0
LINE
  8
_0-2_線色２__白__
  6
CONTINUOUS
 62
    7
 10
1173.2802786087871
 20
685.64705645048605
 11
1173.2024579180427
 21
685.53157551777474
  0
LINE
  8
_0-2_線色２__白__
  6
CONTINUOUS
 62
    7
 10
1173.2024579180427
 20
685.53157551777474
 11
1173.1297503518988
 21
685.41316375308213
  0
LINE
  8
_0-2_線色２__白__
  6
CONTINUOUS
 62
    7
 10
1173.1297503518988
 20
685.41316375308213
 11
1173.0627298535694
 21
685.29186999937849
  0
LINE
  8
_0-2_線色２__白__
  6
CONTINUOUS
 62
    7
 10
1173.0627298535694
 20
685.29186999937849
 11
1173.0266899424817
 21
685.22021834153691
  0
LINE
  8
_0-2_線色２__白__
  6
CONTINUOUS
 62
    7
 10
1173.0266899424817
 20
685.22021834153691
 11
1172.9800380891243
 21
685.11874245048659
  0
LINE
  8
_0-2_線色２__白__
  6
CONTINUOUS
 62
    7
 10
1172.9800380891243
 20
685.11874245048659
 11
1172.9085513307734
 21
684.93997807143558
  0
LINE
  8
_0-2_線色２__白__
  6
CONTINUOUS
 62
    7
 10
1172.9085513307734
 20
684.93997807143558
 11
1172.8465999921502
 21
684.75715765328744
  0
LINE
  8
_0-2_線色２__白__
  6
CONTINUOUS
 62
    7
 10
1172.8465999921502
 20
684.75715765328744
 11
1172.7921021038821
 21
684.57116679409694
  0
LINE
  8
_0-2_線色２__白__
  6
CONTINUOUS
 62
    7
 10
1172.7921021038821
 20
684.57116679409694
 11
1172.7429756965944
 21
684.38289109192226
  0
LINE
  8
_0-2_線色２__白__
  6
CONTINUOUS
 62
    7
 10
1172.7429756965944
 20
684.38289109192226
 11
1172.6971388009167
 21
684.19321614481817
  0
LINE
  8
_0-2_線色２__白__
  6
CONTINUOUS
 62
    7
 10
1172.6971388009167
 20
684.19321614481817
 11
1172.6712402514465
 21
684.08291251315688
  0
LINE
  8
_0-4_線色４__黄__
  6
CONTINUOUS
 62
    2
 10
1183.419116114062
 20
689.08291251315688
 11
1189.4162481809951
 21
689.08291251315688
  0
LINE
  8
_0-2_線色２__白__
  6
CONTINUOUS
 62
    7
 10
1183.419116114062
 20
684.08291251315688
 11
1191.257182029243
 21
684.08291251315688
  0
LINE
  8
_0-2_線色２__白__
  6
CONTINUOUS
 62
    7
 10
1195.3085306051992
 20
687.53406130008273
 11
1191.257182029243
 21
684.08291251315688
  0
LINE
  8
_0-2_線色２__白__
  6
CONTINUOUS
 62
    7
 10
1240.7532068737385
 20
687.53406130008273
 11
1195.3085306051992
 21
687.53406130008273
  0
LINE
  8
_0-2_線色２__白__
  6
CONTINUOUS
 62
    7
 10
1239.0324723390177
 20
687.53406130008273
 11
1239.0324723390177
 21
682.53406130008273
  0
LINE
  8
_0-2_線色２__白__
  6
CONTINUOUS
 62
    7
 10
1251.5245921802875
 20
700.34126865287874
 11
1252.4125202683626
 21
701.31798954975977
  0
LINE
  8
_0-4_線色４__黄__
  6
CONTINUOUS
 62
    2
 10
1247.4125202683626
 20
753.35611220118892
 11
1247.4125202683626
 21
703.25102392342103
  0
LINE
  8
_0-4_線色４__黄__
  6
CONTINUOUS
 62
    2
 10
1246.7007075413244
 20
702.46802992367918
 11
1247.4125202683626
 21
703.25102392342103
  0
ARC
  8
_0-4_線色４__黄__
  6
CONTINUOUS
 62
    2
 10
1254.6180663266568
 20
695.27043102791538
 40
10.700000000000003
 50
137.72631099387618
 51
169.9999999999998
  0
LINE
  8
_0-2_線色２__白__
  6
CONTINUOUS
 62
    7
 10
1252.4125202683626
 20
779.08316251489225
 11
1252.4125202683626
 21
679.08291251315688
  0
LINE
  8
_0-4_線色４__黄__
  6
CONTINUOUS
 62
    2
 10
1183.419116114062
 20
689.08291251315688
 11
1183.419116114062
 21
684.08291251315688
  0
LINE
  8
_0-2_線色２__白__
  6
CONTINUOUS
 62
    7
 10
1053.0851153683568
 20
679.08291251315688
 11
1252.4125202683626
 21
679.08291251315688
  0
LINE
  8
_0-4_線色４__黄__
  6
CONTINUOUS
 62
    2
 10
1053.0851153683568
 20
684.08291251315688
 11
1183.419116114062
 21
684.08291251315688
  0
LINE
  8
_0-2_線色２__白__
  6
CONTINUOUS
 62
    7
 10
1053.0851153683568
 20
674.08291251315688
 11
1257.4125202683626
 21
674.08291251315688
  0
TEXT
  8
_0-a_文字
 62
    7
 10
953.60792138249735
 20
776.58291251315745
 40
14.999999999999858
 41
1.00000000000001
 50
0
  1
プルーフシーラー
  0
LINE
  8
_0-a_文字
  6
CONTINUOUS
 62
    7
 10
928.60792138249735
 20
784.08291251315688
 11
948.60792138249735
 21
784.08291251315688
  0
LINE
  8
_0-a_文字
  6
CONTINUOUS
 62
    7
 10
874.89607155062231
 20
691.05125963584044
 11
928.60792138249735
 21
784.08291251315688
  0
TEXT
  8
_0-a_文字
 62
    7
 10
874.30914526836887
 20
901.58291251315688
 40
15.000000000000036
 41
1.0000000000000002
 50
0
  1
塩ビシート接着工法
  0
LINE
  8
_0-a_文字
  6
CONTINUOUS
 62
    7
 10
849.30914526836773
 20
909.08291251315688
 11
869.30914526836773
 21
909.08291251315688
  0
LINE
  8
_0-a_文字
  6
CONTINUOUS
 62
    7
 10
834.87538853862702
 20
884.08291251315688
 11
869.30914526836773
 21
884.08291251315688
  0
LINE
  8
_0-a_文字
  6
CONTINUOUS
 62
    7
 10
806.01908162744735
 20
834.10232282419372
 11
849.30914526836773
 21
909.08291251315688
  0
TEXT
  8
_0-a_文字
 62
    7
 10
874.30914526836773
 20
876.58291251315745
 40
14.999999999999858
 41
1.0000000000000095
 50
0
  1
硬質木片セメント板（別途工事）
  0
LINE
  8
_0-a_文字
  6
CONTINUOUS
 62
    7
 10
1217.8798764829685
 20
709.08291251315688
 11
1197.8798764829685
 21
709.08291251315688
  0
LINE
  8
_0-a_文字
  6
CONTINUOUS
 62
    7
 10
1233.2078628775128
 20
682.53406130008273
 11
1217.8798764829685
 21
709.08291251315688
  0
TEXT
  8
_0-a_文字
 62
    7
 10
1102.8798764829673
 20
701.58291251315688
 40
14.999999999999957
 41
1.0000000000000064
 50
0
  1
ＢＰ－Ｈ３Ｎ
  0
LINE
  8
_0-2_線色２__白__
  6
CONTINUOUS
 62
    7
 10
1053.0851153683568
 20
592.03583348347536
 11
1053.0851153683568
 21
645.52067499970292
  0
LINE
  8
_0-2_線色２__白__
  6
CONTINUOUS
 62
    7
 10
1040.8351153683566
 20
592.03583348347536
 11
1040.8351153683566
 21
645.52067499970292
  0
LINE
  8
_0-a_文字
  6
CONTINUOUS
 62
    7
 10
1300.3120694471193
 20
834.08291251315688
 11
1320.3120694471193
 21
834.08291251315688
  0
TEXT
  8
_0-a_文字
 62
    7
 10
1325.3120694471193
 20
826.58291251315575
 40
15.000000000000302
 41
0.9999999999999792
 50
0
  1
特注塩ビ鋼板
  0
LINE
  8
_0-a_文字
  6
CONTINUOUS
 62
    7
 10
1270.5504706614045
 20
782.53431130181809
 11
1300.3120694471193
 21
834.08291251315688
  0
ARC
  8
_0-1_線色１__水色__
  6
CONTINUOUS
 62
    4
 10
1493.3827749941088
 20
777.54149585727362
 40
1.2083333333333581
 50
307.52351320333912
 51
232.47648680464988
  0
ARC
  8
_0-1_線色１__水色__
  6
CONTINUOUS
 62
    4
 10
1494.8547351385855
 20
775.62482919067349
 40
1.2083333333333179
 50
127.52351320610693
 51
52.47648680188081
  0
ARC
  8
_0-1_線色１__水色__
  6
CONTINUOUS
 62
    4
 10
1491.9108148499004
 20
775.62482919046886
 40
1.2083333333333179
 50
127.52351320610693
 51
52.47648680188081
  0
ARC
  8
_0-1_線色１__水色__
  6
CONTINUOUS
 62
    4
 10
1496.3266952827917
 20
777.54149585686321
 40
1.2083333333333581
 50
307.52351320333912
 51
232.47648680464988
  0
ARC
  8
_0-1_線色１__水色__
  6
CONTINUOUS
 62
    4
 10
1497.7986554272684
 20
775.62482919026309
 40
1.2083333333333179
 50
127.52351320610693
 51
273.94976640609366
  0
LINE
  8
_0-d_断熱__ハッチ
  6
CONTINUOUS
 62
    4
 10
1484.5980137972492
 20
739.08316251489339
 11
1497.8818876519745
 21
752.36703636961749
  0
LINE
  8
_0-d_断熱__ハッチ
  6
CONTINUOUS
 62
    4
 10
1456.3137425497825
 20
739.08316251489339
 11
1491.3137425497837
 21
774.08316251489339
  0
LINE
  8
_0-d_断熱__ハッチ
  6
CONTINUOUS
 62
    4
 10
1428.0294713023238
 20
739.08316251489111
 11
1463.0294713023238
 21
774.08316251489225
  0
LINE
  8
_0-d_断熱__ハッチ
  6
CONTINUOUS
 62
    4
 10
1399.7452000548594
 20
739.08316251489339
 11
1434.7452000548594
 21
774.08316251489339
  0
LINE
  8
_0-d_断熱__ハッチ
  6
CONTINUOUS
 62
    4
 10
1272.6609288074019
 20
640.28316251489457
 11
1292.4125202683615
 21
660.03475397585305
  0
LINE
  8
_0-d_断熱__ハッチ
  6
CONTINUOUS
 62
    4
 10
1372.6609288074019
 20
740.28316251489343
 11
1406.4609288074007
 21
774.08316251489225
  0
LINE
  8
_0-d_断熱__ハッチ
  6
CONTINUOUS
 62
    4
 10
1244.3766575599375
 20
640.28316251489571
 11
1292.4125202683592
 21
688.31902522331745
  0
LINE
  8
_0-d_断熱__ハッチ
  6
CONTINUOUS
 62
    4
 10
1344.3766575599363
 20
740.28316251489457
 11
1378.1766575599352
 21
774.08316251489339
  0
LINE
  8
_0-d_断熱__ハッチ
  6
CONTINUOUS
 62
    4
 10
1216.0923863124765
 20
640.2831625148923
 11
1249.8921363107399
 21
674.08291251315688
  0
LINE
  8
_0-d_断熱__ハッチ
  6
CONTINUOUS
 62
    4
 10
1257.4125202683626
 20
681.60329647077958
 11
1292.4125202683638
 21
716.60329647078072
  0
LINE
  8
_0-d_断熱__ハッチ
  6
CONTINUOUS
 62
    4
 10
1316.0923863124742
 20
740.28316251489116
 11
1349.8923863124764
 21
774.08316251489225
  0
LINE
  8
_0-d_断熱__ハッチ
  6
CONTINUOUS
 62
    4
 10
1257.4125202683626
 20
709.88756771824626
 11
1321.6081150650109
 21
774.08316251489339
  0
LINE
  8
_0-d_断熱__ハッチ
  6
CONTINUOUS
 62
    4
 10
1257.4125202683626
 20
738.1718389657027
 11
1293.3238438175533
 21
774.08316251489339
  0
LINE
  8
_0-d_断熱__ハッチ
  6
CONTINUOUS
 62
    4
 10
1257.4125202683649
 20
766.45611021317166
 11
1265.0395725700832
 21
774.08316251489111
  0
LINE
  8
_0-d_断熱__ハッチ
  6
CONTINUOUS
 62
    4
 10
1073.4707800734247
 20
639.08291251315575
 11
1108.4707800734247
 21
674.08291251315688
  0
LINE
  8
_0-d_断熱__ハッチ
  6
CONTINUOUS
 62
    4
 10
933.24942383611983
 20
640.28291251315693
 11
967.04942383611979
 21
674.08291251315688
  0
LINE
  8
_0-d_断熱__ハッチ
  6
CONTINUOUS
 62
    4
 10
904.96515258866452
 20
640.2829125131592
 11
938.7651525886622
 21
674.08291251315688
  0
LINE
  8
_0-d_断熱__ハッチ
  6
CONTINUOUS
 62
    4
 10
876.68088134119444
 20
640.28291251315579
 11
910.48088134119325
 21
674.08291251315461
  0
LINE
  8
_0-d_断熱__ハッチ
  6
CONTINUOUS
 62
    4
 10
848.39661009373685
 20
640.28291251315579
 11
882.19661009373795
 21
674.08291251315688
  0
LINE
  8
_0-d_断熱__ハッチ
  6
CONTINUOUS
 62
    4
 10
820.11233884626904
 20
640.28291251315579
 11
853.91233884626899
 21
674.08291251315461
  0
LINE
  8
_0-d_断熱__ハッチ
  6
CONTINUOUS
 62
    4
 10
814.30914526836318
 20
662.76399018270638
 11
825.62806759881369
 21
674.08291251315688
  0
LINE
  8
_0-d_断熱__ハッチ
  6
CONTINUOUS
 62
    4
 10
814.30914526836546
 20
651.55858910846916
 11
825.58482186367542
 21
640.28291251316034
  0
LINE
  8
_0-d_断熱__ハッチ
  6
CONTINUOUS
 62
    4
 10
820.06909311114555
 20
674.08291251315575
 11
853.86909311114437
 21
640.28291251315693
  0
LINE
  8
_0-d_断熱__ハッチ
  6
CONTINUOUS
 62
    4
 10
848.35336435859972
 20
674.08291251315916
 11
882.15336435860195
 21
640.28291251315693
  0
LINE
  8
_0-d_断熱__ハッチ
  6
CONTINUOUS
 62
    4
 10
876.63763560606981
 20
674.08291251315575
 11
910.43763560606976
 21
640.28291251315579
  0
LINE
  8
_0-d_断熱__ハッチ
  6
CONTINUOUS
 62
    4
 10
904.92190685352398
 20
674.08291251315916
 11
938.72190685352393
 21
640.2829125131592
  0
LINE
  8
_0-d_断熱__ハッチ
  6
CONTINUOUS
 62
    4
 10
989.77472059591832
 20
674.08291251315575
 11
1024.7747205959206
 21
639.08291251315461
  0
LINE
  8
_0-d_断熱__ハッチ
  6
CONTINUOUS
 62
    4
 10
1187.7646193281498
 20
674.08291251315461
 11
1221.564369326411
 21
640.28316251489457
  0
LINE
  8
_0-d_断熱__ハッチ
  6
CONTINUOUS
 62
    4
 10
1216.0488905756097
 20
674.08291251315688
 11
1249.8486405738754
 21
640.28316251489116
  0
LINE
  8
_0-d_断熱__ハッチ
  6
CONTINUOUS
 62
    4
 10
1244.3331618230752
 20
674.08291251315461
 11
1278.1329118213375
 21
640.28316251489116
  0
LINE
  8
_0-d_断熱__ハッチ
  6
CONTINUOUS
 62
    4
 10
1257.4125202683615
 20
689.28782531533386
 11
1292.4125202683604
 21
654.287825315335
  0
LINE
  8
_0-d_断熱__ハッチ
  6
CONTINUOUS
 62
    4
 10
1257.4125202683604
 20
717.57209656279258
 11
1292.4125202683638
 21
682.57209656279031
  0
LINE
  8
_0-d_断熱__ハッチ
  6
CONTINUOUS
 62
    4
 10
1257.4125202683615
 20
745.85636781025357
 11
1292.4125202683626
 21
710.85636781025244
  0
LINE
  8
_0-d_断熱__ハッチ
  6
CONTINUOUS
 62
    4
 10
1257.4699968111861
 20
774.08316251489111
 11
1292.4125202683604
 21
739.14063905771684
  0
LINE
  8
_0-d_断熱__ハッチ
  6
CONTINUOUS
 62
    4
 10
1285.7542680586437
 20
774.08316251489111
 11
1319.5542680586436
 21
740.2831625148923
  0
LINE
  8
_0-d_断熱__ハッチ
  6
CONTINUOUS
 62
    4
 10
1314.0385393061104
 20
774.08316251489225
 11
1347.838539306108
 21
740.28316251489343
  0
LINE
  8
_0-d_断熱__ハッチ
  6
CONTINUOUS
 62
    4
 10
1342.3228105535679
 20
774.08316251489111
 11
1376.122810553569
 21
740.28316251489002
  0
LINE
  8
_0-d_断熱__ハッチ
  6
CONTINUOUS
 62
    4
 10
1370.6070818010335
 20
774.08316251489225
 11
1405.6070818010346
 21
739.08316251489111
  0
LINE
  8
_0-d_断熱__ハッチ
  6
CONTINUOUS
 62
    4
 10
1398.8913530484922
 20
774.08316251489111
 11
1433.8913530484922
 21
739.08316251489111
  0
LINE
  8
_0-d_断熱__ハッチ
  6
CONTINUOUS
 62
    4
 10
1427.1756242959577
 20
774.08316251489339
 11
1462.1756242959577
 21
739.08316251489225
  0
LINE
  8
_0-d_断熱__ハッチ
  6
CONTINUOUS
 62
    4
 10
1455.4598955434165
 20
774.08316251489111
 11
1490.4598955434176
 21
739.08316251488998
  0
LINE
  8
_0-d_断熱__ハッチ
  6
CONTINUOUS
 62
    4
 10
1483.7441667908809
 20
774.08316251489339
 11
1497.8818876519745
 21
759.94544165379978
  0
LINE
  8
_0-d_断熱__ハッチ
  6
CONTINUOUS
 62
    4
 10
809.50573712847131
 20
640.28291251315693
 11
814.30914526836432
 21
645.08632065305108
  0
LINE
  8
_0-d_断熱__ハッチ
  6
CONTINUOUS
 62
    4
 10
798.89913541068154
 20
640.28291251315807
 11
814.30914526836318
 21
655.69292237083971
  0
LINE
  8
_0-d_断熱__ハッチ
  6
CONTINUOUS
 62
    4
 10
797.50914526836482
 20
649.49952408864135
 11
814.30914526836432
 21
666.29952408864199
  0
LINE
  8
_0-d_断熱__ハッチ
  6
CONTINUOUS
 62
    4
 10
797.50914526836141
 20
660.10612580643794
 11
814.30914526836091
 21
676.90612580643858
  0
LINE
  8
_0-d_断熱__ハッチ
  6
CONTINUOUS
 62
    4
 10
797.50914526836254
 20
670.71272752424022
 11
814.30914526836546
 21
687.51272752424313
  0
LINE
  8
_0-d_断熱__ハッチ
  6
CONTINUOUS
 62
    4
 10
797.50914526836141
 20
681.31932924203795
 11
814.30914526836432
 21
698.11932924204086
  0
LINE
  8
_0-d_断熱__ハッチ
  6
CONTINUOUS
 62
    4
 10
797.50914526836368
 20
691.92593095983113
 11
814.30914526836318
 21
708.72593095983063
  0
LINE
  8
_0-d_断熱__ハッチ
  6
CONTINUOUS
 62
    4
 10
797.50914526836482
 20
702.53253267763341
 11
814.30914526836432
 21
719.33253267763291
  0
LINE
  8
_0-d_断熱__ハッチ
  6
CONTINUOUS
 62
    4
 10
797.50914526836141
 20
713.13913439542887
 11
814.30914526836204
 21
729.93913439542951
  0
LINE
  8
_0-d_断熱__ハッチ
  6
CONTINUOUS
 62
    4
 10
797.50914526836368
 20
723.74573611323115
 11
814.30914526836546
 21
740.54573611323292
  0
LINE
  8
_0-d_断熱__ハッチ
  6
CONTINUOUS
 62
    4
 10
797.50914526836027
 20
734.35233783102774
 11
814.30914526836432
 21
751.15233783103179
  0
LINE
  8
_0-d_断熱__ハッチ
  6
CONTINUOUS
 62
    4
 10
796.30914526836364
 20
743.75893954882315
 11
814.30914526836318
 21
761.75893954882156
  0
LINE
  8
_0-d_断熱__ハッチ
  6
CONTINUOUS
 62
    4
 10
796.30914526836591
 20
754.36554126662429
 11
814.30914526836432
 21
772.36554126662384
  0
LINE
  8
_0-d_断熱__ハッチ
  6
CONTINUOUS
 62
    4
 10
796.3091452683625
 20
764.97214298442088
 11
814.30914526836204
 21
782.97214298442157
  0
LINE
  8
_0-d_断熱__ハッチ
  6
CONTINUOUS
 62
    4
 10
796.30914526836364
 20
775.57874470222202
 11
814.30914526836546
 21
793.57874470222384
  0
LINE
  8
_0-d_断熱__ハッチ
  6
CONTINUOUS
 62
    4
 10
796.30914526836136
 20
786.18534642001975
 11
814.30914526836432
 21
804.18534642002385
  0
LINE
  8
_0-d_断熱__ハッチ
  6
CONTINUOUS
 62
    4
 10
796.30914526836364
 20
796.79194813781862
 11
814.30914526836432
 21
814.79194813781817
  0
LINE
  8
_0-d_断熱__ハッチ
  6
CONTINUOUS
 62
    4
 10
796.30914526836477
 20
807.39854985561408
 11
814.30914526836318
 21
825.39854985561249
  0
LINE
  8
_0-d_断熱__ハッチ
  6
CONTINUOUS
 62
    4
 10
796.3091452683625
 20
818.00515157341295
 11
814.30914526836318
 21
836.00515157341249
  0
LINE
  8
_0-d_断熱__ハッチ
  6
CONTINUOUS
 62
    4
 10
796.30914526836364
 20
828.61175329121295
 11
814.30914526836546
 21
846.61175329121477
  0
LINE
  8
_0-d_断熱__ハッチ
  6
CONTINUOUS
 62
    4
 10
796.30914526836136
 20
839.21835500901068
 11
814.30914526836432
 21
857.21835500901477
  0
LINE
  8
_0-d_断熱__ハッチ
  6
CONTINUOUS
 62
    4
 10
796.30914526836136
 20
849.82495672681182
 11
814.30914526836432
 21
867.82495672681364
  0
LINE
  8
_0-d_断熱__ハッチ
  6
CONTINUOUS
 62
    4
 10
796.30914526836364
 20
860.43155844460387
 11
814.30914526836204
 21
878.43155844460341
  0
LINE
  8
_0-d_断熱__ハッチ
  6
CONTINUOUS
 62
    4
 10
796.30914526836364
 20
871.03816016240387
 11
814.30914526836318
 21
889.03816016240341
  0
LINE
  8
_0-d_断熱__ハッチ
  6
CONTINUOUS
 62
    4
 10
796.30914526836364
 20
881.64476188020387
 11
814.30914526836318
 21
899.64476188020342
  0
LINE
  8
_0-d_断熱__ハッチ
  6
CONTINUOUS
 62
    4
 10
796.30914526836136
 20
892.25136359800274
 11
814.30914526836432
 21
910.2513635980057
  0
LINE
  8
_0-d_断熱__ハッチ
  6
CONTINUOUS
 62
    4
 10
796.30914526836136
 20
902.85796531580161
 11
814.30914526836432
 21
920.85796531580456
  0
LINE
  8
_0-d_断熱__ハッチ
  6
CONTINUOUS
 62
    4
 10
796.3091452683625
 20
913.46456703359365
 11
814.00216227631859
 21
931.15758404154974
  0
LINE
  8
_0-a_文字
  6
CONTINUOUS
 62
    7
 10
957.62135399029034
 20
759.08291251315688
 11
977.62135399029034
 21
759.08291251315688
  0
LINE
  8
_0-a_文字
  6
CONTINUOUS
 62
    7
 10
928.75384053080893
 20
709.08291251315688
 11
977.62135399029034
 21
709.08291251315688
  0
LINE
  8
_0-a_文字
  6
CONTINUOUS
 62
    7
 10
943.18759726054964
 20
734.08291251315688
 11
977.62135399029034
 21
734.08291251315688
  0
TEXT
  8
_0-a_文字
 62
    7
 10
982.62135399029034
 20
701.58291251315688
 40
15.000000000000091
 41
0.9999999999999982
 50
0
  1
断熱材
  0
TEXT
  8
_0-a_文字
 62
    7
 10
982.62135399029034
 20
726.58291251315745
 40
14.999999999999991
 41
1.0000000000000024
 50
0
  1
ラジアルシートＬ６００
  0
TEXT
  8
_0-a_文字
 62
    7
 10
982.62135399029034
 20
751.58291251315575
 40
15.00000000000008
 41
0.9999999999999945
 50
0
  1
塩ビシート機械的固定工法
  0
LINE
  8
_0-a_文字
  6
CONTINUOUS
 62
    7
 10
898.44295139835481
 20
656.58291251315688
 11
957.62135399029034
 21
759.08291251315688
  0
LINE
  8
_0-2_線色２__白__
  6
CONTINUOUS
 62
    7
 10
1053.0851153683568
 20
667.64515002661199
 11
1053.0851153683568
 21
721.12999154283955
  0
LINE
  8
_0-2_線色２__白__
  6
CONTINUOUS
 62
    7
 10
1040.8351153683566
 20
667.64515002661199
 11
1040.8351153683566
 21
721.12999154283955
  0
ARC
  8
_0-1_線色１__水色__
  6
CONTINUOUS
 62
    4
 10
1088.5938621699188
 20
677.54124585037232
 40
1.2083333333333581
 50
307.52351320333912
 51
232.47648680464988
  0
ARC
  8
_0-1_線色１__水色__
  6
CONTINUOUS
 62
    4
 10
1070.930340437842
 20
677.54124584973908
 40
1.2083333333333581
 50
307.52351320333912
 51
232.47648680464988
  0
ARC
  8
_0-1_線色１__水色__
  6
CONTINUOUS
 62
    4
 10
1072.4023005823187
 20
675.62457918313896
 40
1.2083333333333179
 50
127.52351320610693
 51
52.47648680188081
  0
ARC
  8
_0-1_線色１__水色__
  6
CONTINUOUS
 62
    4
 10
1067.9864201491591
 20
677.54124584953331
 40
1.2083333333333581
 50
307.52351320333912
 51
232.47648680464988
  0
ARC
  8
_0-1_線色１__水色__
  6
CONTINUOUS
 62
    4
 10
1069.4583802936336
 20
675.62457918293433
 40
1.2083333333333179
 50
127.52351320610693
 51
52.47648680188081
  0
ARC
  8
_0-1_線色１__水色__
  6
CONTINUOUS
 62
    4
 10
1065.0424998604763
 20
677.54124584932867
 40
1.2083333333333581
 50
307.52351320333912
 51
232.47648680464988
  0
ARC
  8
_0-1_線色１__水色__
  6
CONTINUOUS
 62
    4
 10
1066.5144600049507
 20
675.62457918272855
 40
1.2083333333333179
 50
127.52351320610693
 51
52.47648680188081
  0
ARC
  8
_0-1_線色１__水色__
  6
CONTINUOUS
 62
    4
 10
1063.5705397162678
 20
675.62457918252392
 40
1.2083333333333179
 50
127.52351320610693
 51
52.47648680188081
  0
ARC
  8
_0-1_線色１__水色__
  6
CONTINUOUS
 62
    4
 10
1075.3462208710016
 20
675.62457918272855
 40
1.2083333333333179
 50
127.52351320610693
 51
52.47648680188081
  0
ARC
  8
_0-1_線色１__水色__
  6
CONTINUOUS
 62
    4
 10
1073.8742607265249
 20
677.54124584932867
 40
1.2083333333333581
 50
307.52351320333912
 51
232.47648680464988
  0
ARC
  8
_0-1_線色１__水色__
  6
CONTINUOUS
 62
    4
 10
1085.6499418812587
 20
677.54124585014949
 40
1.2083333333333581
 50
307.52351320333912
 51
232.47648680464988
  0
ARC
  8
_0-1_線色１__水色__
  6
CONTINUOUS
 62
    4
 10
1082.7060215925758
 20
677.54124584994372
 40
1.2083333333333581
 50
307.52351320333912
 51
232.47648680464988
  0
ARC
  8
_0-1_線色１__水色__
  6
CONTINUOUS
 62
    4
 10
1084.1779817370502
 20
675.62457918334474
 40
1.2083333333333179
 50
127.52351320610693
 51
52.47648680188081
  0
ARC
  8
_0-1_線色１__水色__
  6
CONTINUOUS
 62
    4
 10
1079.7621013038929
 20
677.54124584973908
 40
1.2083333333333581
 50
307.52351320333912
 51
232.47648680464988
  0
ARC
  8
_0-1_線色１__水色__
  6
CONTINUOUS
 62
    4
 10
1078.2901411596845
 20
675.62457918293433
 40
1.2083333333333179
 50
127.52351320610693
 51
52.47648680188081
  0
ARC
  8
_0-1_線色１__水色__
  6
CONTINUOUS
 62
    4
 10
1081.2340614483674
 20
675.62457918313896
 40
1.2083333333333179
 50
127.52351320610693
 51
52.47648680188081
  0
ARC
  8
_0-1_線色１__水色__
  6
CONTINUOUS
 62
    4
 10
1076.8181810152078
 20
677.54124584953331
 40
1.2083333333333581
 50
307.52351320333912
 51
232.47648680464988
  0
ARC
  8
_0-1_線色１__水色__
  6
CONTINUOUS
 62
    4
 10
1087.1219020257331
 20
675.62457918354937
 40
1.2083333333333179
 50
127.52351320610693
 51
52.47648680188081
  0
ARC
  8
_0-1_線色１__水色__
  6
CONTINUOUS
 62
    4
 10
1059.1546592830855
 20
677.54124585264719
 40
1.2083333333333581
 50
307.52351320333912
 51
232.47648680464988
  0
ARC
  8
_0-1_線色１__水色__
  6
CONTINUOUS
 62
    4
 10
1057.6826991388771
 20
675.62457918584244
 40
1.2083333333333179
 50
127.52351320610693
 51
52.47648680188081
  0
ARC
  8
_0-1_線色１__水色__
  6
CONTINUOUS
 62
    4
 10
1060.6266194275622
 20
675.62457918604707
 40
1.2083333333333179
 50
127.52351320610693
 51
52.47648680188081
  0
ARC
  8
_0-1_線色１__水色__
  6
CONTINUOUS
 62
    4
 10
1056.2107389944026
 20
677.54124585244142
 40
1.2083333333333581
 50
307.52351320333912
 51
232.47648680464988
  0
ARC
  8
_0-1_線色１__水色__
  6
CONTINUOUS
 62
    4
 10
1054.7387788502169
 20
675.62457918561961
 40
1.2083333333333179
 50
127.52351320610693
 51
52.47648680188081
  0
ARC
  8
_0-1_線色１__水色__
  6
CONTINUOUS
 62
    4
 10
1062.0985795717684
 20
677.54124585285183
 40
1.2083333333333581
 50
307.52351320333912
 51
232.47648680464988
  0
ARC
  8
_0-1_線色１__水色__
  6
CONTINUOUS
 62
    4
 10
1138.6405070775129
 20
677.54124585037232
 40
1.2083333333333581
 50
307.52351320333912
 51
232.47648680464988
  0
ARC
  8
_0-1_線色１__水色__
  6
CONTINUOUS
 62
    4
 10
1120.9769853454361
 20
677.54124584973908
 40
1.2083333333333581
 50
307.52351320333912
 51
232.47648680464988
  0
ARC
  8
_0-1_線色１__水色__
  6
CONTINUOUS
 62
    4
 10
1122.4489454899128
 20
675.62457918313896
 40
1.2083333333333179
 50
127.52351320610693
 51
52.47648680188081
  0
ARC
  8
_0-1_線色１__水色__
  6
CONTINUOUS
 62
    4
 10
1118.0330650567532
 20
677.54124584953331
 40
1.2083333333333581
 50
307.52351320333912
 51
232.47648680464988
  0
ARC
  8
_0-1_線色１__水色__
  6
CONTINUOUS
 62
    4
 10
1119.5050252012277
 20
675.62457918293433
 40
1.2083333333333179
 50
127.52351320610693
 51
52.47648680188081
  0
ARC
  8
_0-1_線色１__水色__
  6
CONTINUOUS
 62
    4
 10
1115.0891447680704
 20
677.54124584932867
 40
1.2083333333333581
 50
307.52351320333912
 51
232.47648680464988
  0
ARC
  8
_0-1_線色１__水色__
  6
CONTINUOUS
 62
    4
 10
1116.5611049125448
 20
675.62457918272855
 40
1.2083333333333179
 50
127.52351320610693
 51
52.47648680188081
  0
ARC
  8
_0-1_線色１__水色__
  6
CONTINUOUS
 62
    4
 10
1113.6171846238619
 20
675.62457918252392
 40
1.2083333333333179
 50
127.52351320610693
 51
52.47648680188081
  0
ARC
  8
_0-1_線色１__水色__
  6
CONTINUOUS
 62
    4
 10
1125.3928657785957
 20
675.62457918272855
 40
1.2083333333333179
 50
127.52351320610693
 51
52.47648680188081
  0
ARC
  8
_0-1_線色１__水色__
  6
CONTINUOUS
 62
    4
 10
1123.920905634119
 20
677.54124584932867
 40
1.2083333333333581
 50
307.52351320333912
 51
232.47648680464988
  0
ARC
  8
_0-1_線色１__水色__
  6
CONTINUOUS
 62
    4
 10
1135.6965867888528
 20
677.54124585014949
 40
1.2083333333333581
 50
307.52351320333912
 51
232.47648680464988
  0
ARC
  8
_0-1_線色１__水色__
  6
CONTINUOUS
 62
    4
 10
1132.7526665001699
 20
677.54124584994372
 40
1.2083333333333581
 50
307.52351320333912
 51
232.47648680464988
  0
ARC
  8
_0-1_線色１__水色__
  6
CONTINUOUS
 62
    4
 10
1134.2246266446443
 20
675.62457918334474
 40
1.2083333333333179
 50
127.52351320610693
 51
52.47648680188081
  0
ARC
  8
_0-1_線色１__水色__
  6
CONTINUOUS
 62
    4
 10
1129.808746211487
 20
677.54124584973908
 40
1.2083333333333581
 50
307.52351320333912
 51
232.47648680464988
  0
ARC
  8
_0-1_線色１__水色__
  6
CONTINUOUS
 62
    4
 10
1128.3367860672786
 20
675.62457918293433
 40
1.2083333333333179
 50
127.52351320610693
 51
52.47648680188081
  0
ARC
  8
_0-1_線色１__水色__
  6
CONTINUOUS
 62
    4
 10
1131.2807063559615
 20
675.62457918313896
 40
1.2083333333333179
 50
127.52351320610693
 51
52.47648680188081
  0
ARC
  8
_0-1_線色１__水色__
  6
CONTINUOUS
 62
    4
 10
1126.8648259228019
 20
677.54124584953331
 40
1.2083333333333581
 50
307.52351320333912
 51
232.47648680464988
  0
ARC
  8
_0-1_線色１__水色__
  6
CONTINUOUS
 62
    4
 10
1137.1685469333272
 20
675.62457918354937
 40
1.2083333333333179
 50
127.52351320610693
 51
52.47648680188081
  0
ARC
  8
_0-1_線色１__水色__
  6
CONTINUOUS
 62
    4
 10
1109.2013041906796
 20
677.54124585264719
 40
1.2083333333333581
 50
307.52351320333912
 51
232.47648680464988
  0
ARC
  8
_0-1_線色１__水色__
  6
CONTINUOUS
 62
    4
 10
1107.7293440464712
 20
675.62457918584244
 40
1.2083333333333179
 50
127.52351320610693
 51
52.47648680188081
  0
ARC
  8
_0-1_線色１__水色__
  6
CONTINUOUS
 62
    4
 10
1110.6732643351563
 20
675.62457918604707
 40
1.2083333333333179
 50
127.52351320610693
 51
52.47648680188081
  0
ARC
  8
_0-1_線色１__水色__
  6
CONTINUOUS
 62
    4
 10
1106.2573839019967
 20
677.54124585244142
 40
1.2083333333333581
 50
307.52351320333912
 51
232.47648680464988
  0
ARC
  8
_0-1_線色１__水色__
  6
CONTINUOUS
 62
    4
 10
1103.3134636133366
 20
677.54124585221859
 40
1.2083333333333581
 50
307.52351320333912
 51
232.47648680464988
  0
ARC
  8
_0-1_線色１__水色__
  6
CONTINUOUS
 62
    4
 10
1100.3695433246537
 20
677.54124585201396
 40
1.2083333333333581
 50
307.52351320333912
 51
232.47648680464988
  0
ARC
  8
_0-1_線色１__水色__
  6
CONTINUOUS
 62
    4
 10
1101.8415034691282
 20
675.62457918541384
 40
1.2083333333333179
 50
127.52351320610693
 51
52.47648680188081
  0
ARC
  8
_0-1_線色１__水色__
  6
CONTINUOUS
 62
    4
 10
1104.785423757811
 20
675.62457918561961
 40
1.2083333333333179
 50
127.52351320610693
 51
52.47648680188081
  0
ARC
  8
_0-1_線色１__水色__
  6
CONTINUOUS
 62
    4
 10
1112.1452244793625
 20
677.54124585285183
 40
1.2083333333333581
 50
307.52351320333912
 51
232.47648680464988
  0
ARC
  8
_0-1_線色１__水色__
  6
CONTINUOUS
 62
    4
 10
1093.0097426030773
 20
675.62457918479879
 40
1.2083333333333179
 50
127.52351320610693
 51
52.47648680188081
  0
ARC
  8
_0-1_線色１__水色__
  6
CONTINUOUS
 62
    4
 10
1091.5377824586028
 20
677.54124585139778
 40
1.2083333333333581
 50
307.52351320333912
 51
232.47648680464988
  0
ARC
  8
_0-1_線色１__水色__
  6
CONTINUOUS
 62
    4
 10
1097.4256230359686
 20
677.54124585180818
 40
1.2083333333333581
 50
307.52351320333912
 51
232.47648680464988
  0
ARC
  8
_0-1_線色１__水色__
  6
CONTINUOUS
 62
    4
 10
1095.9536628917624
 20
675.62457918500343
 40
1.2083333333333179
 50
127.52351320610693
 51
52.47648680188081
  0
ARC
  8
_0-1_線色１__水色__
  6
CONTINUOUS
 62
    4
 10
1098.8975831804453
 20
675.6245791852092
 40
1.2083333333333179
 50
127.52351320610693
 51
52.47648680188081
  0
ARC
  8
_0-1_線色１__水色__
  6
CONTINUOUS
 62
    4
 10
1094.4817027472857
 20
677.54124585160355
 40
1.2083333333333581
 50
307.52351320333912
 51
232.47648680464988
  0
ARC
  8
_0-1_線色１__水色__
  6
CONTINUOUS
 62
    4
 10
1090.0658223143944
 20
675.6245791852092
 40
1.2083333333333179
 50
127.52351320610693
 51
52.47648680188081
  0
ARC
  8
_0-1_線色１__水色__
  6
CONTINUOUS
 62
    4
 10
1188.6871519851059
 20
677.54124585037232
 40
1.2083333333333581
 50
307.52351320333912
 51
232.47648680464988
  0
ARC
  8
_0-1_線色１__水色__
  6
CONTINUOUS
 62
    4
 10
1171.0236302530291
 20
677.54124584973908
 40
1.2083333333333581
 50
307.52351320333912
 51
232.47648680464988
  0
ARC
  8
_0-1_線色１__水色__
  6
CONTINUOUS
 62
    4
 10
1172.4955903975058
 20
675.62457918313896
 40
1.2083333333333179
 50
127.52351320610693
 51
52.47648680188081
  0
ARC
  8
_0-1_線色１__水色__
  6
CONTINUOUS
 62
    4
 10
1168.0797099643462
 20
677.54124584953331
 40
1.2083333333333581
 50
307.52351320333912
 51
232.47648680464988
  0
ARC
  8
_0-1_線色１__水色__
  6
CONTINUOUS
 62
    4
 10
1169.5516701088206
 20
675.62457918293433
 40
1.2083333333333179
 50
127.52351320610693
 51
52.47648680188081
  0
ARC
  8
_0-1_線色１__水色__
  6
CONTINUOUS
 62
    4
 10
1165.1357896756633
 20
677.54124584932867
 40
1.2083333333333581
 50
307.52351320333912
 51
232.47648680464988
  0
ARC
  8
_0-1_線色１__水色__
  6
CONTINUOUS
 62
    4
 10
1166.6077498201378
 20
675.62457918272855
 40
1.2083333333333179
 50
127.52351320610693
 51
52.47648680188081
  0
ARC
  8
_0-1_線色１__水色__
  6
CONTINUOUS
 62
    4
 10
1163.6638295314549
 20
675.62457918252392
 40
1.2083333333333179
 50
127.52351320610693
 51
52.47648680188081
  0
ARC
  8
_0-1_線色１__水色__
  6
CONTINUOUS
 62
    4
 10
1175.4395106861887
 20
675.62457918272855
 40
1.2083333333333179
 50
127.52351320610693
 51
52.47648680188081
  0
ARC
  8
_0-1_線色１__水色__
  6
CONTINUOUS
 62
    4
 10
1173.9675505417119
 20
677.54124584932867
 40
1.2083333333333581
 50
307.52351320333912
 51
232.47648680464988
  0
ARC
  8
_0-1_線色１__水色__
  6
CONTINUOUS
 62
    4
 10
1185.7432316964457
 20
677.54124585014949
 40
1.2083333333333581
 50
307.52351320333912
 51
232.47648680464988
  0
ARC
  8
_0-1_線色１__水色__
  6
CONTINUOUS
 62
    4
 10
1182.7993114077628
 20
677.54124584994372
 40
1.2083333333333581
 50
307.52351320333912
 51
232.47648680464988
  0
ARC
  8
_0-1_線色１__水色__
  6
CONTINUOUS
 62
    4
 10
1184.2712715522373
 20
675.62457918334474
 40
1.2083333333333179
 50
127.52351320610693
 51
52.47648680188081
  0
ARC
  8
_0-1_線色１__水色__
  6
CONTINUOUS
 62
    4
 10
1179.85539111908
 20
677.54124584973908
 40
1.2083333333333581
 50
307.52351320333912
 51
232.47648680464988
  0
ARC
  8
_0-1_線色１__水色__
  6
CONTINUOUS
 62
    4
 10
1178.3834309748715
 20
675.62457918293433
 40
1.2083333333333179
 50
127.52351320610693
 51
52.47648680188081
  0
ARC
  8
_0-1_線色１__水色__
  6
CONTINUOUS
 62
    4
 10
1181.3273512635544
 20
675.62457918313896
 40
1.2083333333333179
 50
127.52351320610693
 51
52.47648680188081
  0
ARC
  8
_0-1_線色１__水色__
  6
CONTINUOUS
 62
    4
 10
1176.9114708303948
 20
677.54124584953331
 40
1.2083333333333581
 50
307.52351320333912
 51
232.47648680464988
  0
ARC
  8
_0-1_線色１__水色__
  6
CONTINUOUS
 62
    4
 10
1187.2151918409202
 20
675.62457918354937
 40
1.2083333333333179
 50
127.52351320610693
 51
52.47648680188081
  0
ARC
  8
_0-1_線色１__水色__
  6
CONTINUOUS
 62
    4
 10
1159.2479490982726
 20
677.54124585264719
 40
1.2083333333333581
 50
307.52351320333912
 51
232.47648680464988
  0
ARC
  8
_0-1_線色１__水色__
  6
CONTINUOUS
 62
    4
 10
1157.7759889540641
 20
675.62457918584244
 40
1.2083333333333179
 50
127.52351320610693
 51
52.47648680188081
  0
ARC
  8
_0-1_線色１__水色__
  6
CONTINUOUS
 62
    4
 10
1160.7199092427493
 20
675.62457918604707
 40
1.2083333333333179
 50
127.52351320610693
 51
52.47648680188081
  0
ARC
  8
_0-1_線色１__水色__
  6
CONTINUOUS
 62
    4
 10
1156.3040288095897
 20
677.54124585244142
 40
1.2083333333333581
 50
307.52351320333912
 51
232.47648680464988
  0
ARC
  8
_0-1_線色１__水色__
  6
CONTINUOUS
 62
    4
 10
1153.3601085209295
 20
677.54124585221859
 40
1.2083333333333581
 50
307.52351320333912
 51
232.47648680464988
  0
ARC
  8
_0-1_線色１__水色__
  6
CONTINUOUS
 62
    4
 10
1150.4161882322467
 20
677.54124585201396
 40
1.2083333333333581
 50
307.52351320333912
 51
232.47648680464988
  0
ARC
  8
_0-1_線色１__水色__
  6
CONTINUOUS
 62
    4
 10
1151.8881483767211
 20
675.62457918541384
 40
1.2083333333333179
 50
127.52351320610693
 51
52.47648680188081
  0
ARC
  8
_0-1_線色１__水色__
  6
CONTINUOUS
 62
    4
 10
1154.832068665404
 20
675.62457918561961
 40
1.2083333333333179
 50
127.52351320610693
 51
52.47648680188081
  0
ARC
  8
_0-1_線色１__水色__
  6
CONTINUOUS
 62
    4
 10
1162.1918693869554
 20
677.54124585285183
 40
1.2083333333333581
 50
307.52351320333912
 51
232.47648680464988
  0
ARC
  8
_0-1_線色１__水色__
  6
CONTINUOUS
 62
    4
 10
1143.0563875106702
 20
675.62457918479879
 40
1.2083333333333179
 50
127.52351320610693
 51
52.47648680188081
  0
ARC
  8
_0-1_線色１__水色__
  6
CONTINUOUS
 62
    4
 10
1141.5844273661958
 20
677.54124585139778
 40
1.2083333333333581
 50
307.52351320333912
 51
232.47648680464988
  0
ARC
  8
_0-1_線色１__水色__
  6
CONTINUOUS
 62
    4
 10
1147.4722679435615
 20
677.54124585180818
 40
1.2083333333333581
 50
307.52351320333912
 51
232.47648680464988
  0
ARC
  8
_0-1_線色１__水色__
  6
CONTINUOUS
 62
    4
 10
1146.0003077993554
 20
675.62457918500343
 40
1.2083333333333179
 50
127.52351320610693
 51
52.47648680188081
  0
ARC
  8
_0-1_線色１__水色__
  6
CONTINUOUS
 62
    4
 10
1148.9442280880382
 20
675.6245791852092
 40
1.2083333333333179
 50
127.52351320610693
 51
52.47648680188081
  0
ARC
  8
_0-1_線色１__水色__
  6
CONTINUOUS
 62
    4
 10
1144.5283476548786
 20
677.54124585160355
 40
1.2083333333333581
 50
307.52351320333912
 51
232.47648680464988
  0
ARC
  8
_0-1_線色１__水色__
  6
CONTINUOUS
 62
    4
 10
1140.1124672219873
 20
675.6245791852092
 40
1.2083333333333179
 50
127.52351320610693
 51
52.47648680188081
  0
ARC
  8
_0-1_線色１__水色__
  6
CONTINUOUS
 62
    4
 10
1238.7337968927
 20
677.54124585037232
 40
1.2083333333333581
 50
307.52351320333912
 51
232.47648680464988
  0
ARC
  8
_0-1_線色１__水色__
  6
CONTINUOUS
 62
    4
 10
1221.0702751606232
 20
677.54124584973908
 40
1.2083333333333581
 50
307.52351320333912
 51
232.47648680464988
  0
ARC
  8
_0-1_線色１__水色__
  6
CONTINUOUS
 62
    4
 10
1222.5422353050999
 20
675.62457918313896
 40
1.2083333333333179
 50
127.52351320610693
 51
52.47648680188081
  0
ARC
  8
_0-1_線色１__水色__
  6
CONTINUOUS
 62
    4
 10
1218.1263548719403
 20
677.54124584953331
 40
1.2083333333333581
 50
307.52351320333912
 51
232.47648680464988
  0
ARC
  8
_0-1_線色１__水色__
  6
CONTINUOUS
 62
    4
 10
1219.5983150164147
 20
675.62457918293433
 40
1.2083333333333179
 50
127.52351320610693
 51
52.47648680188081
  0
ARC
  8
_0-1_線色１__水色__
  6
CONTINUOUS
 62
    4
 10
1215.1824345832574
 20
677.54124584932867
 40
1.2083333333333581
 50
307.52351320333912
 51
232.47648680464988
  0
ARC
  8
_0-1_線色１__水色__
  6
CONTINUOUS
 62
    4
 10
1216.6543947277319
 20
675.62457918272855
 40
1.2083333333333179
 50
127.52351320610693
 51
52.47648680188081
  0
ARC
  8
_0-1_線色１__水色__
  6
CONTINUOUS
 62
    4
 10
1213.710474439049
 20
675.62457918252392
 40
1.2083333333333179
 50
127.52351320610693
 51
52.47648680188081
  0
ARC
  8
_0-1_線色１__水色__
  6
CONTINUOUS
 62
    4
 10
1225.4861555937828
 20
675.62457918272855
 40
1.2083333333333179
 50
127.52351320610693
 51
52.47648680188081
  0
ARC
  8
_0-1_線色１__水色__
  6
CONTINUOUS
 62
    4
 10
1224.014195449306
 20
677.54124584932867
 40
1.2083333333333581
 50
307.52351320333912
 51
232.47648680464988
  0
ARC
  8
_0-1_線色１__水色__
  6
CONTINUOUS
 62
    4
 10
1235.7898766040398
 20
677.54124585014949
 40
1.2083333333333581
 50
307.52351320333912
 51
232.47648680464988
  0
ARC
  8
_0-1_線色１__水色__
  6
CONTINUOUS
 62
    4
 10
1232.8459563153569
 20
677.54124584994372
 40
1.2083333333333581
 50
307.52351320333912
 51
232.47648680464988
  0
ARC
  8
_0-1_線色１__水色__
  6
CONTINUOUS
 62
    4
 10
1234.3179164598314
 20
675.62457918334474
 40
1.2083333333333179
 50
127.52351320610693
 51
52.47648680188081
  0
ARC
  8
_0-1_線色１__水色__
  6
CONTINUOUS
 62
    4
 10
1229.9020360266741
 20
677.54124584973908
 40
1.2083333333333581
 50
307.52351320333912
 51
232.47648680464988
  0
ARC
  8
_0-1_線色１__水色__
  6
CONTINUOUS
 62
    4
 10
1228.4300758824656
 20
675.62457918293433
 40
1.2083333333333179
 50
127.52351320610693
 51
52.47648680188081
  0
ARC
  8
_0-1_線色１__水色__
  6
CONTINUOUS
 62
    4
 10
1231.3739961711485
 20
675.62457918313896
 40
1.2083333333333179
 50
127.52351320610693
 51
52.47648680188081
  0
ARC
  8
_0-1_線色１__水色__
  6
CONTINUOUS
 62
    4
 10
1226.9581157379889
 20
677.54124584953331
 40
1.2083333333333581
 50
307.52351320333912
 51
232.47648680464988
  0
ARC
  8
_0-1_線色１__水色__
  6
CONTINUOUS
 62
    4
 10
1237.2618367485143
 20
675.62457918354937
 40
1.2083333333333179
 50
127.52351320610693
 51
52.47648680188081
  0
ARC
  8
_0-1_線色１__水色__
  6
CONTINUOUS
 62
    4
 10
1209.2945940058667
 20
677.54124585264719
 40
1.2083333333333581
 50
307.52351320333912
 51
232.47648680464988
  0
ARC
  8
_0-1_線色１__水色__
  6
CONTINUOUS
 62
    4
 10
1207.8226338616582
 20
675.62457918584244
 40
1.2083333333333179
 50
127.52351320610693
 51
52.47648680188081
  0
ARC
  8
_0-1_線色１__水色__
  6
CONTINUOUS
 62
    4
 10
1210.7665541503434
 20
675.62457918604707
 40
1.2083333333333179
 50
127.52351320610693
 51
52.47648680188081
  0
ARC
  8
_0-1_線色１__水色__
  6
CONTINUOUS
 62
    4
 10
1206.3506737171838
 20
677.54124585244142
 40
1.2083333333333581
 50
307.52351320333912
 51
232.47648680464988
  0
ARC
  8
_0-1_線色１__水色__
  6
CONTINUOUS
 62
    4
 10
1203.4067534285236
 20
677.54124585221859
 40
1.2083333333333581
 50
307.52351320333912
 51
232.47648680464988
  0
ARC
  8
_0-1_線色１__水色__
  6
CONTINUOUS
 62
    4
 10
1200.4628331398408
 20
677.54124585201396
 40
1.2083333333333581
 50
307.52351320333912
 51
232.47648680464988
  0
ARC
  8
_0-1_線色１__水色__
  6
CONTINUOUS
 62
    4
 10
1201.9347932843152
 20
675.62457918541384
 40
1.2083333333333179
 50
127.52351320610693
 51
52.47648680188081
  0
ARC
  8
_0-1_線色１__水色__
  6
CONTINUOUS
 62
    4
 10
1204.8787135729981
 20
675.62457918561961
 40
1.2083333333333179
 50
127.52351320610693
 51
52.47648680188081
  0
ARC
  8
_0-1_線色１__水色__
  6
CONTINUOUS
 62
    4
 10
1212.2385142945495
 20
677.54124585285183
 40
1.2083333333333581
 50
307.52351320333912
 51
232.47648680464988
  0
ARC
  8
_0-1_線色１__水色__
  6
CONTINUOUS
 62
    4
 10
1193.1030324182643
 20
675.62457918479879
 40
1.2083333333333179
 50
127.52351320610693
 51
52.47648680188081
  0
ARC
  8
_0-1_線色１__水色__
  6
CONTINUOUS
 62
    4
 10
1191.6310722737899
 20
677.54124585139778
 40
1.2083333333333581
 50
307.52351320333912
 51
232.47648680464988
  0
ARC
  8
_0-1_線色１__水色__
  6
CONTINUOUS
 62
    4
 10
1197.5189128511556
 20
677.54124585180818
 40
1.2083333333333581
 50
307.52351320333912
 51
232.47648680464988
  0
ARC
  8
_0-1_線色１__水色__
  6
CONTINUOUS
 62
    4
 10
1196.0469527069495
 20
675.62457918500343
 40
1.2083333333333179
 50
127.52351320610693
 51
52.47648680188081
  0
ARC
  8
_0-1_線色１__水色__
  6
CONTINUOUS
 62
    4
 10
1198.9908729956323
 20
675.6245791852092
 40
1.2083333333333179
 50
127.52351320610693
 51
52.47648680188081
  0
ARC
  8
_0-1_線色１__水色__
  6
CONTINUOUS
 62
    4
 10
1194.5749925624727
 20
677.54124585160355
 40
1.2083333333333581
 50
307.52351320333912
 51
232.47648680464988
  0
ARC
  8
_0-1_線色１__水色__
  6
CONTINUOUS
 62
    4
 10
1190.1591121295814
 20
675.6245791852092
 40
1.2083333333333179
 50
127.52351320610693
 51
52.47648680188081
  0
ARC
  8
_0-1_線色１__水色__
  6
CONTINUOUS
 62
    4
 10
1253.4533983361177
 20
677.54124585221859
 40
1.2083333333333581
 50
307.52351320333912
 51
232.47648680464988
  0
ARC
  8
_0-1_線色１__水色__
  6
CONTINUOUS
 62
    4
 10
1250.5094780474349
 20
677.54124585201396
 40
1.2083333333333581
 50
307.52351320333912
 51
232.47648680464988
  0
ARC
  8
_0-1_線色１__水色__
  6
CONTINUOUS
 62
    4
 10
1251.9814381919093
 20
675.62457918541384
 40
1.2083333333333179
 50
127.52351320610693
 51
52.47648680188081
  0
ARC
  8
_0-1_線色１__水色__
  6
CONTINUOUS
 62
    4
 10
1254.9253584805922
 20
675.62457918561961
 40
1.2083333333333179
 50
127.52351320610693
 51
52.47648680188081
  0
ARC
  8
_0-1_線色１__水色__
  6
CONTINUOUS
 62
    4
 10
1243.1496773258584
 20
675.62457918479879
 40
1.2083333333333179
 50
127.52351320610693
 51
52.47648680188081
  0
ARC
  8
_0-1_線色１__水色__
  6
CONTINUOUS
 62
    4
 10
1241.677717181384
 20
677.54124585139778
 40
1.2083333333333581
 50
307.52351320333912
 51
232.47648680464988
  0
ARC
  8
_0-1_線色１__水色__
  6
CONTINUOUS
 62
    4
 10
1247.5655577587497
 20
677.54124585180818
 40
1.2083333333333581
 50
307.52351320333912
 51
232.47648680464988
  0
ARC
  8
_0-1_線色１__水色__
  6
CONTINUOUS
 62
    4
 10
1246.0935976145436
 20
675.62457918500343
 40
1.2083333333333179
 50
127.52351320610693
 51
52.47648680188081
  0
ARC
  8
_0-1_線色１__水色__
  6
CONTINUOUS
 62
    4
 10
1249.0375179032264
 20
675.6245791852092
 40
1.2083333333333179
 50
127.52351320610693
 51
52.47648680188081
  0
ARC
  8
_0-1_線色１__水色__
  6
CONTINUOUS
 62
    4
 10
1244.6216374700668
 20
677.54124585160355
 40
1.2083333333333581
 50
307.52351320333912
 51
232.47648680464988
  0
ARC
  8
_0-1_線色１__水色__
  6
CONTINUOUS
 62
    4
 10
1240.2057570371755
 20
675.6245791852092
 40
1.2083333333333179
 50
127.52351320610693
 51
52.47648680188081
  0
ARC
  8
_0-1_線色１__水色__
  6
CONTINUOUS
 62
    4
 10
1257.8692787692523
 20
675.62457918584244
 40
1.2083333333333179
 50
127.52351320610693
 51
247.78971164985913
  0
ARC
  8
_0-1_線色１__水色__
  6
CONTINUOUS
 62
    4
 10
1256.3973186247779
 20
677.54124585244142
 40
1.2083333333333581
 50
307.52351320333918
 51
327.15774566393463
  0
ARC
  8
_0-1_線色１__水色__
  6
CONTINUOUS
 62
    4
 10
1256.3973186247779
 20
677.54124585244142
 40
1.2083333333333581
 50
32.842254336065366
 51
232.47648680464988
  0
LINE
  8
_0-a_文字
  6
CONTINUOUS
 62
    7
 10
1295.500933515093
 20
589.08291151488754
 11
1315.500933515093
 21
589.08291151488754
  0
LINE
  8
_0-a_文字
  6
CONTINUOUS
 62
    7
 10
1266.6332751406912
 20
639.08316251489225
 11
1295.500933515093
 21
589.08291151488754
  0
ARC
  8
_0-1_線色１__水色__
  6
CONTINUOUS
 62
    4
 10
1053.2668187057425
 20
677.54124585221859
 40
1.2083333333333581
 50
307.52351320333918
 51
98.648669161934251
  0
ARC
  8
_0-1_線色１__水色__
  6
CONTINUOUS
 62
    4
 10
1041.4911375510087
 20
677.54124585139778
 40
1.2083333333333581
 50
122.88229071198967
 51
232.47648680464988
  0
ARC
  8
_0-1_線色１__水色__
  6
CONTINUOUS
 62
    4
 10
1040.0191774068003
 20
675.6245791852092
 40
1.2083333333333179
 50
127.52351320610693
 51
312.47426647857435
  0
ARC
  8
_0-1_線色１__水色__
  6
CONTINUOUS
 62
    4
 10
1040.0191774068003
 20
675.6245791852092
 40
1.2083333333333179
 50
47.525733521425693
 51
52.476486801880846
  0
LINE
  8
_0-d_断熱__ハッチ
  6
CONTINUOUS
 62
    4
 10
1018.0589918433748
 20
674.08291251315688
 11
1038.903920124709
 21
653.23798423182268
  0
LINE
  8
_0-d_断熱__ハッチ
  6
CONTINUOUS
 62
    4
 10
1016.9022375785005
 20
639.08291251315688
 11
1045.4644750919567
 21
667.64515002661199
  0
LINE
  8
_0-d_断熱__ハッチ
  6
CONTINUOUS
 62
    4
 10
1057.022870732452
 20
663.40330487154631
 11
1081.3432630908449
 21
639.08291251315461
  0
LINE
  8
_0-d_断熱__ハッチ
  6
CONTINUOUS
 62
    4
 10
1051.6242713125143
 20
645.52067499970292
 11
1080.1865088259683
 21
674.08291251315688
  0
LINE
  8
ADD_LINE
  6
DOT
 62
    4
 10
838.30914526836409
 20
599.41469663813166
 11
838.30914526836409
 21
689.03141638074942
  0
LINE
  8
_0-7_ビス
  6
CONTINUOUS
 62
    7
 10
844.30914526836432
 20
682.14944591546725
 11
844.30914526836432
 21
682.53406130008273
  0
LINE
  8
_0-7_ビス
  6
DASHED3
 62
    7
 10
839.77661338461985
 20
679.98469176925539
 11
840.85916110451308
 21
682.53406130008273
  0
LINE
  8
_0-7_ビス
  6
CONTINUOUS
 62
    7
 10
832.309145268365
 20
682.14944591546725
 11
832.309145268365
 21
682.53406130008273
  0
LINE
  8
_0-7_ビス
  6
DASHED3
 62
    7
 10
836.84167715210947
 20
679.98469176925539
 11
835.75912943221624
 21
682.53406130008273
  0
LINE
  8
_0-7_ビス
  6
CONTINUOUS
 62
    7
 10
844.30914526836432
 20
682.14944591546725
 11
832.309145268365
 21
682.14944591546725
  0
LINE
  8
_0-7_ビス
  6
CONTINUOUS
 62
    7
 10
844.30914526836432
 20
682.53406130008273
 11
832.309145268365
 21
682.53406130008273
  0
ARC
  8
_0-7_ビス
  6
DASHED3
 62
    7
 10
838.30914526836409
 20
681.09523486752266
 40
1.8403175392666382
 50
217.11750793457031
 51
322.88247680664062
  0
LINE
  8
_0-7_ビス
  6
CONTINUOUS
 62
    7
 10
842.39493170599076
 20
680.23523235309369
 11
844.30914526836432
 21
682.14944591546725
  0
ARC
  8
_0-7_ビス
  6
CONTINUOUS
 62
    7
 10
843.80914526836364
 20
678.82101879072081
 40
2
 50
135.00000000000153
 51
180.00000000000003
  0
LINE
  8
_0-7_ビス
  6
CONTINUOUS
 62
    7
 10
834.22335883073742
 20
680.23523235309369
 11
832.30914526836386
 21
682.14944591546725
  0
ARC
  8
_0-7_ビス
  6
CONTINUOUS
 62
    7
 10
832.80914526836455
 20
678.82101879072081
 40
2
 50
0
 51
44.999999999998501
  0
LINE
  8
_0-7_ビス
  6
CONTINUOUS
 62
    7
 10
841.80914526836432
 20
678.53406130008295
 11
834.80914526836386
 21
678.53406130008295
  0
LINE
  8
_0-7_ビス
  6
CONTINUOUS
 62
    7
 10
834.80914526836386
 20
609.55478724224633
 11
838.30914526836409
 21
607.53406130008273
  0
LINE
  8
_0-7_ビス
  6
CONTINUOUS
 62
    7
 10
834.80914526836386
 20
678.82101879072081
 11
834.80914526836386
 21
609.55478724224633
  0
LINE
  8
_0-7_ビス
  6
CONTINUOUS
 62
    7
 10
841.80914526836432
 20
613.03406130008341
 11
834.80914526836386
 21
613.03406130008341
  0
LINE
  8
_0-7_ビス
  6
CONTINUOUS
 62
    7
 10
841.80914526836432
 20
609.55478724224633
 11
838.30914526836409
 21
607.53406130008273
  0
LINE
  8
_0-7_ビス
  6
CONTINUOUS
 62
    7
 10
841.80914526836432
 20
678.82101879072081
 11
841.80914526836432
 21
609.55478724224633
  0
LINE
  8
_0-7_ビス
  6
CONTINUOUS
 62
    7
 10
841.80914526836432
 20
667.53406130008273
 11
834.80914526836386
 21
667.53406130008273
  0
LINE
  8
_0-7_ビス
  6
CONTINUOUS
 62
    4
 10
834.80914526836386
 20
666.33425794068955
 11
839.28672571030461
 21
667.53406130008273
  0
LINE
  8
_0-7_ビス
  6
CONTINUOUS
 62
    4
 10
834.80914526836386
 20
654.02803741131208
 11
841.80914526836432
 21
655.90374319140039
  0
LINE
  8
_0-7_ビス
  6
CONTINUOUS
 62
    4
 10
834.80914526836386
 20
656.02803741131254
 11
841.80914526836432
 21
657.90374319140085
  0
LINE
  8
_0-7_ビス
  6
CONTINUOUS
 62
    4
 10
834.80914526836386
 20
658.02803741131186
 11
841.80914526836432
 21
659.90374319140017
  0
LINE
  8
_0-7_ビス
  6
CONTINUOUS
 62
    4
 10
834.80914526836386
 20
660.02803741131231
 11
841.80914526836432
 21
661.90374319140062
  0
LINE
  8
_0-7_ビス
  6
CONTINUOUS
 62
    4
 10
834.80914526836386
 20
662.02803741131163
 11
841.80914526836432
 21
663.90374319140108
  0
LINE
  8
_0-7_ビス
  6
CONTINUOUS
 62
    4
 10
834.80914526836386
 20
664.02803741131208
 11
841.80914526836432
 21
665.90374319140153
  0
LINE
  8
_0-7_ビス
  6
CONTINUOUS
 62
    4
 10
834.80914526836386
 20
641.72181688193575
 11
841.80914526836432
 21
643.59752266202406
  0
LINE
  8
_0-7_ビス
  6
CONTINUOUS
 62
    4
 10
834.80914526836386
 20
643.72181688193507
 11
841.80914526836432
 21
645.59752266202338
  0
LINE
  8
_0-7_ビス
  6
CONTINUOUS
 62
    4
 10
834.80914526836386
 20
645.72181688193552
 11
841.80914526836432
 21
647.59752266202383
  0
LINE
  8
_0-7_ビス
  6
CONTINUOUS
 62
    4
 10
834.80914526836386
 20
647.72181688193484
 11
841.80914526836432
 21
649.59752266202429
  0
LINE
  8
_0-7_ビス
  6
CONTINUOUS
 62
    4
 10
834.80914526836386
 20
649.7218168819353
 11
841.80914526836432
 21
651.59752266202361
  0
LINE
  8
_0-7_ビス
  6
CONTINUOUS
 62
    4
 10
834.80914526836386
 20
651.72181688193575
 11
841.80914526836432
 21
653.59752266202406
  0
LINE
  8
_0-7_ビス
  6
CONTINUOUS
 62
    4
 10
834.80914526836386
 20
629.41559635255828
 11
841.80914526836432
 21
631.29130213264659
  0
LINE
  8
_0-7_ビス
  6
CONTINUOUS
 62
    4
 10
834.80914526836386
 20
631.41559635255874
 11
841.80914526836432
 21
633.29130213264705
  0
LINE
  8
_0-7_ビス
  6
CONTINUOUS
 62
    4
 10
834.80914526836386
 20
633.41559635255805
 11
841.80914526836432
 21
635.29130213264636
  0
LINE
  8
_0-7_ビス
  6
CONTINUOUS
 62
    4
 10
834.80914526836386
 20
635.41559635255851
 11
841.80914526836432
 21
637.29130213264682
  0
LINE
  8
_0-7_ビス
  6
CONTINUOUS
 62
    4
 10
834.80914526836386
 20
637.41559635255783
 11
841.80914526836432
 21
639.29130213264727
  0
LINE
  8
_0-7_ビス
  6
CONTINUOUS
 62
    4
 10
834.80914526836386
 20
639.41559635255828
 11
841.80914526836432
 21
641.29130213264773
  0
LINE
  8
_0-7_ビス
  6
CONTINUOUS
 62
    4
 10
834.80914526836386
 20
617.10937582318195
 11
841.80914526836432
 21
618.98508160327026
  0
LINE
  8
_0-7_ビス
  6
CONTINUOUS
 62
    4
 10
834.80914526836386
 20
619.10937582318127
 11
841.80914526836432
 21
620.98508160326958
  0
LINE
  8
_0-7_ビス
  6
CONTINUOUS
 62
    4
 10
834.80914526836386
 20
621.10937582318172
 11
841.80914526836432
 21
622.98508160327003
  0
LINE
  8
_0-7_ビス
  6
CONTINUOUS
 62
    4
 10
834.80914526836386
 20
623.10937582318104
 11
841.80914526836432
 21
624.98508160327049
  0
LINE
  8
_0-7_ビス
  6
CONTINUOUS
 62
    4
 10
834.80914526836386
 20
625.10937582318149
 11
841.80914526836432
 21
626.9850816032698
  0
LINE
  8
_0-7_ビス
  6
CONTINUOUS
 62
    4
 10
834.80914526836386
 20
627.10937582318195
 11
841.80914526836432
 21
628.98508160327026
  0
LINE
  8
_0-7_ビス
  6
CONTINUOUS
 62
    4
 10
834.80914526836386
 20
614.80315529380448
 11
841.80914526836432
 21
616.67886107389393
  0
LINE
  8
_0-7_ビス
  6
CONTINUOUS
 62
    4
 10
835.67086999145658
 20
613.03406130008341
 11
841.80914526836432
 21
614.67886107389347
  0
LINE
  8
ADD_LINE
  6
DOT
 62
    4
 10
1219.8912885770267
 20
599.41469663813166
 11
1219.8912885770267
 21
689.03141638074942
  0
LINE
  8
_0-7_ビス
  6
CONTINUOUS
 62
    7
 10
1225.8912885770269
 20
682.14944591546725
 11
1225.8912885770269
 21
682.53406130008273
  0
LINE
  8
_0-7_ビス
  6
DASHED3
 62
    7
 10
1221.3587566932824
 20
679.98469176925539
 11
1222.4413044131757
 21
682.53406130008273
  0
LINE
  8
_0-7_ビス
  6
CONTINUOUS
 62
    7
 10
1213.8912885770276
 20
682.14944591546725
 11
1213.8912885770276
 21
682.53406130008273
  0
LINE
  8
_0-7_ビス
  6
DASHED3
 62
    7
 10
1218.423820460772
 20
679.98469176925539
 11
1217.3412727408788
 21
682.53406130008273
  0
LINE
  8
_0-7_ビス
  6
CONTINUOUS
 62
    7
 10
1225.8912885770269
 20
682.14944591546725
 11
1213.8912885770276
 21
682.14944591546725
  0
LINE
  8
_0-7_ビス
  6
CONTINUOUS
 62
    7
 10
1225.8912885770269
 20
682.53406130008273
 11
1213.8912885770276
 21
682.53406130008273
  0
ARC
  8
_0-7_ビス
  6
DASHED3
 62
    7
 10
1219.8912885770267
 20
681.09523486752266
 40
1.8403175392666382
 50
217.11750793457031
 51
322.88247680664062
  0
LINE
  8
_0-7_ビス
  6
CONTINUOUS
 62
    7
 10
1223.9770750146533
 20
680.23523235309369
 11
1225.8912885770269
 21
682.14944591546725
  0
ARC
  8
_0-7_ビス
  6
CONTINUOUS
 62
    7
 10
1225.3912885770262
 20
678.82101879072081
 40
2
 50
135.00000000000153
 51
180.00000000000003
  0
LINE
  8
_0-7_ビス
  6
CONTINUOUS
 62
    7
 10
1215.8055021394
 20
680.23523235309369
 11
1213.8912885770264
 21
682.14944591546725
  0
ARC
  8
_0-7_ビス
  6
CONTINUOUS
 62
    7
 10
1214.3912885770271
 20
678.82101879072081
 40
2
 50
0
 51
44.999999999998501
  0
LINE
  8
_0-7_ビス
  6
CONTINUOUS
 62
    7
 10
1223.3912885770269
 20
678.53406130008295
 11
1216.3912885770264
 21
678.53406130008295
  0
LINE
  8
_0-7_ビス
  6
CONTINUOUS
 62
    7
 10
1216.3912885770264
 20
609.55478724224633
 11
1219.8912885770267
 21
607.53406130008273
  0
LINE
  8
_0-7_ビス
  6
CONTINUOUS
 62
    7
 10
1216.3912885770264
 20
678.82101879072081
 11
1216.3912885770264
 21
609.55478724224633
  0
LINE
  8
_0-7_ビス
  6
CONTINUOUS
 62
    7
 10
1223.3912885770269
 20
613.03406130008341
 11
1216.3912885770264
 21
613.03406130008341
  0
LINE
  8
_0-7_ビス
  6
CONTINUOUS
 62
    7
 10
1223.3912885770269
 20
609.55478724224633
 11
1219.8912885770267
 21
607.53406130008273
  0
LINE
  8
_0-7_ビス
  6
CONTINUOUS
 62
    7
 10
1223.3912885770269
 20
678.82101879072081
 11
1223.3912885770269
 21
609.55478724224633
  0
LINE
  8
_0-7_ビス
  6
CONTINUOUS
 62
    7
 10
1223.3912885770269
 20
667.53406130008273
 11
1216.3912885770264
 21
667.53406130008273
  0
LINE
  8
_0-7_ビス
  6
CONTINUOUS
 62
    4
 10
1216.3912885770264
 20
666.33425794068955
 11
1220.8688690189672
 21
667.53406130008273
  0
LINE
  8
_0-7_ビス
  6
CONTINUOUS
 62
    4
 10
1216.3912885770264
 20
654.02803741131208
 11
1223.3912885770269
 21
655.90374319140039
  0
LINE
  8
_0-7_ビス
  6
CONTINUOUS
 62
    4
 10
1216.3912885770264
 20
656.02803741131254
 11
1223.3912885770269
 21
657.90374319140085
  0
LINE
  8
_0-7_ビス
  6
CONTINUOUS
 62
    4
 10
1216.3912885770264
 20
658.02803741131186
 11
1223.3912885770269
 21
659.90374319140017
  0
LINE
  8
_0-7_ビス
  6
CONTINUOUS
 62
    4
 10
1216.3912885770264
 20
660.02803741131231
 11
1223.3912885770269
 21
661.90374319140062
  0
LINE
  8
_0-7_ビス
  6
CONTINUOUS
 62
    4
 10
1216.3912885770264
 20
662.02803741131163
 11
1223.3912885770269
 21
663.90374319140108
  0
LINE
  8
_0-7_ビス
  6
CONTINUOUS
 62
    4
 10
1216.3912885770264
 20
664.02803741131208
 11
1223.3912885770269
 21
665.90374319140153
  0
LINE
  8
_0-7_ビス
  6
CONTINUOUS
 62
    4
 10
1216.3912885770264
 20
641.72181688193575
 11
1223.3912885770269
 21
643.59752266202406
  0
LINE
  8
_0-7_ビス
  6
CONTINUOUS
 62
    4
 10
1216.3912885770264
 20
643.72181688193507
 11
1223.3912885770269
 21
645.59752266202338
  0
LINE
  8
_0-7_ビス
  6
CONTINUOUS
 62
    4
 10
1216.3912885770264
 20
645.72181688193552
 11
1223.3912885770269
 21
647.59752266202383
  0
LINE
  8
_0-7_ビス
  6
CONTINUOUS
 62
    4
 10
1216.3912885770264
 20
647.72181688193484
 11
1223.3912885770269
 21
649.59752266202429
  0
LINE
  8
_0-7_ビス
  6
CONTINUOUS
 62
    4
 10
1216.3912885770264
 20
649.7218168819353
 11
1223.3912885770269
 21
651.59752266202361
  0
LINE
  8
_0-7_ビス
  6
CONTINUOUS
 62
    4
 10
1216.3912885770264
 20
651.72181688193575
 11
1223.3912885770269
 21
653.59752266202406
  0
LINE
  8
_0-7_ビス
  6
CONTINUOUS
 62
    4
 10
1216.3912885770264
 20
629.41559635255828
 11
1223.3912885770269
 21
631.29130213264659
  0
LINE
  8
_0-7_ビス
  6
CONTINUOUS
 62
    4
 10
1216.3912885770264
 20
631.41559635255874
 11
1223.3912885770269
 21
633.29130213264705
  0
LINE
  8
_0-7_ビス
  6
CONTINUOUS
 62
    4
 10
1216.3912885770264
 20
633.41559635255805
 11
1223.3912885770269
 21
635.29130213264636
  0
LINE
  8
_0-7_ビス
  6
CONTINUOUS
 62
    4
 10
1216.3912885770264
 20
635.41559635255851
 11
1223.3912885770269
 21
637.29130213264682
  0
LINE
  8
_0-7_ビス
  6
CONTINUOUS
 62
    4
 10
1216.3912885770264
 20
637.41559635255783
 11
1223.3912885770269
 21
639.29130213264727
  0
LINE
  8
_0-7_ビス
  6
CONTINUOUS
 62
    4
 10
1216.3912885770264
 20
639.41559635255828
 11
1223.3912885770269
 21
641.29130213264773
  0
LINE
  8
_0-7_ビス
  6
CONTINUOUS
 62
    4
 10
1216.3912885770264
 20
617.10937582318195
 11
1223.3912885770269
 21
618.98508160327026
  0
LINE
  8
_0-7_ビス
  6
CONTINUOUS
 62
    4
 10
1216.3912885770264
 20
619.10937582318127
 11
1223.3912885770269
 21
620.98508160326958
  0
LINE
  8
_0-7_ビス
  6
CONTINUOUS
 62
    4
 10
1216.3912885770264
 20
621.10937582318172
 11
1223.3912885770269
 21
622.98508160327003
  0
LINE
  8
_0-7_ビス
  6
CONTINUOUS
 62
    4
 10
1216.3912885770264
 20
623.10937582318104
 11
1223.3912885770269
 21
624.98508160327049
  0
LINE
  8
_0-7_ビス
  6
CONTINUOUS
 62
    4
 10
1216.3912885770264
 20
625.10937582318149
 11
1223.3912885770269
 21
626.9850816032698
  0
LINE
  8
_0-7_ビス
  6
CONTINUOUS
 62
    4
 10
1216.3912885770264
 20
627.10937582318195
 11
1223.3912885770269
 21
628.98508160327026
  0
LINE
  8
_0-7_ビス
  6
CONTINUOUS
 62
    4
 10
1216.3912885770264
 20
614.80315529380448
 11
1223.3912885770269
 21
616.67886107389393
  0
LINE
  8
_0-7_ビス
  6
CONTINUOUS
 62
    4
 10
1217.2530133001192
 20
613.03406130008341
 11
1223.3912885770269
 21
614.67886107389347
  0
LINE
  8
_0-5_金属
  6
CONTINUOUS
 62
    7
 10
1026.7070403683567
 20
637.84451151662267
 11
1034.5991903683569
 21
626.96186151662289
  0
LINE
  8
_0-5_金属
  6
CONTINUOUS
 62
    7
 10
1032.061240368356
 20
623.17341151662333
 11
1032.260340368357
 21
623.18931151662298
  0
LINE
  8
_0-5_金属
  6
CONTINUOUS
 62
    7
 10
1032.1568903683567
 20
621.97726151662266
 11
1032.3561903683571
 21
621.99321151662332
  0
LINE
  8
_0-5_金属
  6
CONTINUOUS
 62
    7
 10
1025.7355903683572
 20
637.1400115166233
 11
1033.6277403683562
 21
626.25741151662339
  0
LINE
  8
_0-5_金属
  6
CONTINUOUS
 62
    7
 10
977.05529036835628
 20
639.08316151662291
 11
1024.2784403683572
 21
639.08316151662291
  0
LINE
  8
_0-5_金属
  6
CONTINUOUS
 62
    7
 10
977.05554036835679
 20
637.88321151662274
 11
1024.2784403683572
 21
637.88321151662274
  0
ARC
  8
_0-5_金属
  6
CONTINUOUS
 62
    7
 10
1032.008640368357
 20
625.08316151662314
 40
3.1999969500000001
 50
0.000035
 51
35.949935000000004
  0
ARC
  8
_0-5_金属
  6
CONTINUOUS
 62
    7
 10
1032.008640368357
 20
625.08316151662314
 40
1.9999961500000007
 50
0.000035
 51
35.949717000000007
  0
ARC
  8
_0-5_金属
  6
CONTINUOUS
 62
    7
 10
1032.4085403683569
 20
620.08316151662314
 40
2.0000114
 50
180.00009000000003
 51
216.07594000000003
  0
ARC
  8
_0-5_金属
  6
CONTINUOUS
 62
    7
 10
1032.3086903683566
 20
620.08316151662314
 40
3.1000213500000005
 50
94.576591000000008
 51
179.99990000000003
  0
ARC
  8
_0-5_金属
  6
CONTINUOUS
 62
    7
 10
1032.1084903683561
 20
625.08316151662314
 40
3.0999907999999996
 50
274.58181000000002
 51
359.99996000000004
  0
ARC
  8
_0-5_金属
  6
CONTINUOUS
 62
    7
 10
1032.4085403683569
 20
620.08316151662314
 40
3.2000122000000002
 50
180.00009000000003
 51
215.78394000000003
  0
ARC
  8
_0-5_金属
  6
CONTINUOUS
 62
    7
 10
1032.1084903683561
 20
625.08316151662314
 40
1.8999938500000002
 50
274.57776999999999
 51
359.99995999999999
  0
ARC
  8
_0-5_金属
  6
CONTINUOUS
 62
    7
 10
1032.3086903683566
 20
620.08316151662314
 40
1.9000091499999998
 50
94.580906999999996
 51
179.9999
  0
ARC
  8
_0-5_金属
  6
CONTINUOUS
 62
    7
 10
1024.2784403683572
 20
636.08316151662336
 40
1.7999992
 50
35.949661999999996
 51
89.999489999999994
  0
ARC
  8
_0-5_金属
  6
CONTINUOUS
 62
    7
 10
1024.2784403683572
 20
636.08316151662336
 40
3.0000000000000004
 50
35.949770999999998
 51
89.999654000000007
  0
LINE
  8
_0-5_金属
  6
CONTINUOUS
 62
    7
 10
813.30919036835667
 20
602.08316151662245
 11
827.10899036835713
 21
602.08316151662245
  0
LINE
  8
_0-5_金属
  6
CONTINUOUS
 62
    7
 10
828.20149036835687
 20
597.20826151662266
 11
824.76049036835661
 21
594.96356151662269
  0
LINE
  8
_0-5_金属
  6
CONTINUOUS
 62
    7
 10
828.85709036835692
 20
596.20321151662267
 11
825.41614036835654
 21
593.95856151662258
  0
LINE
  8
_0-5_金属
  6
CONTINUOUS
 62
    7
 10
813.30919036835667
 20
600.88321151662342
 11
827.10899036835713
 21
600.88321151662342
  0
LINE
  8
_0-5_金属
  6
CONTINUOUS
 62
    7
 10
796.30914526836364
 20
589.08316151662291
 11
946.30914526836364
 21
589.08316151662291
  0
LINE
  8
_0-5_金属
  6
CONTINUOUS
 62
    7
 10
892.01819036835673
 20
626.96196151662264
 11
899.91034036835686
 21
637.84451151662267
  0
LINE
  8
_0-5_金属
  6
CONTINUOUS
 62
    7
 10
896.80464036835701
 20
618.21221151662314
 11
876.7066403683566
 21
590.32916151662278
  0
LINE
  8
_0-5_金属
  6
CONTINUOUS
 62
    7
 10
894.35699036835672
 20
623.18941151662273
 11
894.55609036835654
 21
623.17346151662321
  0
LINE
  8
_0-5_金属
  6
CONTINUOUS
 62
    7
 10
894.26099036835694
 20
621.99311151662243
 11
894.46024036835638
 21
621.97711151662304
  0
LINE
  8
_0-5_金属
  6
CONTINUOUS
 62
    7
 10
895.83119036835683
 20
618.91381151662301
 11
875.73319036835642
 21
591.03081151662366
  0
LINE
  8
_0-5_金属
  6
CONTINUOUS
 62
    7
 10
892.98964036835628
 20
626.25751151662314
 11
900.88169036835666
 21
637.1400115166233
  0
LINE
  8
_0-5_金属
  6
CONTINUOUS
 62
    7
 10
826.50914036835616
 20
590.28336151662245
 11
874.27304036835721
 21
590.28336151662245
  0
LINE
  8
_0-5_金属
  6
CONTINUOUS
 62
    7
 10
902.33899036835624
 20
639.08316151662291
 11
949.56284036835655
 21
639.08316151662291
  0
LINE
  8
_0-5_金属
  6
CONTINUOUS
 62
    7
 10
902.33899036835624
 20
637.88321151662274
 11
949.56284036835655
 21
637.88321151662274
  0
LINE
  8
_0-5_金属
  6
CONTINUOUS
 62
    7
 10
799.50914036835684
 20
602.08316151662245
 11
813.30919036835667
 21
602.08316151662245
  0
LINE
  8
_0-5_金属
  6
CONTINUOUS
 62
    7
 10
799.50914036835684
 20
600.88321151662342
 11
813.30919036835667
 21
600.88321151662342
  0
LINE
  8
_0-5_金属
  6
CONTINUOUS
 62
    7
 10
797.50939036835689
 20
598.88321151662296
 11
797.50939036835689
 21
597.68326151662279
  0
LINE
  8
_0-5_金属
  6
CONTINUOUS
 62
    7
 10
796.30944036835672
 20
598.88321151662296
 11
796.30944036835672
 21
597.68326151662279
  0
LINE
  8
_0-5_金属
  6
CONTINUOUS
 62
    7
 10
797.15984036835721
 20
595.08366151662301
 11
798.12809036835688
 21
595.79286151662302
  0
LINE
  8
_0-5_金属
  6
CONTINUOUS
 62
    7
 10
796.30969036835609
 20
597.68331151662267
 11
800.70984036835739
 21
597.68331151662267
  0
LINE
  8
_0-5_金属
  6
CONTINUOUS
 62
    7
 10
800.70929036835651
 20
597.68331151662267
 11
797.15949036835696
 21
595.08326151662288
  0
LINE
  8
_0-5_金属
  6
CONTINUOUS
 62
    7
 10
962.033390368357
 20
627.81271151662338
 11
951.6883903683572
 21
638.19996151662338
  0
LINE
  8
_0-5_金属
  6
CONTINUOUS
 62
    7
 10
961.1830903683574
 20
626.9659115166229
 11
950.83814036835633
 21
637.35311151662302
  0
LINE
  8
_0-5_金属
  6
CONTINUOUS
 62
    7
 10
974.92939036835651
 20
638.20021151662274
 11
964.58404036835645
 21
627.81266151662351
  0
LINE
  8
_0-5_金属
  6
CONTINUOUS
 62
    7
 10
975.77989036835675
 20
637.3534115166234
 11
965.43444036835695
 21
626.9657115166234
  0
ARC
  8
_0-5_金属
  6
CONTINUOUS
 62
    7
 10
826.50889036835679
 20
592.2833615166229
 40
3.2000007500000005
 50
123.11782000000001
 51
269.99982999999997
  0
ARC
  8
_0-5_金属
  6
CONTINUOUS
 62
    7
 10
827.10874036835662
 20
598.88321151662296
 40
3.1999998000000001
 50
0.000035
 51
89.999927
  0
ARC
  8
_0-5_金属
  6
CONTINUOUS
 62
    7
 10
827.10874036835662
 20
598.88321151662296
 40
1.9999990000000001
 50
0.000035
 51
89.999927
  0
ARC
  8
_0-5_金属
  6
CONTINUOUS
 62
    7
 10
826.50889036835679
 20
592.2833615166229
 40
2
 50
123.11782000000001
 51
269.99982999999997
  0
ARC
  8
_0-5_金属
  6
CONTINUOUS
 62
    7
 10
827.10874036835662
 20
598.88321151662296
 40
1.9999990000000001
 50
303.11781999999999
 51
359.99995999999999
  0
ARC
  8
_0-5_金属
  6
CONTINUOUS
 62
    7
 10
827.10874036835662
 20
598.88321151662296
 40
3.1999998000000001
 50
303.11781999999999
 51
359.99995999999999
  0
ARC
  8
_0-5_金属
  6
CONTINUOUS
 62
    7
 10
894.60874036835662
 20
625.08316151662314
 40
3.1999969500000001
 50
144.05005000000003
 51
179.99995999999999
  0
ARC
  8
_0-5_金属
  6
CONTINUOUS
 62
    7
 10
894.60874036835662
 20
625.08316151662314
 40
1.9999961500000007
 50
144.05027000000001
 51
179.99995999999999
  0
ARC
  8
_0-5_金属
  6
CONTINUOUS
 62
    7
 10
894.20859036835736
 20
620.08316151662314
 40
2.0000114
 50
323.92410000000001
 51
359.99995999999999
  0
ARC
  8
_0-5_金属
  6
CONTINUOUS
 62
    7
 10
894.30869036835702
 20
620.08316151662314
 40
3.1000213500000005
 50
0.000035
 51
85.42326300000002
  0
ARC
  8
_0-5_金属
  6
CONTINUOUS
 62
    7
 10
894.50864036835696
 20
625.08316151662314
 40
3.0999907999999996
 50
180.00009000000003
 51
265.41831999999999
  0
ARC
  8
_0-5_金属
  6
CONTINUOUS
 62
    7
 10
894.20859036835736
 20
620.08316151662314
 40
3.2000122000000002
 50
324.21611000000001
 51
359.99995999999999
  0
ARC
  8
_0-5_金属
  6
CONTINUOUS
 62
    7
 10
894.50864036835696
 20
625.08316151662314
 40
1.8999938500000002
 50
180.00009000000003
 51
265.42237
  0
ARC
  8
_0-5_金属
  6
CONTINUOUS
 62
    7
 10
894.30869036835702
 20
620.08316151662314
 40
1.9000091499999998
 50
0.000035
 51
85.418946000000005
  0
ARC
  8
_0-5_金属
  6
CONTINUOUS
 62
    7
 10
874.27304036835721
 20
592.08341151662296
 40
1.7999992
 50
269.99990000000003
 51
324.21600000000001
  0
ARC
  8
_0-5_金属
  6
CONTINUOUS
 62
    7
 10
874.27304036835721
 20
592.08341151662296
 40
2.9999989999999999
 50
269.99990000000003
 51
324.21600000000001
  0
ARC
  8
_0-5_金属
  6
CONTINUOUS
 62
    7
 10
902.33874036835687
 20
636.08316151662336
 40
1.7999992
 50
90.000364000000005
 51
144.05026999999998
  0
ARC
  8
_0-5_金属
  6
CONTINUOUS
 62
    7
 10
902.33874036835687
 20
636.08316151662336
 40
3.0000000000000004
 50
90.000200000000021
 51
144.05016000000001
  0
ARC
  8
_0-5_金属
  6
CONTINUOUS
 62
    7
 10
799.50889036835747
 20
598.88321151662296
 40
3.1999998000000001
 50
89.999927
 51
179.99990000000003
  0
ARC
  8
_0-5_金属
  6
CONTINUOUS
 62
    7
 10
799.50889036835747
 20
598.88321151662296
 40
1.9999990000000001
 50
89.999927
 51
179.99990000000003
  0
ARC
  8
_0-5_金属
  6
CONTINUOUS
 62
    7
 10
800.70934036835638
 20
597.68326151662279
 40
3.2001952999999999
 50
180.00009000000003
 51
216.22260000000003
  0
ARC
  8
_0-5_金属
  6
CONTINUOUS
 62
    7
 10
800.70934036835638
 20
597.68326151662279
 40
4.4001951000000004
 50
180.00009000000003
 51
216.22041000000002
  0
ARC
  8
_0-5_金属
  6
CONTINUOUS
 62
    7
 10
963.30869036835679
 20
629.08291151662354
 40
2.9999989999999999
 50
224.88328000000001
 51
315.11669999999998
  0
ARC
  8
_0-5_金属
  6
CONTINUOUS
 62
    7
 10
963.30869036835679
 20
629.08291151662354
 40
1.79999825
 50
224.57187999999999
 51
315.11669999999998
  0
ARC
  8
_0-5_金属
  6
CONTINUOUS
 62
    7
 10
949.56259036835604
 20
636.08316151662336
 40
1.7999992
 50
44.880642999999999
 51
89.996648000000008
  0
ARC
  8
_0-5_金属
  6
CONTINUOUS
 62
    7
 10
949.56259036835604
 20
636.08316151662336
 40
3.0000000000000004
 50
44.881701999999997
 51
89.998013999999998
  0
ARC
  8
_0-5_金属
  6
CONTINUOUS
 62
    7
 10
977.05504036835691
 20
636.08316151662336
 40
3.0000000000000004
 50
89.997741000000005
 51
135.11528999999999
  0
ARC
  8
_0-5_金属
  6
CONTINUOUS
 62
    7
 10
977.05529036835628
 20
636.08316151662336
 40
1.7999992
 50
89.999435000000005
 51
135.11660000000001
  0
LINE
  8
ADD_LINE
  6
DOT
 62
    4
 10
813.30799036835742
 20
620.79521151662277
 11
813.30799036835742
 21
544.69600288001914
  0
LINE
  8
ADD_LINE
  6
DOT
 62
    4
 10
963.30829036835667
 20
655.17671151662341
 11
963.30829036835667
 21
544.69600288001914
  0
LINE
  8
_0-5_金属
  6
CONTINUOUS
 62
    7
 10
1040.8351153683566
 20
602.92015233257928
 11
1029.8126903683567
 21
618.21221151662314
  0
LINE
  8
_0-5_金属
  6
CONTINUOUS
 62
    7
 10
1040.8351153683566
 20
604.97238651662371
 11
1030.7861403683569
 21
618.91391151662276
  0
LINE
  8
_0-5_金属
  6
CONTINUOUS
 62
    7
 10
1059.3212153683567
 20
626.96201151662251
 11
1067.2133653683568
 21
637.84461151662242
  0
LINE
  8
_0-5_金属
  6
CONTINUOUS
 62
    7
 10
1061.660315368357
 20
623.18931151662298
 11
1061.8591653683575
 21
623.17341151662333
  0
LINE
  8
_0-5_金属
  6
CONTINUOUS
 62
    7
 10
1061.5642153683564
 20
621.99316151662345
 11
1061.7637653683573
 21
621.97716151662291
  0
LINE
  8
_0-5_金属
  6
CONTINUOUS
 62
    7
 10
1060.2926153683563
 20
626.25751151662314
 11
1068.1846153683568
 21
637.13996151662343
  0
LINE
  8
_0-5_金属
  6
CONTINUOUS
 62
    7
 10
1069.6421153683571
 20
639.08316151662291
 11
1116.870615368357
 21
639.08291151662354
  0
LINE
  8
_0-5_金属
  6
CONTINUOUS
 62
    7
 10
1069.6421153683571
 20
637.88321151662274
 11
1116.9188653683568
 21
637.88321151662274
  0
ARC
  8
_0-5_金属
  6
CONTINUOUS
 62
    7
 10
1061.9116653683568
 20
625.08316151662314
 40
3.1999969500000001
 50
144.05005000000003
 51
179.99995999999999
  0
ARC
  8
_0-5_金属
  6
CONTINUOUS
 62
    7
 10
1061.9116653683568
 20
625.08316151662314
 40
1.9999961500000007
 50
144.05027000000001
 51
179.99995999999999
  0
ARC
  8
_0-5_金属
  6
CONTINUOUS
 62
    7
 10
1061.5117653683569
 20
620.0834115166225
 40
2.0000114
 50
323.92412999999999
 51
359.99997999999999
  0
ARC
  8
_0-5_金属
  6
CONTINUOUS
 62
    7
 10
1061.6116153683561
 20
620.08316151662314
 40
3.1000213500000005
 50
359.99999000000003
 51
85.42326300000002
  0
ARC
  8
_0-5_金属
  6
CONTINUOUS
 62
    7
 10
1061.8117653683566
 20
625.08316151662314
 40
3.0999907999999996
 50
180.00009000000003
 51
265.41831999999999
  0
ARC
  8
_0-5_金属
  6
CONTINUOUS
 62
    7
 10
1061.5117653683569
 20
620.0834115166225
 40
3.2000122000000002
 50
324.21614
 51
359.99997999999999
  0
ARC
  8
_0-5_金属
  6
CONTINUOUS
 62
    7
 10
1061.8117653683566
 20
625.08316151662314
 40
1.8999938500000002
 50
180.00009000000003
 51
265.42237
  0
ARC
  8
_0-5_金属
  6
CONTINUOUS
 62
    7
 10
1061.6116153683561
 20
620.08316151662314
 40
1.9000091499999998
 50
359.99999000000003
 51
85.418945999999991
  0
ARC
  8
_0-5_金属
  6
CONTINUOUS
 62
    7
 10
1069.6418653683565
 20
636.08316151662336
 40
1.7999992
 50
90.000364000000005
 51
144.05026999999998
  0
ARC
  8
_0-5_金属
  6
CONTINUOUS
 62
    7
 10
1069.6418653683565
 20
636.08316151662336
 40
3.0000000000000004
 50
90.000200000000021
 51
144.05016000000001
  0
ARC
  8
_0-5_金属
  6
CONTINUOUS
 62
    7
 10
1268.0115153683573
 20
597.68326151662279
 40
3.1999511500000004
 50
90.048575231417729
 51
259.48472999999996
  0
LINE
  8
_0-5_金属
  6
CONTINUOUS
 62
    7
 10
1113.6125202683627
 20
589.08316151662291
 11
1268.6113653683572
 21
589.08316151662291
  0
LINE
  8
_0-5_金属
  6
CONTINUOUS
 62
    7
 10
1194.0098653683572
 20
637.84436151662305
 11
1201.9020153683573
 21
626.96176151662314
  0
LINE
  8
_0-5_金属
  6
CONTINUOUS
 62
    7
 10
1217.2135653683574
 20
590.32926151662252
 11
1197.1156153683569
 21
618.21226151662302
  0
LINE
  8
_0-5_金属
  6
CONTINUOUS
 62
    7
 10
1199.3641653683574
 20
623.17346151662321
 11
1199.5632153683573
 21
623.18936151662285
  0
LINE
  8
_0-5_金属
  6
CONTINUOUS
 62
    7
 10
1199.459765368357
 20
621.97721151662279
 11
1199.6591153683573
 21
621.99316151662345
  0
LINE
  8
_0-5_金属
  6
CONTINUOUS
 62
    7
 10
1218.1869653683566
 20
591.03091151662341
 11
1198.0890653683571
 21
618.91391151662276
  0
LINE
  8
_0-5_金属
  6
CONTINUOUS
 62
    7
 10
1193.0384653683575
 20
637.13991151662356
 11
1200.9306153683565
 21
626.25726151662263
  0
LINE
  8
_0-5_金属
  6
CONTINUOUS
 62
    7
 10
1219.6473653683574
 20
590.28336151662245
 11
1268.6113653683572
 21
590.28336151662245
  0
LINE
  8
_0-5_金属
  6
CONTINUOUS
 62
    7
 10
1144.1865153683568
 20
639.08316151662291
 11
1191.5814653683572
 21
639.08316151662291
  0
LINE
  8
_0-5_金属
  6
CONTINUOUS
 62
    7
 10
1143.8758653683567
 20
637.88321151662274
 11
1191.5814653683572
 21
637.88321151662274
  0
LINE
  8
_0-5_金属
  6
CONTINUOUS
 62
    7
 10
1267.6463653683572
 20
595.71711151662328
 11
1269.1946653683567
 21
595.42981151662332
  0
LINE
  8
_0-5_金属
  6
CONTINUOUS
 62
    7
 10
1267.4274153683575
 20
594.53701151662301
 11
1268.975715368357
 21
594.24976151662293
  0
LINE
  8
_0-5_金属
  6
CONTINUOUS
 62
    7
 10
1268.0115153683573
 20
599.68326151662325
 11
1274.8115653683567
 21
599.68326151662325
  0
LINE
  8
_0-5_金属
  6
CONTINUOUS
 62
    7
 10
1142.2325153683562
 20
638.19961151662312
 11
1131.8875153683564
 21
627.812411516623
  0
LINE
  8
_0-5_金属
  6
CONTINUOUS
 62
    7
 10
1143.0827153683572
 20
637.35286151662251
 11
1132.7377653683573
 21
626.96566151662353
  0
LINE
  8
_0-5_金属
  6
CONTINUOUS
 62
    7
 10
1129.3367653683572
 20
627.81246151662288
 11
1118.991465368357
 21
638.20001151662325
  0
LINE
  8
_0-5_金属
  6
CONTINUOUS
 62
    7
 10
1128.4864153683566
 20
626.96551151662277
 11
1118.1410653683565
 21
637.35306151662314
  0
ARC
  8
_0-5_金属
  6
CONTINUOUS
 62
    7
 10
1199.311615368357
 20
625.08316151662314
 40
3.1999969500000001
 50
0.000035
 51
35.949935000000004
  0
ARC
  8
_0-5_金属
  6
CONTINUOUS
 62
    7
 10
1199.311615368357
 20
625.08316151662314
 40
1.9999961500000007
 50
0.000035
 51
35.949717000000007
  0
ARC
  8
_0-5_金属
  6
CONTINUOUS
 62
    7
 10
1199.7115153683569
 20
620.08316151662314
 40
2.0000114
 50
180.00009000000003
 51
216.07594000000003
  0
ARC
  8
_0-5_金属
  6
CONTINUOUS
 62
    7
 10
1199.6114653683571
 20
620.08316151662314
 40
3.1000213500000005
 50
94.576591000000008
 51
179.99990000000003
  0
ARC
  8
_0-5_金属
  6
CONTINUOUS
 62
    7
 10
1199.4115153683572
 20
625.08316151662314
 40
3.0999907999999996
 50
274.58181000000002
 51
359.99996000000004
  0
ARC
  8
_0-5_金属
  6
CONTINUOUS
 62
    7
 10
1199.7115153683569
 20
620.08316151662314
 40
3.2000122000000002
 50
180.00009000000003
 51
215.78394000000003
  0
ARC
  8
_0-5_金属
  6
CONTINUOUS
 62
    7
 10
1199.4115153683572
 20
625.08316151662314
 40
1.8999938500000002
 50
274.57776999999999
 51
359.99995999999999
  0
ARC
  8
_0-5_金属
  6
CONTINUOUS
 62
    7
 10
1199.6114653683571
 20
620.08316151662314
 40
1.9000091499999998
 50
94.580906999999996
 51
179.9999
  0
ARC
  8
_0-5_金属
  6
CONTINUOUS
 62
    7
 10
1219.6473153683576
 20
592.08316151662359
 40
1.7999992
 50
215.78405000000001
 51
270.00022999999999
  0
ARC
  8
_0-5_金属
  6
CONTINUOUS
 62
    7
 10
1219.6473153683576
 20
592.08316151662359
 40
2.9999989999999999
 50
215.78405000000001
 51
270.00022999999999
  0
ARC
  8
_0-5_金属
  6
CONTINUOUS
 62
    7
 10
1191.5814153683573
 20
636.08316151662336
 40
1.7999992
 50
35.949661999999996
 51
89.999489999999994
  0
ARC
  8
_0-5_金属
  6
CONTINUOUS
 62
    7
 10
1191.5814153683573
 20
636.08316151662336
 40
3.0000000000000004
 50
35.949770999999998
 51
89.999654000000007
  0
ARC
  8
_0-5_金属
  6
CONTINUOUS
 62
    7
 10
1268.6113653683572
 20
592.2833615166229
 40
3.1999998000000001
 50
359.99999000000003
 51
79.493674999999982
  0
ARC
  8
_0-5_金属
  6
CONTINUOUS
 62
    7
 10
1268.6113653683572
 20
592.2833615166229
 40
1.9999990000000001
 50
359.99999000000003
 51
79.498920999999982
  0
ARC
  8
_0-5_金属
  6
CONTINUOUS
 62
    7
 10
1268.0115153683573
 20
597.68326151662279
 40
1.9999504000000001
 50
89.999927
 51
259.48462000000001
  0
ARC
  8
_0-5_金属
  6
CONTINUOUS
 62
    7
 10
1268.6113653683572
 20
592.2833615166229
 40
1.9999990000000001
 50
270.00006999999994
 51
359.99997999999999
  0
ARC
  8
_0-5_金属
  6
CONTINUOUS
 62
    7
 10
1268.6113653683572
 20
592.2833615166229
 40
3.1999998000000001
 50
270.00006999999994
 51
359.99997999999999
  0
ARC
  8
_0-5_金属
  6
CONTINUOUS
 62
    7
 10
1130.6121153683569
 20
629.08271151662291
 40
2.9999989999999999
 50
224.88334
 51
315.11671000000001
  0
ARC
  8
_0-5_金属
  6
CONTINUOUS
 62
    7
 10
1130.6121153683569
 20
629.08271151662291
 40
1.79999825
 50
224.88334
 51
315.42811999999998
  0
ARC
  8
_0-5_金属
  6
CONTINUOUS
 62
    7
 10
1144.3582153683565
 20
636.08291151662286
 40
1.7999992
 50
90.003315000000001
 51
135.11932999999999
  0
ARC
  8
_0-5_金属
  6
CONTINUOUS
 62
    7
 10
1144.3582153683565
 20
636.08291151662286
 40
3.0000000000000004
 50
90.00194900000001
 51
135.11829000000003
  0
ARC
  8
_0-5_金属
  6
CONTINUOUS
 62
    7
 10
1116.8659653683562
 20
636.08291151662286
 40
3.0000000000000004
 50
44.884706999999999
 51
90.002222000000003
  0
ARC
  8
_0-5_金属
  6
CONTINUOUS
 62
    7
 10
1116.8657653683567
 20
636.08291151662286
 40
1.7999992
 50
44.883395999999991
 51
90.000528000000003
  0
LINE
  8
ADD_LINE
  6
DOT
 62
    4
 10
1130.6116653683569
 20
655.17671151662341
 11
1130.6116653683569
 21
544.69600288001914
  0
LINE
  8
_0-5_金属
  6
CONTINUOUS
 62
    7
 10
1274.8115653683567
 20
600.88321151662342
 11
1274.8115653683567
 21
599.68326151662325
  0
LINE
  8
_0-5_金属
  6
CONTINUOUS
 62
    7
 10
1268.0088024573831
 20
600.88321151662342
 11
1274.8115653683567
 21
600.88321151662342
  0
LINE
  8
_0-5_金属
  6
CONTINUOUS
 62
    7
 10
1064.1076653683569
 20
618.21206151662352
 11
1053.0851153683568
 21
602.91981829048325
  0
LINE
  8
_0-5_金属
  6
CONTINUOUS
 62
    7
 10
1063.1340653683571
 20
618.91386151662289
 11
1053.0851153683568
 21
604.97238651662371
  0
TEXT
  8
_0-a_文字
 62
    7
 10
1320.5009335150926
 20
561.58291151488754
 40
14.999999999999858
 41
1.0000000000000118
 50
0
  1
（別途工事）
  0
ARC
  8
_0-1_線色１__水色__
  6
CONTINUOUS
 62
    4
 10
1253.9541869292646
 20
737.28415890653025
 40
1.2083333333333581
 50
37.523513195350134
 51
322.47648679666082
  0
ARC
  8
_0-1_線色１__水色__
  6
CONTINUOUS
 62
    4
 10
1255.8708535958635
 20
735.81219876205466
 40
1.2083333333333177
 50
217.52351319811916
 51
142.47648679389312
  0
ARC
  8
_0-1_線色１__水色__
  6
CONTINUOUS
 62
    4
 10
1253.9541869294692
 20
740.22807919521313
 40
1.2083333333333581
 50
37.523513195350134
 51
322.47648679666082
  0
ARC
  8
_0-1_線色１__水色__
  6
CONTINUOUS
 62
    4
 10
1255.8708535960693
 20
738.75611905073754
 40
1.2083333333333177
 50
217.52351319811916
 51
142.47648679389312
  0
ARC
  8
_0-1_線色１__水色__
  6
CONTINUOUS
 62
    4
 10
1253.9541869292646
 20
710.78887630837983
 40
1.2083333333333581
 50
37.523513195350134
 51
322.47648679666082
  0
ARC
  8
_0-1_線色１__水色__
  6
CONTINUOUS
 62
    4
 10
1255.8708535958635
 20
709.31691616390424
 40
1.2083333333333177
 50
217.52351319811916
 51
142.47648679389312
  0
ARC
  8
_0-1_線色１__水色__
  6
CONTINUOUS
 62
    4
 10
1253.9541869294692
 20
713.7327965970627
 40
1.2083333333333581
 50
37.523513195350134
 51
322.47648679666082
  0
ARC
  8
_0-1_線色１__水色__
  6
CONTINUOUS
 62
    4
 10
1255.8708535960693
 20
712.26083645258825
 40
1.2083333333333177
 50
217.52351319811916
 51
142.47648679389312
  0
ARC
  8
_0-1_線色１__水色__
  6
CONTINUOUS
 62
    4
 10
1253.954186929675
 20
716.67671688574671
 40
1.2083333333333581
 50
37.523513195350134
 51
322.47648679666082
  0
ARC
  8
_0-1_線色１__水色__
  6
CONTINUOUS
 62
    4
 10
1255.8708535962739
 20
715.20475674127113
 40
1.2083333333333177
 50
217.52351319811916
 51
142.47648679389312
  0
ARC
  8
_0-1_線色１__水色__
  6
CONTINUOUS
 62
    4
 10
1253.9541869298796
 20
719.62063717442959
 40
1.2083333333333581
 50
37.523513195350134
 51
322.47648679666082
  0
ARC
  8
_0-1_線色１__水色__
  6
CONTINUOUS
 62
    4
 10
1255.8708535964797
 20
718.148677029954
 40
1.2083333333333177
 50
217.52351319811916
 51
142.47648679389312
  0
ARC
  8
_0-1_線色１__水色__
  6
CONTINUOUS
 62
    4
 10
1253.9541869300854
 20
722.5645574631136
 40
1.2083333333333581
 50
37.523513195350134
 51
322.47648679666082
  0
ARC
  8
_0-1_線色１__水色__
  6
CONTINUOUS
 62
    4
 10
1255.8708535966844
 20
721.09259731863801
 40
1.2083333333333177
 50
217.52351319811916
 51
142.47648679389312
  0
ARC
  8
_0-1_線色１__水色__
  6
CONTINUOUS
 62
    4
 10
1253.95418693029
 20
725.50847775179648
 40
1.2083333333333581
 50
37.523513195350134
 51
322.47648679666082
  0
ARC
  8
_0-1_線色１__水色__
  6
CONTINUOUS
 62
    4
 10
1255.8708535968901
 20
724.03651760732089
 40
1.2083333333333177
 50
217.52351319811916
 51
142.47648679389312
  0
ARC
  8
_0-1_線色１__水色__
  6
CONTINUOUS
 62
    4
 10
1253.9541869307004
 20
731.39631832916336
 40
1.2083333333333581
 50
37.523513195350134
 51
322.47648679666082
  0
ARC
  8
_0-1_線色１__水色__
  6
CONTINUOUS
 62
    4
 10
1253.9541869304958
 20
728.45239804047935
 40
1.2083333333333581
 50
37.523513195350134
 51
322.47648679666082
  0
ARC
  8
_0-1_線色１__水色__
  6
CONTINUOUS
 62
    4
 10
1255.8708535973005
 20
729.92435818468778
 40
1.2083333333333177
 50
217.52351319811916
 51
142.47648679389312
  0
ARC
  8
_0-1_線色１__水色__
  6
CONTINUOUS
 62
    4
 10
1255.8708535970948
 20
726.9804378960049
 40
1.2083333333333177
 50
217.52351319811916
 51
142.47648679389312
  0
ARC
  8
_0-1_線色１__水色__
  6
CONTINUOUS
 62
    4
 10
1255.8708535975052
 20
732.86827847337065
 40
1.2083333333333177
 50
217.52351319811916
 51
142.47648679389312
  0
ARC
  8
_0-1_線色１__水色__
  6
CONTINUOUS
 62
    4
 10
1253.9541869309062
 20
734.34023861784624
 40
1.2083333333333581
 50
37.523513195350134
 51
322.47648679666082
  0
ARC
  8
_0-1_線色１__水色__
  6
CONTINUOUS
 62
    4
 10
1253.9541869292646
 20
684.2935937102294
 40
1.2083333333333581
 50
37.523513195350134
 51
322.47648679666082
  0
ARC
  8
_0-1_線色１__水色__
  6
CONTINUOUS
 62
    4
 10
1255.8708535958635
 20
682.82163356575381
 40
1.2083333333333177
 50
217.52351319811916
 51
142.47648679389312
  0
ARC
  8
_0-1_線色１__水色__
  6
CONTINUOUS
 62
    4
 10
1253.9541869294692
 20
687.23751399891228
 40
1.2083333333333581
 50
37.523513195350134
 51
322.47648679666082
  0
ARC
  8
_0-1_線色１__水色__
  6
CONTINUOUS
 62
    4
 10
1255.8708535960693
 20
685.76555385443783
 40
1.2083333333333177
 50
217.52351319811916
 51
142.47648679389312
  0
ARC
  8
_0-1_線色１__水色__
  6
CONTINUOUS
 62
    4
 10
1253.954186929675
 20
690.18143428759629
 40
1.2083333333333581
 50
37.523513195350134
 51
322.47648679666082
  0
ARC
  8
_0-1_線色１__水色__
  6
CONTINUOUS
 62
    4
 10
1255.8708535962739
 20
688.7094741431207
 40
1.2083333333333177
 50
217.52351319811916
 51
142.47648679389312
  0
ARC
  8
_0-1_線色１__水色__
  6
CONTINUOUS
 62
    4
 10
1253.9541869298796
 20
693.12535457627916
 40
1.2083333333333581
 50
37.523513195350134
 51
322.47648679666082
  0
ARC
  8
_0-1_線色１__水色__
  6
CONTINUOUS
 62
    4
 10
1255.8708535964797
 20
691.65339443180358
 40
1.2083333333333177
 50
217.52351319811916
 51
142.47648679389312
  0
ARC
  8
_0-1_線色１__水色__
  6
CONTINUOUS
 62
    4
 10
1253.9541869300854
 20
696.06927486496318
 40
1.2083333333333581
 50
37.523513195350134
 51
322.47648679666082
  0
ARC
  8
_0-1_線色１__水色__
  6
CONTINUOUS
 62
    4
 10
1255.8708535966844
 20
694.59731472048759
 40
1.2083333333333177
 50
217.52351319811916
 51
142.47648679389312
  0
ARC
  8
_0-1_線色１__水色__
  6
CONTINUOUS
 62
    4
 10
1253.95418693029
 20
699.01319515364605
 40
1.2083333333333581
 50
37.523513195350134
 51
322.47648679666082
  0
ARC
  8
_0-1_線色１__水色__
  6
CONTINUOUS
 62
    4
 10
1255.8708535968901
 20
697.54123500917046
 40
1.2083333333333177
 50
217.52351319811916
 51
142.47648679389312
  0
ARC
  8
_0-1_線色１__水色__
  6
CONTINUOUS
 62
    4
 10
1253.9541869307004
 20
704.90103573101294
 40
1.2083333333333581
 50
37.523513195350134
 51
322.47648679666082
  0
ARC
  8
_0-1_線色１__水色__
  6
CONTINUOUS
 62
    4
 10
1253.9541869304958
 20
701.95711544232893
 40
1.2083333333333581
 50
37.523513195350134
 51
322.47648679666082
  0
ARC
  8
_0-1_線色１__水色__
  6
CONTINUOUS
 62
    4
 10
1255.8708535973005
 20
703.42907558653735
 40
1.2083333333333177
 50
217.52351319811916
 51
142.47648679389312
  0
ARC
  8
_0-1_線色１__水色__
  6
CONTINUOUS
 62
    4
 10
1255.8708535970948
 20
700.48515529785448
 40
1.2083333333333177
 50
217.52351319811916
 51
142.47648679389312
  0
ARC
  8
_0-1_線色１__水色__
  6
CONTINUOUS
 62
    4
 10
1255.8708535975052
 20
706.37299587522136
 40
1.2083333333333177
 50
217.52351319811916
 51
142.47648679389312
  0
ARC
  8
_0-1_線色１__水色__
  6
CONTINUOUS
 62
    4
 10
1253.9541869309062
 20
707.84495601969581
 40
1.2083333333333581
 50
37.523513195350134
 51
322.47648679666082
  0
ARC
  8
_0-1_線色１__水色__
  6
CONTINUOUS
 62
    4
 10
1253.954186929675
 20
681.34967342154653
 40
1.2083333333333581
 50
37.523513195350134
 51
322.47648679666082
  0
ARC
  8
_0-1_線色１__水色__
  6
CONTINUOUS
 62
    4
 10
1253.9541869284608
 20
752.00376034992303
 40
1.2083333333333581
 50
37.523513195350134
 51
322.47648679666082
  0
ARC
  8
_0-1_線色１__水色__
  6
CONTINUOUS
 62
    4
 10
1255.8708535950609
 20
750.53180020544744
 40
1.2083333333333177
 50
217.52351319811916
 51
142.47648679389312
  0
ARC
  8
_0-1_線色１__水色__
  6
CONTINUOUS
 62
    4
 10
1253.9541869286666
 20
754.94768063860704
 40
1.2083333333333581
 50
37.523513195350134
 51
322.47648679666082
  0
ARC
  8
_0-1_線色１__水色__
  6
CONTINUOUS
 62
    4
 10
1255.8708535952655
 20
753.47572049413145
 40
1.2083333333333177
 50
217.52351319811916
 51
142.47648679389312
  0
ARC
  8
_0-1_線色１__水色__
  6
CONTINUOUS
 62
    4
 10
1253.9541869298978
 20
746.11591977255614
 40
1.2083333333333581
 50
37.523513195350134
 51
322.47648679666082
  0
ARC
  8
_0-1_線色１__水色__
  6
CONTINUOUS
 62
    4
 10
1253.954186929692
 20
743.17199948387326
 40
1.2083333333333581
 50
37.523513195350134
 51
322.47648679666082
  0
ARC
  8
_0-1_線色１__水色__
  6
CONTINUOUS
 62
    4
 10
1255.8708535964968
 20
744.64395962808169
 40
1.2083333333333177
 50
217.52351319811916
 51
142.47648679389312
  0
ARC
  8
_0-1_線色１__水色__
  6
CONTINUOUS
 62
    4
 10
1255.8708535967025
 20
747.58787991676456
 40
1.2083333333333177
 50
217.52351319811916
 51
142.47648679389312
  0
ARC
  8
_0-1_線色１__水色__
  6
CONTINUOUS
 62
    4
 10
1253.9541869301024
 20
749.05984006124015
 40
1.2083333333333581
 50
37.523513195350134
 51
322.47648679666082
  0
ARC
  8
_0-1_線色１__水色__
  6
CONTINUOUS
 62
    4
 10
1255.8708535962921
 20
741.70003933939768
 40
1.2083333333333177
 50
217.52351319811916
 51
142.47648679389312
  0
ARC
  8
_0-1_線色１__水色__
  6
CONTINUOUS
 62
    4
 10
1253.9541869276582
 20
766.72336179331694
 40
1.2083333333333581
 50
37.523513195350134
 51
322.47648679666082
  0
ARC
  8
_0-1_線色１__水色__
  6
CONTINUOUS
 62
    4
 10
1255.8708535942583
 20
765.25140164884135
 40
1.2083333333333177
 50
217.52351319811916
 51
142.47648679389312
  0
ARC
  8
_0-1_線色１__水色__
  6
CONTINUOUS
 62
    4
 10
1253.9541869278639
 20
769.66728208200095
 40
1.2083333333333581
 50
37.523513195350134
 51
322.47648679666082
  0
ARC
  8
_0-1_線色１__水色__
  6
CONTINUOUS
 62
    4
 10
1255.8708535944629
 20
768.19532193752536
 40
1.2083333333333177
 50
217.52351319811916
 51
142.47648679389312
  0
ARC
  8
_0-1_線色１__水色__
  6
CONTINUOUS
 62
    4
 10
1253.9541869290952
 20
760.83552121595005
 40
1.2083333333333581
 50
37.523513195350134
 51
322.47648679666082
  0
ARC
  8
_0-1_線色１__水色__
  6
CONTINUOUS
 62
    4
 10
1253.9541869288894
 20
757.89160092726718
 40
1.2083333333333581
 50
37.523513195350134
 51
322.47648679666082
  0
ARC
  8
_0-1_線色１__水色__
  6
CONTINUOUS
 62
    4
 10
1255.8708535956941
 20
759.36356107147446
 40
1.2083333333333177
 50
217.52351319811916
 51
142.47648679389312
  0
ARC
  8
_0-1_線色１__水色__
  6
CONTINUOUS
 62
    4
 10
1255.8708535958999
 20
762.30748136015848
 40
1.2083333333333177
 50
217.52351319811916
 51
142.47648679389312
  0
ARC
  8
_0-1_線色１__水色__
  6
CONTINUOUS
 62
    4
 10
1253.9541869292998
 20
763.77944150463406
 40
1.2083333333333581
 50
37.523513195350134
 51
322.47648679666082
  0
ARC
  8
_0-1_線色１__水色__
  6
CONTINUOUS
 62
    4
 10
1255.8708535954895
 20
756.41964078279159
 40
1.2083333333333177
 50
217.52351319811916
 51
142.47648679389312
  0
ARC
  8
_0-1_線色１__水色__
  6
CONTINUOUS
 62
    4
 10
1253.9541869280686
 20
772.61120237068383
 40
1.2083333333333581
 50
37.523513195350134
 51
322.47648679666082
  0
ARC
  8
_0-1_線色１__水色__
  6
CONTINUOUS
 62
    4
 10
1255.8708535946687
 20
771.13924222620824
 40
1.2083333333333177
 50
217.52351319811916
 51
142.47648679389312
  0
ARC
  8
_0-1_線色１__水色__
  6
CONTINUOUS
 62
    4
 10
1255.8708535948745
 20
774.08316251489225
 40
1.2083333333333177
 50
217.52351319811916
 51
0
  0
ARC
  8
_0-1_線色１__水色__
  6
CONTINUOUS
 62
    4
 10
1255.8708535958635
 20
679.87771327707094
 40
1.2083333333333177
 50
318.8702716445635
 51
142.476486793893
  0
LINE
  8
_0-5_金属
  6
CONTINUOUS
 62
    7
 10
882.30914526836273
 20
580.08316151662427
 11
946.30914526836364
 21
580.08316151662427
  0
LINE
  8
_0-5_金属
  6
CONTINUOUS
 62
    7
 10
796.30914526836364
 20
580.08316151662427
 11
860.30914526836341
 21
580.08316151662427
  0
ARC
  8
_0-5_金属
  6
CONTINUOUS
 62
    7
 10
860.30914526836341
 20
572.08316151662359
 40
8
 50
0
 51
90
  0
ARC
  8
_0-5_金属
  6
CONTINUOUS
 62
    7
 10
882.30914526836273
 20
572.08316151662359
 40
8
 50
90
 51
180
  0
LINE
  8
_0-5_金属
  6
CONTINUOUS
 62
    7
 10
868.30914526836295
 20
572.08316151662359
 11
868.30914526836295
 21
514.78403175188248
  0
LINE
  8
_0-5_金属
  6
CONTINUOUS
 62
    7
 10
874.30914526836318
 20
514.78403175188248
 11
874.30914526836318
 21
572.08316151662359
  0
LINE
  8
_0-5_金属
  6
CONTINUOUS
 62
    7
 10
946.30914526836364
 20
580.08316151662427
 11
946.30914526836364
 21
589.08316151662291
  0
LINE
  8
_0-5_金属
  6
CONTINUOUS
 62
    7
 10
1199.6125202683618
 20
580.08316151662427
 11
1263.6125202683627
 21
580.08316151662427
  0
LINE
  8
_0-5_金属
  6
CONTINUOUS
 62
    7
 10
1113.6125202683627
 20
580.08316151662427
 11
1177.6125202683625
 21
580.08316151662427
  0
ARC
  8
_0-5_金属
  6
CONTINUOUS
 62
    7
 10
1177.6125202683625
 20
572.08316151662359
 40
8
 50
0
 51
90
  0
ARC
  8
_0-5_金属
  6
CONTINUOUS
 62
    7
 10
1199.6125202683618
 20
572.08316151662359
 40
8
 50
90
 51
180
  0
LINE
  8
_0-5_金属
  6
CONTINUOUS
 62
    7
 10
1185.612520268362
 20
572.08316151662359
 11
1185.612520268362
 21
514.78403175188248
  0
LINE
  8
_0-5_金属
  6
CONTINUOUS
 62
    7
 10
1191.6125202683622
 20
514.78403175188248
 11
1191.6125202683622
 21
572.08316151662359
  0
LINE
  8
_0-5_金属
  6
CONTINUOUS
 62
    7
 10
1263.6125202683627
 20
580.08316151662427
 11
1263.6125202683627
 21
589.08316151662291
  0
LINE
  8
_0-5_金属
  6
CONTINUOUS
 62
    7
 10
1113.6125202683627
 20
580.08316151662427
 11
1113.6125202683627
 21
589.08316151662291
  0
LINE
  8
_0-5_金属
  6
CONTINUOUS
 62
    7
 10
1379.6125202683618
 20
680.08316251489362
 11
1443.6125202683627
 21
680.08316251489362
  0
LINE
  8
_0-5_金属
  6
CONTINUOUS
 62
    7
 10
1293.6125202683627
 20
680.08316251489362
 11
1357.6125202683625
 21
680.08316251489362
  0
ARC
  8
_0-5_金属
  6
CONTINUOUS
 62
    7
 10
1357.6125202683625
 20
672.08316251489293
 40
8
 50
0
 51
90
  0
ARC
  8
_0-5_金属
  6
CONTINUOUS
 62
    7
 10
1379.6125202683618
 20
672.08316251489293
 40
8
 50
90
 51
180
  0
LINE
  8
_0-5_金属
  6
CONTINUOUS
 62
    7
 10
1443.6125202683627
 20
680.08316251489362
 11
1443.6125202683627
 21
689.08316251489225
  0
LINE
  8
_0-5_金属
  6
CONTINUOUS
 62
    7
 10
1293.6125202683627
 20
689.08316251489225
 11
1443.6125202683627
 21
689.08316251489225
  0
LINE
  8
_0-5_金属
  6
CONTINUOUS
 62
    7
 10
1293.6125202683627
 20
680.08316251489362
 11
1293.6125202683627
 21
689.08316251489225
  0
LINE
  8
_0-5_金属
  6
CONTINUOUS
 62
    7
 10
1365.612520268362
 20
672.08316251489293
 11
1365.612520268362
 21
514.78403175188248
  0
LINE
  8
_0-5_金属
  6
CONTINUOUS
 62
    7
 10
1371.6125202683622
 20
514.78403175188248
 11
1371.6125202683622
 21
672.08316251489293
  0
LINE
  8
_0-5_金属
  6
CONTINUOUS
 62
    7
 10
1443.6125202683627
 20
689.08316251722397
 11
1497.8818876519745
 21
689.08316251722397
  0
LINE
  8
_0-5_金属
  6
DASHED1
 62
    7
 10
1293.6125202683627
 20
726.08316251489271
 11
1497.8818876519745
 21
726.08316251489271
  0
LINE
  8
_0-a_文字
  6
CONTINUOUS
 62
    7
 10
999.10400765186409
 20
564.08291151488754
 11
1019.1040076518641
 21
564.08291151488754
  0
LINE
  8
_0-a_文字
  6
CONTINUOUS
 62
    7
 10
963.30829036835667
 20
626.08291254329004
 11
999.10400765186409
 21
564.08291151488754
  0
TEXT
  8
_0-a_文字
 62
    7
 10
1024.104007651863
 20
536.58291151488754
 40
14.999999999999858
 41
1.0000000000000091
 50
0
  1
（別途工事）
  0
TEXT
  8
_0-a_文字
 62
    7
 10
1024.104007651863
 20
556.58291151488754
 40
14.999999999999858
 41
1.0000000000000069
 50
0
  1
耐火デッキプレート t=1.2以上
  0
LINE
  8
_0-a_文字
  6
CONTINUOUS
 62
    7
 10
862.04993425098337
 20
639.08333571997389
 11
931.33221146865708
 21
519.08291151488754
  0
LINE
  8
_0-a_文字
  6
CONTINUOUS
 62
    7
 10
931.33221146865708
 20
519.08291151488754
 11
951.33221146865708
 21
519.08291151488754
  0
TEXT
  8
_0-a_文字
 62
    7
 10
956.33221146865708
 20
491.58291151488754
 40
14.999999999999858
 41
1.000000000000006
 50
0
  1
（別途工事）
  0
TEXT
  8
_0-a_文字
 62
    7
 10
956.33221146865708
 20
511.58291151488754
 40
14.999999999999858
 41
1.0000000000000078
 50
0
  1
亜鉛めっき鋼板 t=1.2以上
  0
TEXT
  8
_0-a_文字
 62
    7
 10
1320.500933515093
 20
581.58291151488697
 40
15.000000000000124
 41
0.9999999999999912
 50
0
  1
亜鉛めっき鋼板 t=1.2以上
  0
LINE
  8
_0-a_文字
  6
CONTINUOUS
 62
    7
 10
911.37215858186892
 20
809.08291251315688
 11
931.37215858186892
 21
809.08291251315688
  0
TEXT
  8
_0-a_文字
 62
    7
 10
936.37215858187005
 20
801.58291251315688
 40
14.999999999999947
 41
1.0000000000000033
 50
0
  1
ＢＰ－Ｈ１５
  0
LINE
  8
_0-a_文字
  6
CONTINUOUS
 62
    7
 10
838.30914526836295
 20
682.53406130008045
 11
911.37215858186892
 21
809.08291251315688
  0
TEXT
  8
_f-0_
 62
    7
 10
405.30228976001922
 20
1163.75
 40
17.5
 41
1
 50
0
  1
側溝 立上り接着工法
  0
LINE
  8
_0-3_線色３__緑__
  6
CONTINUOUS
 62
    3
 10
661.30914526836136
 20
514.78378075187891
 11
661.30914526836136
 21
939.08291251082517
  0
LINE
  8
_0-4_線色４__黄__
  6
CONTINUOUS
 62
    2
 10
819.30914526836546
 20
695.53406130008227
 11
819.30914526836546
 21
939.08291251082517
  0
LINE
  8
_0-2_線色２__白__
  6
CONTINUOUS
 62
    7
 10
814.30914526836318
 20
640.28291251315693
 11
814.30914526836318
 21
939.08291251082517
  0
LINE
  8
_0-5_金属
  6
CONTINUOUS
 62
    7
 10
796.30914526836364
 20
514.78403175188248
 11
796.30914526836364
 21
939.08291251082517
  0
LINE
  8
_0-5_金属
  6
CONTINUOUS
 62
    7
 10
776.30914526836136
 20
939.08291251082517
 11
776.30914526836136
 21
739.08291151488868
  0
LINE
  8
_0-5_金属
  6
CONTINUOUS
 62
    7
 10
716.30914526836136
 20
939.08291251082517
 11
716.30914526836136
 21
739.08291151488868
  0
LINE
  8
_0-d_断熱__ハッチ
  6
CONTINUOUS
 62
    4
 10
670.05914526836136
 20
939.08291251082517
 11
670.05914526836136
 21
514.78378075187891
  0
LINE
  8
_0-5_金属
  6
CONTINUOUS
 62
    7
 10
696.30914526836136
 20
514.78378075187891
 11
696.30914526836136
 21
939.08291251082517
  0
LINE
  8
_0-d_断熱__ハッチ
  6
CONTINUOUS
 62
    4
 10
687.55914526836136
 20
939.08291251082517
 11
687.55914526836136
 21
514.78378075187891
  0
LINE
  8
_0-d_断熱__ハッチ
  6
CONTINUOUS
 62
    4
 10
678.80914526836136
 20
939.08291251082517
 11
678.80914526836136
 21
514.78378075187891
  0
LINE
  8
_0-d_断熱__ハッチ
  6
CONTINUOUS
 62
    4
 10
796.3091452683625
 20
924.0711687513857
 11
811.32088902780197
 21
939.08291251082517
  0
LINE
  8
_0-d_断熱__ハッチ
  6
CONTINUOUS
 62
    4
 10
796.3091452683625
 20
934.67777046917774
 11
800.71428731000992
 21
939.08291251082517
  0
LINE
  8
_0-2_線色２__白__
  6
CONTINUOUS
 62
    7
 10
1329.87885781263
 20
779.94780317840252
 11
1330.8938707654443
 21
779.08316251489225
  0
LINE
  8
_0-4_線色４__黄__
  6
CONTINUOUS
 62
    2
 10
1328.6834560377361
 20
787.53431130181809
 11
1332.7348046136933
 21
784.08316251489225
  0
LINE
  8
_0-4_線色４__黄__
  6
CONTINUOUS
 62
    2
 10
1247.6962408104885
 20
787.53431130181809
 11
1328.6834560377361
 21
787.53431130181809
  0
LINE
  8
_0-4_線色４__黄__
  6
CONTINUOUS
 62
    2
 10
1332.7348046136933
 20
784.08316251489225
 11
1497.8818876519745
 21
784.08316251489225
  0
LINE
  8
ADD_LINE
  6
DOT
 62
    4
 10
1305.8788578126291
 20
699.41494663986703
 11
1305.8788578126291
 21
789.03166638248479
  0
LINE
  8
_0-7_ビス
  6
CONTINUOUS
 62
    7
 10
1311.8788578126293
 20
782.14969591720262
 11
1311.8788578126293
 21
782.53431130181809
  0
LINE
  8
_0-7_ビス
  6
DASHED3
 62
    7
 10
1307.3463259288849
 20
779.98494177099076
 11
1308.4288736487781
 21
782.53431130181809
  0
LINE
  8
_0-7_ビス
  6
CONTINUOUS
 62
    7
 10
1299.87885781263
 20
782.14969591720262
 11
1299.87885781263
 21
782.53431130181809
  0
LINE
  8
_0-7_ビス
  6
DASHED3
 62
    7
 10
1304.4113896963745
 20
779.98494177099076
 11
1303.3288419764813
 21
782.53431130181809
  0
LINE
  8
_0-7_ビス
  6
CONTINUOUS
 62
    7
 10
1311.8788578126293
 20
782.14969591720262
 11
1299.87885781263
 21
782.14969591720262
  0
LINE
  8
_0-7_ビス
  6
CONTINUOUS
 62
    7
 10
1311.8788578126293
 20
782.53431130181809
 11
1299.87885781263
 21
782.53431130181809
  0
ARC
  8
_0-7_ビス
  6
DASHED3
 62
    7
 10
1305.8788578126291
 20
781.09548486925803
 40
1.8403175392666382
 50
217.11750793457031
 51
322.88247680664062
  0
LINE
  8
_0-7_ビス
  6
CONTINUOUS
 62
    7
 10
1309.9646442502558
 20
780.23548235482906
 11
1311.8788578126293
 21
782.14969591720262
  0
ARC
  8
_0-7_ビス
  6
CONTINUOUS
 62
    7
 10
1311.3788578126287
 20
778.82126879245618
 40
2
 50
135.00000000000153
 51
180.00000000000003
  0
LINE
  8
_0-7_ビス
  6
CONTINUOUS
 62
    7
 10
1301.7930713750025
 20
780.23548235482906
 11
1299.8788578126289
 21
782.14969591720262
  0
ARC
  8
_0-7_ビス
  6
CONTINUOUS
 62
    7
 10
1300.3788578126296
 20
778.82126879245618
 40
2
 50
0
 51
44.999999999998501
  0
LINE
  8
_0-7_ビス
  6
CONTINUOUS
 62
    7
 10
1309.3788578126293
 20
778.53431130181832
 11
1302.3788578126289
 21
778.53431130181832
  0
LINE
  8
_0-7_ビス
  6
CONTINUOUS
 62
    7
 10
1302.3788578126289
 20
709.5550372439817
 11
1305.8788578126291
 21
707.53431130181809
  0
LINE
  8
_0-7_ビス
  6
CONTINUOUS
 62
    7
 10
1302.3788578126289
 20
778.82126879245618
 11
1302.3788578126289
 21
709.5550372439817
  0
LINE
  8
_0-7_ビス
  6
CONTINUOUS
 62
    7
 10
1309.3788578126293
 20
713.03431130181878
 11
1302.3788578126289
 21
713.03431130181878
  0
LINE
  8
_0-7_ビス
  6
CONTINUOUS
 62
    7
 10
1309.3788578126293
 20
709.5550372439817
 11
1305.8788578126291
 21
707.53431130181809
  0
LINE
  8
_0-7_ビス
  6
CONTINUOUS
 62
    7
 10
1309.3788578126293
 20
778.82126879245618
 11
1309.3788578126293
 21
709.5550372439817
  0
LINE
  8
_0-7_ビス
  6
CONTINUOUS
 62
    7
 10
1309.3788578126293
 20
767.53431130181809
 11
1302.3788578126289
 21
767.53431130181809
  0
LINE
  8
_0-7_ビス
  6
CONTINUOUS
 62
    4
 10
1302.3788578126289
 20
766.33450794242492
 11
1306.8564382545696
 21
767.53431130181809
  0
LINE
  8
_0-7_ビス
  6
CONTINUOUS
 62
    4
 10
1302.3788578126289
 20
754.02828741304745
 11
1309.3788578126293
 21
755.90399319313576
  0
LINE
  8
_0-7_ビス
  6
CONTINUOUS
 62
    4
 10
1302.3788578126289
 20
756.02828741304791
 11
1309.3788578126293
 21
757.90399319313622
  0
LINE
  8
_0-7_ビス
  6
CONTINUOUS
 62
    4
 10
1302.3788578126289
 20
758.02828741304722
 11
1309.3788578126293
 21
759.90399319313553
  0
LINE
  8
_0-7_ビス
  6
CONTINUOUS
 62
    4
 10
1302.3788578126289
 20
760.02828741304768
 11
1309.3788578126293
 21
761.90399319313599
  0
LINE
  8
_0-7_ビス
  6
CONTINUOUS
 62
    4
 10
1302.3788578126289
 20
762.028287413047
 11
1309.3788578126293
 21
763.90399319313644
  0
LINE
  8
_0-7_ビス
  6
CONTINUOUS
 62
    4
 10
1302.3788578126289
 20
764.02828741304745
 11
1309.3788578126293
 21
765.9039931931369
  0
LINE
  8
_0-7_ビス
  6
CONTINUOUS
 62
    4
 10
1302.3788578126289
 20
741.72206688367112
 11
1309.3788578126293
 21
743.59777266375943
  0
LINE
  8
_0-7_ビス
  6
CONTINUOUS
 62
    4
 10
1302.3788578126289
 20
743.72206688367044
 11
1309.3788578126293
 21
745.59777266375875
  0
LINE
  8
_0-7_ビス
  6
CONTINUOUS
 62
    4
 10
1302.3788578126289
 20
745.72206688367089
 11
1309.3788578126293
 21
747.5977726637592
  0
LINE
  8
_0-7_ビス
  6
CONTINUOUS
 62
    4
 10
1302.3788578126289
 20
747.72206688367021
 11
1309.3788578126293
 21
749.59777266375966
  0
LINE
  8
_0-7_ビス
  6
CONTINUOUS
 62
    4
 10
1302.3788578126289
 20
749.72206688367066
 11
1309.3788578126293
 21
751.59777266375897
  0
LINE
  8
_0-7_ビス
  6
CONTINUOUS
 62
    4
 10
1302.3788578126289
 20
751.72206688367112
 11
1309.3788578126293
 21
753.59777266375943
  0
LINE
  8
_0-7_ビス
  6
CONTINUOUS
 62
    4
 10
1302.3788578126289
 20
729.41584635429365
 11
1309.3788578126293
 21
731.29155213438196
  0
LINE
  8
_0-7_ビス
  6
CONTINUOUS
 62
    4
 10
1302.3788578126289
 20
731.4158463542941
 11
1309.3788578126293
 21
733.29155213438241
  0
LINE
  8
_0-7_ビス
  6
CONTINUOUS
 62
    4
 10
1302.3788578126289
 20
733.41584635429342
 11
1309.3788578126293
 21
735.29155213438173
  0
LINE
  8
_0-7_ビス
  6
CONTINUOUS
 62
    4
 10
1302.3788578126289
 20
735.41584635429388
 11
1309.3788578126293
 21
737.29155213438219
  0
LINE
  8
_0-7_ビス
  6
CONTINUOUS
 62
    4
 10
1302.3788578126289
 20
737.41584635429319
 11
1309.3788578126293
 21
739.29155213438264
  0
LINE
  8
_0-7_ビス
  6
CONTINUOUS
 62
    4
 10
1302.3788578126289
 20
739.41584635429365
 11
1309.3788578126293
 21
741.2915521343831
  0
LINE
  8
_0-7_ビス
  6
CONTINUOUS
 62
    4
 10
1302.3788578126289
 20
717.10962582491732
 11
1309.3788578126293
 21
718.98533160500563
  0
LINE
  8
_0-7_ビス
  6
CONTINUOUS
 62
    4
 10
1302.3788578126289
 20
719.10962582491663
 11
1309.3788578126293
 21
720.98533160500494
  0
LINE
  8
_0-7_ビス
  6
CONTINUOUS
 62
    4
 10
1302.3788578126289
 20
721.10962582491709
 11
1309.3788578126293
 21
722.9853316050054
  0
LINE
  8
_0-7_ビス
  6
CONTINUOUS
 62
    4
 10
1302.3788578126289
 20
723.10962582491641
 11
1309.3788578126293
 21
724.98533160500585
  0
LINE
  8
_0-7_ビス
  6
CONTINUOUS
 62
    4
 10
1302.3788578126289
 20
725.10962582491686
 11
1309.3788578126293
 21
726.98533160500517
  0
LINE
  8
_0-7_ビス
  6
CONTINUOUS
 62
    4
 10
1302.3788578126289
 20
727.10962582491732
 11
1309.3788578126293
 21
728.98533160500563
  0
LINE
  8
_0-7_ビス
  6
CONTINUOUS
 62
    4
 10
1302.3788578126289
 20
714.80340529553985
 11
1309.3788578126293
 21
716.67911107562929
  0
LINE
  8
_0-7_ビス
  6
CONTINUOUS
 62
    4
 10
1303.2405825357216
 20
713.03431130181878
 11
1309.3788578126293
 21
714.67911107562884
  0
LINE
  8
_0-d_断熱__ハッチ
  6
CONTINUOUS
 62
    4
 10
1074.627534338299
 20
674.08291251315688
 11
1108.4272843365636
 21
640.2831625148923
  0
LINE
  8
_0-d_断熱__ハッチ
  6
CONTINUOUS
 62
    4
 10
1187.8081150650087
 20
640.2831625148923
 11
1221.6078650632733
 21
674.08291251315575
  0
LINE
  8
_0-d_断熱__ハッチ
  6
CONTINUOUS
 62
    4
 10
1159.5238438175522
 20
640.2831625148923
 11
1193.3235938158168
 21
674.08291251315688
  0
LINE
  8
_0-d_断熱__ハッチ
  6
CONTINUOUS
 62
    4
 10
1131.2395725700856
 20
640.2831625148923
 11
1165.039322568349
 21
674.08291251315688
  0
LINE
  8
_0-d_断熱__ハッチ
  6
CONTINUOUS
 62
    4
 10
1102.955301322628
 20
640.2831625148923
 11
1136.7550513208926
 21
674.08291251315688
  0
LINE
  8
_0-d_断熱__ハッチ
  6
CONTINUOUS
 62
    4
 10
1102.9118055857668
 20
674.08291251315688
 11
1136.7115555840303
 21
640.2831625148923
  0
LINE
  8
_0-d_断熱__ハッチ
  6
CONTINUOUS
 62
    4
 10
1131.1960768332233
 20
674.08291251315688
 11
1164.995826831489
 21
640.2831625148923
  0
LINE
  8
_0-d_断熱__ハッチ
  6
CONTINUOUS
 62
    4
 10
1159.4803480806911
 20
674.08291251315688
 11
1193.2800980789546
 21
640.2831625148923
  0
LINE
  8
_0-6_鋼板__アングル
  6
CONTINUOUS
 62
    2
 10
797.50914526836368
 20
640.28291251315693
 11
797.50914526836368
 21
740.28291251315693
  0
LINE
  8
_0-6_鋼板__アングル
  6
CONTINUOUS
 62
    2
 10
796.3091452683625
 20
740.28291251315693
 11
797.50914526836368
 21
740.28291251315693
  0
LINE
  8
_0-6_鋼板__アングル
  6
CONTINUOUS
 62
    2
 10
796.3091452683625
 20
639.08291251315688
 11
796.3091452683625
 21
740.28291251315693
  0
LINE
  8
ADD_LINE
  6
DOT
 62
    4
 10
838.30914526836409
 20
694.08685000093158
 11
838.30914526836409
 21
659.90249381086812
  0
LINE
  8
_0-6_鋼板__アングル
  6
CONTINUOUS
 62
    2
 10
845.30620154323401
 20
681.33406130007131
 11
858.27870536717114
 21
681.33406130007131
  0
LINE
  8
_0-6_鋼板__アングル
  6
CONTINUOUS
 62
    2
 10
845.62543794041062
 20
682.53406130008273
 11
858.27870536717114
 21
682.53406130008273
  0
LINE
  8
_0-6_鋼板__アングル
  6
CONTINUOUS
 62
    2
 10
862.309145268365
 20
679.94755317666716
 11
861.53098552164352
 21
679.0340613000825
  0
LINE
  8
_0-6_鋼板__アングル
  6
CONTINUOUS
 62
    2
 10
860.0295647972905
 20
681.8894180223964
 11
862.309145268365
 21
679.94755317666716
  0
ARC
  8
_0-6_鋼板__アングル
  6
CONTINUOUS
 62
    2
 10
858.27870536717114
 20
679.83406130008291
 40
1.5000000000000002
 50
49.573921259901446
 51
90
  0
ARC
  8
_0-6_鋼板__アングル
  6
CONTINUOUS
 62
    2
 10
858.27870536717114
 20
679.83406130008291
 40
2.7000000000000002
 50
49.573921259901446
 51
90
  0
LINE
  8
_0-6_鋼板__アングル
  6
CONTINUOUS
 62
    2
 10
859.25140505056902
 20
680.97592614581288
 11
861.53098552164352
 21
679.0340613000825
  0
LINE
  8
_0-6_鋼板__アングル
  6
CONTINUOUS
 62
    2
 10
814.30914526836318
 20
682.53406130008273
 11
830.99285259631756
 21
682.53406130008273
  0
ARC
  8
_0-6_鋼板__アングル
  6
CONTINUOUS
 62
    2
 10
830.99285259631756
 20
680.13406130008264
 40
1.2
 50
52.431407971171978
 51
90.000000000000057
  0
LINE
  8
_0-6_鋼板__アングル
  6
CONTINUOUS
 62
    2
 10
831.72450550933831
 20
681.08521008700848
 11
834.32749235534516
 21
679.08291251315688
  0
ARC
  8
_0-6_鋼板__アングル
  6
CONTINUOUS
 62
    2
 10
845.62543794041062
 20
680.13406130008264
 40
1.2
 50
90
 51
127.56859202882507
  0
LINE
  8
_0-6_鋼板__アングル
  6
CONTINUOUS
 62
    2
 10
844.89378502738987
 20
681.08521008700848
 11
842.29079818138302
 21
679.08291251315688
  0
LINE
  8
_0-6_鋼板__アングル
  6
CONTINUOUS
 62
    4
 10
834.32749235534516
 20
679.08291251315688
 11
842.29079818138302
 21
679.08291251315688
  0
LINE
  8
_0-6_鋼板__アングル
  6
CONTINUOUS
 62
    2
 10
835.05914526836364
 20
680.03406130008273
 11
834.32749235534516
 21
679.08291251315688
  0
LINE
  8
_0-6_鋼板__アングル
  6
CONTINUOUS
 62
    2
 10
841.55914526836455
 20
680.03406130008273
 11
842.29079818138302
 21
679.08291251315688
  0
LINE
  8
_0-6_鋼板__アングル
  6
CONTINUOUS
 62
    4
 10
835.05914526836364
 20
680.03406130008273
 11
841.55914526836455
 21
680.03406130008273
  0
LINE
  8
_0-6_鋼板__アングル
  6
CONTINUOUS
 62
    4
 10
845.62543794041062
 20
682.53406130008273
 11
830.99285259631756
 21
682.53406130008273
  0
ARC
  8
_0-6_鋼板__アングル
  6
CONTINUOUS
 62
    2
 10
830.99285259631756
 20
680.13406130008264
 40
2.3999999999999999
 50
52.431407971173961
 51
90
  0
LINE
  8
_0-6_鋼板__アングル
  6
CONTINUOUS
 62
    2
 10
832.45615842235679
 20
682.03635887393318
 11
835.05914526836364
 21
680.03406130008273
  0
ARC
  8
_0-6_鋼板__アングル
  6
CONTINUOUS
 62
    2
 10
845.62543794041062
 20
680.13406130008264
 40
2.3999999999999999
 50
90
 51
127.56859202882603
  0
LINE
  8
_0-6_鋼板__アングル
  6
CONTINUOUS
 62
    2
 10
844.16213211437139
 20
682.03635887393318
 11
841.55914526836455
 21
680.03406130008273
  0
LINE
  8
_0-6_鋼板__アングル
  6
CONTINUOUS
 62
    2
 10
815.61871546963516
 20
681.33406130007131
 11
831.31208899352373
 21
681.33406130007131
  0
LINE
  8
_0-6_鋼板__アングル
  6
CONTINUOUS
 62
    2
 10
815.63822391907593
 20
667.34262280820019
 11
816.84280772409579
 21
667.34262280820019
  0
LINE
  8
_0-6_鋼板__アングル
  6
CONTINUOUS
 62
    2
 10
815.61871546963516
 20
681.33406130007131
 11
816.84280772409579
 21
667.34262280820019
  0
LINE
  8
_0-6_鋼板__アングル
  6
CONTINUOUS
 62
    2
 10
814.30914526836318
 20
682.53406130008273
 11
815.63822391907593
 21
667.34262280820019
  0
LINE
  8
_0-6_鋼板__アングル
  6
CONTINUOUS
 62
    2
 10
1293.6125202683627
 20
739.08316251489225
 11
1392.4125202683626
 21
739.08316251489225
  0
LINE
  8
_0-6_鋼板__アングル
  6
CONTINUOUS
 62
    2
 10
1292.4125202683626
 20
740.2831625148923
 11
1392.4125202683626
 21
740.2831625148923
  0
LINE
  8
_0-6_鋼板__アングル
  6
CONTINUOUS
 62
    2
 10
1392.4125202683626
 20
740.2831625148923
 11
1392.4125202683626
 21
739.08316251489225
  0
LINE
  8
_0-6_鋼板__アングル
  6
CONTINUOUS
 62
    2
 10
1249.87885781263
 20
782.53431130181809
 11
1251.2079364633428
 21
767.34287280993556
  0
LINE
  8
_0-6_鋼板__アングル
  6
CONTINUOUS
 62
    2
 10
1251.188428013902
 20
781.33431130180668
 11
1252.4125202683626
 21
767.34287280993556
  0
LINE
  8
_0-6_鋼板__アングル
  6
CONTINUOUS
 62
    2
 10
1251.2079364633428
 20
767.34287280993556
 11
1252.4125202683626
 21
767.34287280993556
  0
LINE
  8
_0-6_鋼板__アングル
  6
CONTINUOUS
 62
    2
 10
1293.6125202683627
 20
739.08316251489225
 11
1293.6125202683627
 21
639.08316251489225
  0
LINE
  8
_0-6_鋼板__アングル
  6
CONTINUOUS
 62
    2
 10
1292.4125202683626
 20
740.2831625148923
 11
1292.4125202683626
 21
640.2831625148923
  0
ARC
  8
_0-6_鋼板__アングル
  6
CONTINUOUS
 62
    2
 10
1239.0324723390177
 20
691.5340613000825
 40
10.199999999999999
 50
270
 51
349.99999999999994
  0
ARC
  8
_0-6_鋼板__アングル
  6
CONTINUOUS
 62
    2
 10
1239.0324723390177
 20
691.5340613000825
 40
9
 50
270
 51
349.99999999999994
  0
LINE
  8
_0-6_鋼板__アングル
  6
CONTINUOUS
 62
    2
 10
1250.1864314381032
 20
696.05184782741674
 11
1249.0775114197436
 21
689.76284988787995
  0
LINE
  8
_0-6_鋼板__アングル
  6
CONTINUOUS
 62
    2
 10
1249.0046621344891
 20
696.26022564061657
 11
1247.8957421161272
 21
689.97122770108092
  0
ARC
  8
_0-6_鋼板__アングル
  6
CONTINUOUS
 62
    2
 10
1254.6180663266568
 20
695.27043102791538
 40
5.700000000000002
 50
137.7263109939077
 51
169.99999999999977
  0
ARC
  8
_0-6_鋼板__アングル
  6
CONTINUOUS
 62
    2
 10
1254.6180663266568
 20
695.27043102791538
 40
4.5
 50
137.7263109939077
 51
169.99999999999997
  0
LINE
  8
_0-6_鋼板__アングル
  6
CONTINUOUS
 62
    2
 10
1251.2883359963757
 20
698.29745860089872
 11
1252.4125202683626
 21
699.53406130008318
  0
LINE
  8
_0-6_鋼板__アングル
  6
CONTINUOUS
 62
    2
 10
1251.5245921802875
 20
700.34126865287874
 11
1252.4125202683626
 21
699.53406130008318
  0
LINE
  8
_0-6_鋼板__アングル
  6
CONTINUOUS
 62
    2
 10
1250.4004079083006
 20
699.10466595369428
 11
1251.5245921802875
 21
700.34126865287874
  0
LINE
  8
_0-6_鋼板__アングル
  6
CONTINUOUS
 62
    2
 10
1197.1708690481012
 20
680.97592614581288
 11
1194.8912885770267
 21
679.0340613000825
  0
ARC
  8
_0-6_鋼板__アングル
  6
CONTINUOUS
 62
    2
 10
1198.1435687315002
 20
679.83406130008291
 40
2.7000000000000002
 50
90
 51
130.42607874009855
  0
ARC
  8
_0-6_鋼板__アングル
  6
CONTINUOUS
 62
    2
 10
1198.1435687315002
 20
679.83406130008291
 40
1.5000000000000002
 50
90
 51
130.42607874009855
  0
LINE
  8
_0-6_鋼板__アングル
  6
CONTINUOUS
 62
    2
 10
1196.3927093013808
 20
681.88941802239754
 11
1194.1131288303063
 21
679.94755317666716
  0
LINE
  8
_0-6_鋼板__アングル
  6
CONTINUOUS
 62
    2
 10
1194.1131288303063
 20
679.94755317666716
 11
1194.8912885770267
 21
679.0340613000825
  0
LINE
  8
ADD_LINE
  6
DOT
 62
    4
 10
1219.8912885770267
 20
648.35501730008275
 11
1219.8912885770267
 21
688.26920850008321
  0
LINE
  8
_0-6_鋼板__アングル
  6
CONTINUOUS
 62
    2
 10
1225.7442754230328
 20
682.03635887393432
 11
1223.141288577026
 21
680.03406130008273
  0
ARC
  8
_0-6_鋼板__アングル
  6
CONTINUOUS
 62
    2
 10
1227.2075812490721
 20
680.13406130008264
 40
2.3999999999999999
 50
90
 51
127.56859202882603
  0
LINE
  8
_0-6_鋼板__アングル
  6
CONTINUOUS
 62
    2
 10
1214.0383017310205
 20
682.03635887393432
 11
1216.6412885770274
 21
680.03406130008273
  0
ARC
  8
_0-6_鋼板__アングル
  6
CONTINUOUS
 62
    2
 10
1212.5749959049813
 20
680.13406130008264
 40
2.3999999999999999
 50
52.431407971173961
 51
90
  0
LINE
  8
_0-6_鋼板__アングル
  6
CONTINUOUS
 62
    4
 10
1227.2075812490721
 20
682.53406130008273
 11
1212.5749959049813
 21
682.53406130008273
  0
LINE
  8
_0-6_鋼板__アングル
  6
CONTINUOUS
 62
    4
 10
1216.6412885770274
 20
680.03406130008273
 11
1223.141288577026
 21
680.03406130008273
  0
LINE
  8
_0-6_鋼板__アングル
  6
CONTINUOUS
 62
    2
 10
1223.141288577026
 20
680.03406130008273
 11
1223.8729414900467
 21
679.08291251315688
  0
LINE
  8
_0-6_鋼板__アングル
  6
CONTINUOUS
 62
    2
 10
1216.6412885770274
 20
680.03406130008273
 11
1215.9096356640066
 21
679.08291251315688
  0
LINE
  8
_0-6_鋼板__アングル
  6
CONTINUOUS
 62
    4
 10
1215.9096356640066
 20
679.08291251315688
 11
1223.8729414900467
 21
679.08291251315688
  0
LINE
  8
_0-6_鋼板__アングル
  6
CONTINUOUS
 62
    2
 10
1226.4759283360536
 20
681.08521008700848
 11
1223.8729414900467
 21
679.08291251315688
  0
ARC
  8
_0-6_鋼板__アングル
  6
CONTINUOUS
 62
    2
 10
1227.2075812490721
 20
680.13406130008264
 40
1.2
 50
90
 51
127.56859202882507
  0
LINE
  8
_0-6_鋼板__アングル
  6
CONTINUOUS
 62
    2
 10
1213.3066488179998
 20
681.08521008700848
 11
1215.9096356640066
 21
679.08291251315688
  0
ARC
  8
_0-6_鋼板__アングル
  6
CONTINUOUS
 62
    2
 10
1212.5749959049813
 20
680.13406130008264
 40
1.2
 50
52.431407971171993
 51
90.000000000000057
  0
LINE
  8
_0-6_鋼板__アングル
  6
CONTINUOUS
 62
    2
 10
1239.0324723390177
 20
682.53406130008273
 11
1227.2075812490721
 21
682.53406130008273
  0
LINE
  8
_0-6_鋼板__アングル
  6
CONTINUOUS
 62
    2
 10
1212.5749959049813
 20
682.53406130008273
 11
1198.1435687315002
 21
682.53406130008273
  0
LINE
  8
_0-6_鋼板__アングル
  6
CONTINUOUS
 62
    2
 10
1239.0324723390177
 20
681.33406130008268
 11
1227.2075812490721
 21
681.33406130008268
  0
LINE
  8
_0-6_鋼板__アングル
  6
CONTINUOUS
 62
    2
 10
1212.5749959049813
 20
681.33406130008268
 11
1198.1435687315002
 21
681.33406130008268
  0
LINE
  8
_0-6_鋼板__アングル
  6
CONTINUOUS
 62
    2
 10
1311.7318446586364
 20
782.03660887566969
 11
1309.1288578126307
 21
780.03431130181809
  0
LINE
  8
_0-6_鋼板__アングル
  6
CONTINUOUS
 62
    2
 10
1300.0258709666241
 20
782.03660887566969
 11
1302.6288578126298
 21
780.03431130181809
  0
LINE
  8
_0-6_鋼板__アングル
  6
CONTINUOUS
 62
    4
 10
1313.1951504846757
 20
782.53431130181809
 11
1298.5625651405849
 21
782.53431130181809
  0
LINE
  8
_0-6_鋼板__アングル
  6
CONTINUOUS
 62
    4
 10
1302.6288578126298
 20
780.03431130181809
 11
1309.1288578126307
 21
780.03431130181809
  0
LINE
  8
_0-6_鋼板__アングル
  6
CONTINUOUS
 62
    2
 10
1309.1288578126307
 20
780.03431130181809
 11
1309.8605107256492
 21
779.08316251489225
  0
LINE
  8
_0-6_鋼板__アングル
  6
CONTINUOUS
 62
    2
 10
1302.6288578126298
 20
780.03431130181809
 11
1301.8972048996102
 21
779.08316251489225
  0
LINE
  8
_0-6_鋼板__アングル
  6
CONTINUOUS
 62
    4
 10
1301.8972048996102
 20
779.08316251489225
 11
1309.8605107256492
 21
779.08316251489225
  0
LINE
  8
_0-6_鋼板__アングル
  6
CONTINUOUS
 62
    2
 10
1312.463497571656
 20
781.08546008874384
 11
1309.8605107256492
 21
779.08316251489225
  0
LINE
  8
_0-6_鋼板__アングル
  6
CONTINUOUS
 62
    2
 10
1299.2942180536045
 20
781.08546008874384
 11
1301.8972048996102
 21
779.08316251489225
  0
LINE
  8
_0-6_鋼板__アングル
  6
CONTINUOUS
 62
    2
 10
1326.8211175948363
 20
780.97617614754824
 11
1329.1006980659108
 21
779.03431130181787
  0
ARC
  8
_0-6_鋼板__アングル
  6
CONTINUOUS
 62
    2
 10
1325.8484179114362
 20
779.83431130181827
 40
2.7000000000000002
 50
49.573921259901446
 51
90
  0
ARC
  8
_0-6_鋼板__アングル
  6
CONTINUOUS
 62
    2
 10
1325.8484179114362
 20
779.83431130181827
 40
1.5000000000000002
 50
49.573921259901446
 51
90
  0
LINE
  8
_0-6_鋼板__アングル
  6
CONTINUOUS
 62
    2
 10
1327.5992773415555
 20
781.8896680241329
 11
1329.87885781263
 21
779.94780317840252
  0
LINE
  8
_0-6_鋼板__アングル
  6
CONTINUOUS
 62
    2
 10
1329.87885781263
 20
779.94780317840252
 11
1329.1006980659108
 21
779.03431130181787
  0
LINE
  8
ADD_LINE
  6
DOT
 62
    4
 10
1305.8788578126303
 20
794.08710000266694
 11
1305.8788578126303
 21
759.90274381260349
  0
ARC
  8
_0-6_鋼板__アングル
  6
CONTINUOUS
 62
    2
 10
1313.1951504846757
 20
780.134311301818
 40
1.2
 50
90
 51
127.56859202882507
  0
LINE
  8
_0-6_鋼板__アングル
  6
CONTINUOUS
 62
    2
 10
1313.1951504846757
 20
781.33431130180668
 11
1325.8484179114362
 21
781.33431130180668
  0
ARC
  8
_0-6_鋼板__アングル
  6
CONTINUOUS
 62
    2
 10
1313.1951504846757
 20
780.134311301818
 40
2.3999999999999999
 50
90
 51
127.56859202882603
  0
LINE
  8
_0-6_鋼板__アングル
  6
CONTINUOUS
 62
    2
 10
1313.1951504846757
 20
782.53431130181809
 11
1325.8484179114362
 21
782.53431130181809
  0
ARC
  8
_0-6_鋼板__アングル
  6
CONTINUOUS
 62
    2
 10
1298.5625651405849
 20
780.134311301818
 40
1.2
 50
52.431407971171978
 51
90
  0
ARC
  8
_0-6_鋼板__アングル
  6
CONTINUOUS
 62
    2
 10
1298.5625651405849
 20
780.134311301818
 40
2.3999999999999999
 50
52.431407971173961
 51
90
  0
LINE
  8
_0-6_鋼板__アングル
  6
CONTINUOUS
 62
    2
 10
1251.188428013902
 20
781.33431130180668
 11
1298.5625651405849
 21
781.33431130180668
  0
LINE
  8
_0-6_鋼板__アングル
  6
CONTINUOUS
 62
    2
 10
1249.87885781263
 20
782.53431130181809
 11
1298.5625651405849
 21
782.53431130181809
  0
LINE
  8
_0-6_鋼板__アングル
  6
CONTINUOUS
 62
    2
 10
1293.6125202683627
 20
639.08316251489225
 11
1092.4125202683626
 21
639.08316251489225
  0
LINE
  8
_0-6_鋼板__アングル
  6
CONTINUOUS
 62
    2
 10
1292.4125202683626
 20
640.2831625148923
 11
1092.4125202683626
 21
640.2831625148923
  0
LINE
  8
_0-6_鋼板__アングル
  6
CONTINUOUS
 62
    2
 10
1092.4125202683626
 20
640.2831625148923
 11
1092.4125202683626
 21
639.08316251489225
  0
LINE
  8
_0-5_金属
  6
CONTINUOUS
 62
    7
 10
826.50888087376359
 20
589.08336076663716
 11
874.27303513237121
 21
589.08336076663716
  0
LINE
  8
_0-5_金属
  6
CONTINUOUS
 62
    7
 10
1219.6473274111254
 20
589.08316251664758
 11
1263.6125202683627
 21
589.08316251664758
  0
LINE
  8
_0-6_鋼板__アングル
  6
CONTINUOUS
 62
    2
 10
796.3091452683625
 20
639.08291251315688
 11
997.50914526836368
 21
639.08291251315688
  0
LINE
  8
_0-6_鋼板__アングル
  6
CONTINUOUS
 62
    2
 10
997.50914526836368
 20
639.08291251315688
 11
997.50914526836368
 21
640.28291251315693
  0
LINE
  8
_0-6_鋼板__アングル
  6
CONTINUOUS
 62
    2
 10
797.50914526836368
 20
640.28291251315693
 11
997.50914526836368
 21
640.28291251315693
  0
LINE
  8
_0-d_断熱__ハッチ
  6
CONTINUOUS
 62
    4
 10
961.53369508358651
 20
640.28291251315693
 11
995.33369508358646
 21
674.08291251315688
  0
LINE
  8
_0-d_断熱__ハッチ
  6
CONTINUOUS
 62
    4
 10
933.20617810099407
 20
674.08291251315575
 11
967.00617810099288
 21
640.28291251315693
  0
LINE
  8
_0-d_断熱__ハッチ
  6
CONTINUOUS
 62
    4
 10
961.49044934844824
 20
674.08291251315916
 11
995.29044934845047
 21
640.28291251315693
  0
LINE
  8
_0-d_断熱__ハッチ
  6
CONTINUOUS
 62
    4
 10
989.81796633104409
 20
640.28291251315693
 11
1023.617966331044
 21
674.08291251315688
  0
LINE
  8
_0-2_線色２__白__
  6
CONTINUOUS
 62
    7
 10
997.50914526836368
 20
639.08291251315688
 11
1040.8351153683566
 21
639.08291251315688
  0
LINE
  8
_0-2_線色２__白__
  6
CONTINUOUS
 62
    7
 10
1053.0851153683568
 20
639.08291251315688
 11
1092.4125202683626
 21
639.08291251315688
  0
TEXT
  8
_0-a_文字
 62
    7
 10
1067.4999999999952
 20
327.50000000000341
 40
15.000000000000213
 41
0.9999999999999907
 50
0
  1
※ 断熱材の種類が硬質ウレタンフォームの場合、ラジアルシートＬ６００の敷設は不要
  0
TEXT
  8
_0-a_文字
 62
    7
 10
1067.4999999999952
 20
287.50000000000341
 40
15.000000000000213
 41
0.9999999999999905
 50
0
  1
※ 本図面は防水納まりの参考図であり、下地等の構造を保証するものではありません
  0
TEXT
  8
_0-a_文字
 62
    7
 10
1067.4999999999952
 20
307.50000000000341
 40
15.000000000000213
 41
0.9999999999999905
 50
0
  1
※ デッキ端部などの開口部には、必要に応じ遮炎性を満たす処理をお願いします（別途工事）
  0
ENDSEC
  0
EOF
