  0
SECTION
  2
HEADER
  9
$ACADVER
  1
AC1009
  9
$INSBASE
 10
0
 20
0
 30
0
  9
$EXTMIN
 10
0
 20
0
  9
$EXTMAX
 10
2100
 20
1485
  9
$LIMMIN
 10
0
 20
0
  9
$LIMMAX
 10
2100
 20
1485
  9
$LTSCALE
 40
5
  0
ENDSEC
  0
SECTION
  2
TABLES
  0
TABLE
  2
LTYPE
 70
     9
  0
LTYPE
  2
CONTINUOUS
 70
    64
  3
実線
 72
    65
 73
     0
 40
0.0
  0
LTYPE
  2
DASHED1
 70
    64
  3
--  --  --  --  --  --  --  --  
 72
    65
 73
     2
 40
2.5
 49
1.25
 49
-1.25
  0
LTYPE
  2
DASHED2
 70
    64
  3
----    ----    ----    ----    
 72
    65
 73
     2
 40
5.0
 49
2.5
 49
-2.5
  0
LTYPE
  2
DASHED3
 70
    64
  3
------  ------  ------  ------  
 72
    65
 73
     2
 40
5.0
 49
3.75
 49
-1.25
  0
LTYPE
  2
CENTER1
 70
    64
  3
----- - ----- - ----- - ----- - 
 72
    65
 73
     4
 40
10.0
 49
6.25
 49
-1.25
 49
1.25
 49
-1.25
  0
LTYPE
  2
CENTER2
 70
    64
  3
----------  --  ----------  --  
 72
    65
 73
     4
 40
20.0
 49
12.5
 49
-2.5
 49
2.5
 49
-2.5
  0
LTYPE
  2
PHANTOM1
 70
    64
  3
--- - - --- - - --- - - --- - - 
 72
    65
 73
     6
 40
10.0
 49
3.25
 49
-1.25
 49
1.25
 49
-1.25
 49
1.25
 49
-1.25
  0
LTYPE
  2
PHANTOM2
 70
    64
  3
--------  -  -  --------  -  -  
 72
    65
 73
     6
 40
20.0
 49
10.0
 49
-2.5
 49
1.25
 49
-2.5
 49
1.25
 49
-2.5
  0
LTYPE
  2
DOT
 70
    64
  3
-   -   -   -   -   -   -   -   
 72
    65
 73
     2
 40
2.5
 49
0.625
 49
-1.875
  0
LTYPE
  2
DUMMY
 70
    64
  3
ダミー
 72
    65
 73
     0
 40
0.0
  0
LTYPE
  2
RAND1
 70
    64
  3
ランダム線1
 72
    65
 73
     4
 40
10.0
 49
1.0
 49
-2.0
 49
3.0
 49
-4.0
  0
LTYPE
  2
RAND2
 70
    64
  3
ランダム線2
 72
    65
 73
     4
 40
14.0
 49
2.0
 49
-3.0
 49
4.0
 49
-5.0
  0
LTYPE
  2
RAND3
 70
    64
  3
ランダム線3
 72
    65
 73
     4
 40
18.0
 49
3.0
 49
-4.0
 49
5.0
 49
-6.0
  0
LTYPE
  2
RAND4
 70
    64
  3
ランダム線4
 72
    65
 73
     4
 40
22.0
 49
4.0
 49
-5.0
 49
6.0
 49
-7.0
  0
LTYPE
  2
RAND5
 70
    64
  3
ランダム線5
 72
    65
 73
     4
 40
26.0
 49
5.0
 49
-6.0
 49
7.0
 49
-8.0
  0
LTYPE
  2
LONG1
 70
    64
  3
----------  --  ----------  --  
 72
    65
 73
     4
 40
40.0
 49
32.5
 49
-2.5
 49
2.5
 49
-2.5
  0
LTYPE
  2
LONG2
 70
    64
  3
--------  -  -  --------  -  -  
 72
    65
 73
     6
 40
40.0
 49
30.0
 49
-2.5
 49
1.25
 49
-2.5
 49
1.25
 49
-2.5
  0
LTYPE
  2
LONG3
 70
    64
  3
+++++++++++++++..+++++++++++++++
 72
    65
 73
     2
 40
40.0
 49
37.5
 49
-2.5
  0
LTYPE
  2
LONG4
 70
    64
  3
+++++++++++++++..+++++++++++++++
 72
    65
 73
     2
 40
80.0
 49
75.0
 49
-5.0
  0
LTYPE
  2
LONG5
 70
    64
  3
----------  --  ----------  --  
 72
    65
 73
     4
 40
60.0
 49
37.5
 49
-7.5
 49
7.5
 49
-7.5
  0
LTYPE
  2
dashed
 70
   64
  3
-------   -------------   ------
 72
   65
 73
    2
 40
7.5
 49
6
 49
-1.5
  0
LTYPE
  2
dashed_spaced
 70
   64
  3
----        --------        ----
 72
   65
 73
    2
 40
12
 49
6
 49
-6
  0
LTYPE
  2
long_dashed_dotted
 70
   64
  3
------------- --- --------------
 72
   65
 73
    4
 40
15.25
 49
12
 49
-1.5
 49
0.25
 49
-1.5
  0
LTYPE
  2
long_dashed_double-dotted
 70
   64
  3
----------- --- --- ------------
 72
   65
 73
    6
 40
17
 49
12
 49
-1.5
 49
0.25
 49
-1.5
 49
0.25
 49
-1.5
  0
LTYPE
  2
long_dashed_triplicate-dotted
 70
   64
  3
--------- --- --- --- ----------
 72
   65
 73
    8
 40
18.75
 49
12
 49
-1.5
 49
0.25
 49
-1.5
 49
0.25
 49
-1.5
 49
0.25
 49
-1.5
  0
LTYPE
  2
dotted
 70
   64
  3
   -       -       -       -    
 72
   65
 73
    2
 40
1.75
 49
0.25
 49
-1.5
  0
LTYPE
  2
chain
 70
   64
  3
-------------- -- --------------
 72
   65
 73
    4
 40
18.5
 49
12
 49
-1.5
 49
3.5
 49
-1.5
  0
LTYPE
  2
chain_double_dash
 70
   64
  3
------------ -- -- -------------
 72
   65
 73
    6
 40
23.5
 49
12
 49
-1.5
 49
3.5
 49
-1.5
 49
3.5
 49
-1.5
  0
LTYPE
  2
dashed_dotted
 70
   64
  3
-----------     -     ----------
 72
   65
 73
    4
 40
9.25
 49
6
 49
-1.5
 49
0.25
 49
-1.5
  0
LTYPE
  2
double-dashed_dotted
 70
   64
  3
------   -----------   -   -----
 72
   65
 73
    6
 40
16.75
 49
6
 49
-1.5
 49
6
 49
-1.5
 49
0.25
 49
-1.5
  0
LTYPE
  2
dashed_double-dotted
 70
   64
  3
---------    -    -    ---------
 72
   65
 73
    6
 40
11
 49
6
 49
-1.5
 49
0.25
 49
-1.5
 49
0.25
 49
-1.5
  0
LTYPE
  2
double-dashed_double-dotted
 70
   64
  3
-----   ---------   -   -   ----
 72
   65
 73
    8
 40
18.5
 49
6
 49
-1.5
 49
6
 49
-1.5
 49
0.25
 49
-1.5
 49
0.25
 49
-1.5
  0
LTYPE
  2
dashed_triplicate-dotted
 70
   64
  3
-------    -    -    -    ------
 72
   65
 73
    8
 40
12.75
 49
6
 49
-1.5
 49
0.25
 49
-1.5
 49
0.25
 49
-1.5
 49
0.25
 49
-1.5
  0
LTYPE
  2
double-dashed_triplicate-dotted
 70
   64
  3
-----  ---------  -  -  -  -----
 72
   65
 73
   10
 40
20.25
 49
6
 49
-1.5
 49
6
 49
-1.5
 49
0.25
 49
-1.5
 49
0.25
 49
-1.5
 49
0.25
 49
-1.5
  0
LTYPE
  2
undefined
 70
   64
  3
--------------------------------
 72
   65
 73
    0
 40
0
  0
ENDTAB
  0
TABLE
  2
STYLE
  5
3
100
AcDbSymbolTable
 70
     1
  0
STYLE
  5
10
100
AcDbSymbolTableRecord
100
AcDbTextStyleTableRecord
  2
STANDARD
 70
     0
 40
0.0
 41
1.0
 50
0.0
 71
     0
 42
0.2
  3
txt
  4
bigfont.shx
  0
STYLE
  5
26
100
AcDbSymbolTableRecord
100
AcDbTextStyleTableRecord
  2
TATEGAKI
 70
    68
 40
0.0
 41
1.0
 50
0.0
 71
     0
 42
1.0
  3
txt
  4
bigfont.shx
  0
ENDTAB
  0
TABLE
  2
LAYER
 70
   12
  0
LAYER
  2
_0-1_線色１__水色__
 70
   64
 62
    7
  6
CONTINUOUS
  0
LAYER
  2
_0-2_線色２__白__
 70
   64
 62
    7
  6
CONTINUOUS
  0
LAYER
  2
_0-3_線色３__緑__
 70
   64
 62
    7
  6
CONTINUOUS
  0
LAYER
  2
_0-4_線色４__黄__
 70
   64
 62
    7
  6
CONTINUOUS
  0
LAYER
  2
_0-5_金属
 70
   64
 62
    7
  6
CONTINUOUS
  0
LAYER
  2
_0-6_鋼板__アングル
 70
   64
 62
    7
  6
CONTINUOUS
  0
LAYER
  2
_0-7_ビス
 70
   64
 62
    7
  6
CONTINUOUS
  0
LAYER
  2
_0-a_文字
 70
   64
 62
    7
  6
CONTINUOUS
  0
LAYER
  2
_0-d_断熱__ハッチ
 70
   64
 62
    7
  6
CONTINUOUS
  0
LAYER
  2
_f-0_
 70
   64
 62
    7
  6
CONTINUOUS
  0
LAYER
  2
_f-f_
 70
   64
 62
    7
  6
CONTINUOUS
  0
LAYER
  2
ADD_LINE
 70
   64
 62
    7
  6
CONTINUOUS
  0
ENDTAB
  0
ENDSEC
  0
SECTION
  2
BLOCKS
  0
ENDSEC
  0
SECTION
  2
ENTITIES
  0
TEXT
  8
_0-a_文字
 62
    7
 10
1203.0519939784949
 20
557.70454473381392
 40
14.999999999999858
 41
1.0000000000000069
 50
0
  1
（別途工事）
  0
TEXT
  8
_0-a_文字
 62
    7
 10
1203.0519939784949
 20
577.70454473381392
 40
14.999999999999858
 41
1.0000000000000069
 50
0
  1
耐火デッキプレート t=1.2以上
  0
LINE
  8
_0-2_線色２__白__
  6
CONTINUOUS
 62
    7
 10
1049.9999999999989
 20
712.5229710933661
 11
1049.9999999999989
 21
677.5229710933661
  0
LINE
  8
_0-a_文字
  6
CONTINUOUS
 62
    7
 10
705.56459067596677
 20
695.0229710933661
 11
776.27456121898717
 21
817.49623267557922
  0
LINE
  8
_0-a_文字
  6
CONTINUOUS
 62
    7
 10
1022.2282657132291
 20
718.25119426509559
 11
1079.5274153552577
 21
817.49623267557922
  0
TEXT
  8
_0-a_文字
 62
    7
 10
1104.5274153552577
 20
784.99623267557922
 40
15.000000000000036
 41
0.9999999999999972
 50
0
  1
ＵＤ緩衝用パッチ
  0
TEXT
  8
_0-a_文字
 62
    7
 10
1104.5274153552577
 20
809.99623267557922
 40
14.999999999999947
 41
1.000000000000006
 50
0
  1
ＵＤ－１ＰＶ
  0
LINE
  8
_0-a_文字
  6
CONTINUOUS
 62
    7
 10
1065.093658625517
 20
792.49623267557922
 11
1099.5274153552577
 21
792.49623267557922
  0
LINE
  8
_0-a_文字
  6
CONTINUOUS
 62
    7
 10
1079.5274153552577
 20
817.49623267557922
 11
1099.5274153552577
 21
817.49623267557922
  0
LINE
  8
_0-a_文字
  6
CONTINUOUS
 62
    7
 10
1051.2199919917737
 20
718.46633717866212
 11
1079.5274153552577
 21
767.49623267557922
  0
TEXT
  8
_0-a_文字
 62
    7
 10
1104.5274153552577
 20
759.99623267557922
 40
15.000000000000036
 41
0.999999999999997
 50
0
  1
ロンシーラントＳ
  0
LINE
  8
_0-a_文字
  6
CONTINUOUS
 62
    7
 10
1079.5274153552577
 20
767.49623267557922
 11
1099.5274153552577
 21
767.49623267557922
  0
LINE
  8
_0-d_断熱__ハッチ
  6
CONTINUOUS
 62
    4
 10
1042.0344535540596
 20
722.97204267833536
 11
1042.5853938917544
 21
723.52298301603128
  0
LINE
  8
_0-d_断熱__ハッチ
  6
CONTINUOUS
 62
    4
 10
1044.1209833949517
 20
721.5230386132987
 11
1046.1209221125659
 21
723.52297733091405
  0
LINE
  8
_0-d_断熱__ハッチ
  6
CONTINUOUS
 62
    4
 10
1046.8454912371953
 20
720.71201254961466
 11
1049.6564503333775
 21
723.52297164579682
  0
LINE
  8
_0-d_断熱__ハッチ
  6
CONTINUOUS
 62
    4
 10
1045.0000000000011
 20
718.86652131242045
 11
1045.656449780945
 21
719.52297109336428
  0
LINE
  8
_0-d_断熱__ハッチ
  6
CONTINUOUS
 62
    4
 10
1047.1919836868824
 20
717.52297109336723
 11
1053.1919785541959
 21
723.52296596068186
  0
LINE
  8
_0-d_断熱__ハッチ
  6
CONTINUOUS
 62
    4
 10
1054.7276042328235
 20
721.52305773337503
 11
1056.7275067750131
 21
723.52296027556463
  0
LINE
  8
_0-d_断熱__ハッチ
  6
CONTINUOUS
 62
    4
 10
1050.7275175928123
 20
717.52297109336496
 11
1053.0344372306683
 21
719.82989073121985
  0
LINE
  8
_0-d_断熱__ハッチ
  6
CONTINUOUS
 62
    4
 10
1054.2630514987479
 20
717.52297109336723
 11
1054.9999999999977
 21
718.25991959461703
  0
LINE
  8
_0-2_線色２__白__
  6
CONTINUOUS
 62
    7
 10
1054.9999999999989
 20
717.5229710933661
 11
1054.9999999999989
 21
719.52297109336655
  0
LINE
  8
_0-2_線色２__白__
  6
CONTINUOUS
 62
    7
 10
1044.9999999999989
 20
717.5229710933661
 11
1044.9999999999989
 21
719.52297913334746
  0
LINE
  8
_0-7_ビス
  6
CONTINUOUS
 62
    4
 10
1047.3617247231118
 20
644.02297109337042
 11
1053.5000000000002
 21
645.66777086717593
  0
LINE
  8
_0-7_ビス
  6
CONTINUOUS
 62
    4
 10
1046.4999999999998
 20
645.79206508708808
 11
1053.5000000000002
 21
647.66777086717752
  0
LINE
  8
_0-7_ビス
  6
CONTINUOUS
 62
    4
 10
1046.4999999999998
 20
647.79206508708853
 11
1053.5000000000002
 21
649.66777086717798
  0
LINE
  8
_0-7_ビス
  6
CONTINUOUS
 62
    4
 10
1046.4999999999998
 20
649.79206508708899
 11
1053.5000000000002
 21
651.66777086717843
  0
LINE
  8
_0-7_ビス
  6
CONTINUOUS
 62
    4
 10
1046.4999999999998
 20
651.79206508709058
 11
1053.5000000000002
 21
653.66777086718002
  0
LINE
  8
_0-7_ビス
  6
CONTINUOUS
 62
    4
 10
1046.4999999999998
 20
653.79206508709217
 11
1053.5000000000002
 21
655.66777086718162
  0
LINE
  8
_0-7_ビス
  6
CONTINUOUS
 62
    7
 10
1046.4999999999998
 20
640.54369703553334
 11
1049.9999999999989
 21
638.52297109337087
  0
LINE
  8
_0-7_ビス
  6
CONTINUOUS
 62
    7
 10
1046.4999999999998
 20
719.80992858400896
 11
1046.4999999999998
 21
640.54369703553334
  0
LINE
  8
_0-7_ビス
  6
CONTINUOUS
 62
    7
 10
1053.5000000000002
 20
644.02297109337042
 11
1046.4999999999998
 21
644.02297109337042
  0
LINE
  8
_0-7_ビス
  6
CONTINUOUS
 62
    7
 10
1053.5000000000002
 20
640.54369703553448
 11
1049.9999999999989
 21
638.52297109337087
  0
LINE
  8
_0-7_ビス
  6
CONTINUOUS
 62
    7
 10
1053.5000000000002
 20
719.80992858400896
 11
1053.5000000000002
 21
640.54369703553448
  0
LINE
  8
ADD_LINE
  6
DOT
 62
    4
 10
1049.9999999999989
 20
635.4036064314198
 11
1049.9999999999989
 21
735.02032617403643
  0
LINE
  8
_0-7_ビス
  6
CONTINUOUS
 62
    7
 10
1056.0000000000002
 20
723.1383557087554
 11
1056.0000000000002
 21
723.52297109337087
  0
LINE
  8
_0-7_ビス
  6
DASHED3
 62
    7
 10
1051.4674681162535
 20
720.97360156254354
 11
1052.550015836149
 21
723.52297109337087
  0
LINE
  8
_0-7_ビス
  6
CONTINUOUS
 62
    7
 10
1043.9999999999998
 20
723.1383557087554
 11
1043.9999999999998
 21
723.52297109337087
  0
LINE
  8
_0-7_ビス
  6
DASHED3
 62
    7
 10
1048.5325318837442
 20
720.97360156254354
 11
1047.449984163851
 21
723.52297109337087
  0
LINE
  8
_0-7_ビス
  6
CONTINUOUS
 62
    7
 10
1056.0000000000002
 20
723.1383557087554
 11
1043.9999999999998
 21
723.1383557087554
  0
LINE
  8
_0-7_ビス
  6
CONTINUOUS
 62
    7
 10
1056.0000000000002
 20
723.52297109337087
 11
1043.9999999999998
 21
723.52297109337087
  0
ARC
  8
_0-7_ビス
  6
DASHED3
 62
    7
 10
1049.9999999999989
 20
722.08414466080967
 40
1.8403175392666382
 50
217.11750793457031
 51
322.88247680664062
  0
LINE
  8
_0-7_ビス
  6
CONTINUOUS
 62
    7
 10
1054.0857864376255
 20
721.22414214638184
 11
1056.0000000000002
 21
723.1383557087554
  0
ARC
  8
_0-7_ビス
  6
CONTINUOUS
 62
    7
 10
1055.4999999999984
 20
719.80992858400896
 40
2
 50
135.00000000000153
 51
180.00000000000003
  0
LINE
  8
_0-7_ビス
  6
CONTINUOUS
 62
    7
 10
1045.9142135623722
 20
721.22414214638184
 11
1043.9999999999998
 21
723.1383557087554
  0
ARC
  8
_0-7_ビス
  6
CONTINUOUS
 62
    7
 10
1044.4999999999993
 20
719.80992858400896
 40
2
 50
0
 51
44.999999999998501
  0
LINE
  8
_0-7_ビス
  6
CONTINUOUS
 62
    7
 10
1053.5000000000002
 20
719.5229710933711
 11
1046.4999999999998
 21
719.5229710933711
  0
LINE
  8
_0-7_ビス
  6
CONTINUOUS
 62
    7
 10
1053.5000000000002
 20
708.52297109337087
 11
1046.4999999999998
 21
708.52297109337087
  0
LINE
  8
_0-7_ビス
  6
CONTINUOUS
 62
    4
 10
1046.4999999999998
 20
707.32316773397656
 11
1050.9775804419394
 21
708.52297109337087
  0
LINE
  8
_0-7_ビス
  6
CONTINUOUS
 62
    4
 10
1046.4999999999998
 20
695.01694720460023
 11
1053.5000000000002
 21
696.89265298468854
  0
LINE
  8
_0-7_ビス
  6
CONTINUOUS
 62
    4
 10
1046.4999999999998
 20
697.01694720460068
 11
1053.5000000000002
 21
698.89265298468786
  0
LINE
  8
_0-7_ビス
  6
CONTINUOUS
 62
    4
 10
1046.4999999999998
 20
699.0169472046
 11
1053.5000000000002
 21
700.89265298468831
  0
LINE
  8
_0-7_ビス
  6
CONTINUOUS
 62
    4
 10
1046.4999999999998
 20
701.01694720459932
 11
1053.5000000000002
 21
702.89265298468877
  0
LINE
  8
_0-7_ビス
  6
CONTINUOUS
 62
    4
 10
1046.4999999999998
 20
703.01694720459977
 11
1053.5000000000002
 21
704.89265298468922
  0
LINE
  8
_0-7_ビス
  6
CONTINUOUS
 62
    4
 10
1046.4999999999998
 20
705.01694720460023
 11
1053.5000000000002
 21
706.89265298468968
  0
LINE
  8
_0-7_ビス
  6
CONTINUOUS
 62
    4
 10
1046.4999999999998
 20
682.71072667522276
 11
1053.5000000000002
 21
684.58643245531107
  0
LINE
  8
_0-7_ビス
  6
CONTINUOUS
 62
    4
 10
1046.4999999999998
 20
684.71072667522321
 11
1053.5000000000002
 21
686.58643245531152
  0
LINE
  8
_0-7_ビス
  6
CONTINUOUS
 62
    4
 10
1046.4999999999998
 20
686.71072667522253
 11
1053.5000000000002
 21
688.58643245531198
  0
LINE
  8
_0-7_ビス
  6
CONTINUOUS
 62
    4
 10
1046.4999999999998
 20
688.71072667522299
 11
1053.5000000000002
 21
690.58643245531243
  0
LINE
  8
_0-7_ビス
  6
CONTINUOUS
 62
    4
 10
1046.4999999999998
 20
690.71072667522344
 11
1053.5000000000002
 21
692.58643245531175
  0
LINE
  8
_0-7_ビス
  6
CONTINUOUS
 62
    4
 10
1046.4999999999998
 20
692.7107266752239
 11
1053.5000000000002
 21
694.58643245531221
  0
LINE
  8
_0-7_ビス
  6
CONTINUOUS
 62
    4
 10
1046.4999999999998
 20
670.40450614584529
 11
1053.5000000000002
 21
672.28021192593474
  0
LINE
  8
_0-7_ビス
  6
CONTINUOUS
 62
    4
 10
1046.4999999999998
 20
672.40450614584574
 11
1053.5000000000002
 21
674.28021192593519
  0
LINE
  8
_0-7_ビス
  6
CONTINUOUS
 62
    4
 10
1046.4999999999998
 20
674.4045061458462
 11
1053.5000000000002
 21
676.28021192593451
  0
LINE
  8
_0-7_ビス
  6
CONTINUOUS
 62
    4
 10
1046.4999999999998
 20
676.40450614584665
 11
1053.5000000000002
 21
678.28021192593496
  0
LINE
  8
_0-7_ビス
  6
CONTINUOUS
 62
    4
 10
1046.4999999999998
 20
678.40450614584597
 11
1053.5000000000002
 21
680.28021192593428
  0
LINE
  8
_0-7_ビス
  6
CONTINUOUS
 62
    4
 10
1046.4999999999998
 20
680.40450614584643
 11
1053.5000000000002
 21
682.28021192593474
  0
LINE
  8
_0-7_ビス
  6
CONTINUOUS
 62
    4
 10
1046.4999999999998
 20
658.09828561646896
 11
1053.5000000000002
 21
659.9739913965584
  0
LINE
  8
_0-7_ビス
  6
CONTINUOUS
 62
    4
 10
1046.4999999999998
 20
660.09828561646941
 11
1053.5000000000002
 21
661.97399139655772
  0
LINE
  8
_0-7_ビス
  6
CONTINUOUS
 62
    4
 10
1046.4999999999998
 20
662.09828561646987
 11
1053.5000000000002
 21
663.97399139655704
  0
LINE
  8
_0-7_ビス
  6
CONTINUOUS
 62
    4
 10
1046.4999999999998
 20
664.09828561646918
 11
1053.5000000000002
 21
665.97399139655749
  0
LINE
  8
_0-7_ビス
  6
CONTINUOUS
 62
    4
 10
1046.4999999999998
 20
666.0982856164685
 11
1053.5000000000002
 21
667.97399139655795
  0
LINE
  8
_0-7_ビス
  6
CONTINUOUS
 62
    4
 10
1046.4999999999998
 20
668.09828561646896
 11
1053.5000000000002
 21
669.9739913965584
  0
LINE
  8
_0-7_ビス
  6
CONTINUOUS
 62
    4
 10
1046.4999999999998
 20
655.79206508709262
 11
1053.5000000000002
 21
657.66777086718207
  0
LINE
  8
_0-d_断熱__ハッチ
  6
CONTINUOUS
 62
    4
 10
1073.7599073514036
 20
677.5229710933661
 11
1108.7599073514036
 21
712.5229710933661
  0
LINE
  8
_0-4_線色４__黄__
  6
CONTINUOUS
 62
    2
 10
1106.6512493892151
 20
722.5229710933661
 11
1458.5176003356503
 21
722.5229710933661
  0
LINE
  8
_0-4_線色４__黄__
  6
CONTINUOUS
 62
    2
 10
1106.6512493892151
 20
722.5229710933661
 11
1089.204934966458
 21
728.52290805199573
  0
LINE
  8
_0-4_線色４__黄__
  6
CONTINUOUS
 62
    2
 10
993.31812993375934
 20
722.5229710933661
 11
1010.8710280196544
 21
728.52303401261111
  0
LINE
  8
_0-4_線色４__黄__
  6
CONTINUOUS
 62
    2
 10
641.48239966434971
 20
722.5229710933661
 11
993.31812993375934
 21
722.5229710933661
  0
LINE
  8
_0-4_線色４__黄__
  6
CONTINUOUS
 62
    2
 10
1089.204934966458
 20
728.52290805199573
 11
1010.8710280196544
 21
728.52303401261111
  0
LINE
  8
_0-2_線色２__白__
  6
CONTINUOUS
 62
    7
 10
994.14909532711818
 20
717.5229710933661
 11
1011.3875420045667
 21
723.41554588008194
  0
LINE
  8
_0-2_線色２__白__
  6
CONTINUOUS
 62
    7
 10
1105.8154992437585
 20
717.5229710933661
 11
1088.684934766676
 21
723.41431894126231
  0
LINE
  8
_0-3_線色３__緑__
  6
CONTINUOUS
 62
    3
 10
999.99999999999886
 20
719.52297109336655
 11
999.99999999999886
 21
717.5229710933661
  0
LINE
  8
_0-3_線色３__緑__
  6
CONTINUOUS
 62
    3
 10
1099.9999999999989
 20
719.52297109336655
 11
999.99999999999886
 21
719.52297109336655
  0
LINE
  8
_0-3_線色３__緑__
  6
CONTINUOUS
 62
    3
 10
1099.9999999999989
 20
717.5229710933661
 11
1099.9999999999989
 21
719.52297109336655
  0
LINE
  8
_0-3_線色３__緑__
  6
CONTINUOUS
 62
    3
 10
999.99999999999886
 20
717.5229710933661
 11
1099.9999999999989
 21
717.5229710933661
  0
LINE
  8
_0-2_線色２__白__
  6
CONTINUOUS
 62
    7
 10
641.48239966434971
 20
677.5229710933661
 11
1458.5176003356503
 21
677.5229710933661
  0
LINE
  8
_0-d_断熱__ハッチ
  6
CONTINUOUS
 62
    4
 10
999.10782632864198
 20
712.5229710933661
 11
1034.1078263286431
 21
677.5229710933661
  0
LINE
  8
_0-d_断熱__ハッチ
  6
CONTINUOUS
 62
    4
 10
1045.4756361039358
 20
677.5229710933661
 11
1080.4756361039369
 21
712.5229710933661
  0
LINE
  8
_0-d_断熱__ハッチ
  6
CONTINUOUS
 62
    4
 10
1027.3920975760996
 20
712.5229710933661
 11
1062.3920975760984
 21
677.5229710933661
  0
LINE
  8
_0-d_断熱__ハッチ
  6
CONTINUOUS
 62
    4
 10
1017.1913648564794
 20
677.5229710933661
 11
1052.1913648564782
 21
712.5229710933661
  0
LINE
  8
_0-5_金属
  6
CONTINUOUS
 62
    7
 10
1439.0360499999986
 20
628.72342109510214
 11
1458.5176003356503
 21
628.72342109510214
  0
LINE
  8
_0-5_金属
  6
CONTINUOUS
 62
    7
 10
1439.0663499999994
 20
627.52322109510146
 11
1458.5176003356503
 21
627.52322109510146
  0
LINE
  8
_0-5_金属
  6
CONTINUOUS
 62
    7
 10
641.48239966434971
 20
628.72342109510214
 11
660.96474999999941
 21
628.72342109510214
  0
LINE
  8
_0-5_金属
  6
CONTINUOUS
 62
    7
 10
641.48239966434971
 20
627.52322109510146
 11
660.93449999999962
 21
627.52322109510146
  0
LINE
  8
ADD_LINE
  6
DOT
 62
    4
 10
749.99999999999886
 20
693.61677109510197
 11
749.99999999999886
 21
583.13606245849769
  0
LINE
  8
ADD_LINE
  6
DOT
 62
    4
 10
1049.9999999999989
 20
693.61677109510197
 11
1049.9999999999989
 21
583.13606245849769
  0
LINE
  8
ADD_LINE
  6
DOT
 62
    4
 10
899.99969999999962
 20
659.23527109510246
 11
899.99969999999962
 21
583.13606245849769
  0
LINE
  8
ADD_LINE
  6
DOT
 62
    4
 10
1349.9999999999989
 20
693.61677109510197
 11
1349.9999999999989
 21
583.13606245849769
  0
LINE
  8
ADD_LINE
  6
DOT
 62
    4
 10
1199.9996999999996
 20
659.23527109510246
 11
1199.9996999999996
 21
583.13606245849769
  0
ARC
  8
_0-5_金属
  6
CONTINUOUS
 62
    7
 10
1036.2540999999987
 20
674.52297109510141
 40
1.7999992
 50
44.883395999999991
 51
90.000528000000003
  0
ARC
  8
_0-5_金属
  6
CONTINUOUS
 62
    7
 10
1036.2542999999982
 20
674.52297109510141
 40
3.0000000000000004
 50
44.884706999999999
 51
90.002222000000003
  0
ARC
  8
_0-5_金属
  6
CONTINUOUS
 62
    7
 10
1063.7465499999985
 20
674.52297109510141
 40
3.0000000000000004
 50
90.00194900000001
 51
135.11829000000003
  0
ARC
  8
_0-5_金属
  6
CONTINUOUS
 62
    7
 10
1063.7465499999985
 20
674.52297109510141
 40
1.7999992
 50
90.003315000000001
 51
135.11932999999999
  0
ARC
  8
_0-5_金属
  6
CONTINUOUS
 62
    7
 10
1050.0004499999989
 20
667.52277109510146
 40
1.79999825
 50
224.88334
 51
315.42811999999998
  0
ARC
  8
_0-5_金属
  6
CONTINUOUS
 62
    7
 10
1050.0004499999989
 20
667.52277109510146
 40
2.9999989999999999
 50
224.88334
 51
315.11671000000001
  0
ARC
  8
_0-5_金属
  6
CONTINUOUS
 62
    7
 10
763.74699999999848
 20
674.52322109510192
 40
1.7999992
 50
89.999435000000005
 51
135.11660000000001
  0
ARC
  8
_0-5_金属
  6
CONTINUOUS
 62
    7
 10
763.74674999999911
 20
674.52322109510192
 40
3.0000000000000004
 50
89.997741000000005
 51
135.11528999999999
  0
ARC
  8
_0-5_金属
  6
CONTINUOUS
 62
    7
 10
736.25429999999824
 20
674.52322109510192
 40
3.0000000000000004
 50
44.881701999999997
 51
89.998013999999998
  0
ARC
  8
_0-5_金属
  6
CONTINUOUS
 62
    7
 10
736.25429999999824
 20
674.52322109510192
 40
1.7999992
 50
44.880642999999999
 51
89.996648000000008
  0
ARC
  8
_0-5_金属
  6
CONTINUOUS
 62
    7
 10
750.00039999999785
 20
667.52297109510209
 40
1.79999825
 50
224.57187999999999
 51
315.11669999999998
  0
ARC
  8
_0-5_金属
  6
CONTINUOUS
 62
    7
 10
750.00039999999785
 20
667.52297109510209
 40
2.9999989999999999
 50
224.88328000000001
 51
315.11669999999998
  0
ARC
  8
_0-5_金属
  6
CONTINUOUS
 62
    7
 10
1187.9996999999992
 20
630.72342109510259
 40
3.1999998000000001
 50
270.00006999999994
 51
359.99997999999999
  0
ARC
  8
_0-5_金属
  6
CONTINUOUS
 62
    7
 10
1187.9996999999992
 20
630.72342109510259
 40
1.9999990000000001
 50
270.00006999999994
 51
359.99997999999999
  0
ARC
  8
_0-5_金属
  6
CONTINUOUS
 62
    7
 10
1187.3998499999982
 20
636.12332109510248
 40
1.9999504000000001
 50
89.999927
 51
259.48462000000001
  0
ARC
  8
_0-5_金属
  6
CONTINUOUS
 62
    7
 10
1187.3998499999982
 20
636.12332109510248
 40
3.1999511500000004
 50
89.999927
 51
259.48473000000001
  0
ARC
  8
_0-5_金属
  6
CONTINUOUS
 62
    7
 10
1187.9996999999992
 20
630.72342109510259
 40
1.9999990000000001
 50
359.99999000000003
 51
79.498920999999982
  0
ARC
  8
_0-5_金属
  6
CONTINUOUS
 62
    7
 10
1187.9996999999992
 20
630.72342109510259
 40
3.1999998000000001
 50
359.99999000000003
 51
79.493674999999982
  0
ARC
  8
_0-5_金属
  6
CONTINUOUS
 62
    7
 10
689.03044999999906
 20
674.52322109510192
 40
3.0000000000000004
 50
90.000200000000021
 51
144.05016000000001
  0
ARC
  8
_0-5_金属
  6
CONTINUOUS
 62
    7
 10
689.03044999999906
 20
674.52322109510192
 40
1.7999992
 50
90.000364000000005
 51
144.05026999999998
  0
ARC
  8
_0-5_金属
  6
CONTINUOUS
 62
    7
 10
660.96474999999941
 20
630.52347109510151
 40
2.9999989999999999
 50
269.99990000000003
 51
324.21600000000001
  0
ARC
  8
_0-5_金属
  6
CONTINUOUS
 62
    7
 10
660.96474999999941
 20
630.52347109510151
 40
1.7999992
 50
269.99990000000003
 51
324.21600000000001
  0
ARC
  8
_0-5_金属
  6
CONTINUOUS
 62
    7
 10
681.00039999999922
 20
658.52322109510169
 40
1.9000091499999998
 50
0.000035
 51
85.418946000000005
  0
ARC
  8
_0-5_金属
  6
CONTINUOUS
 62
    7
 10
681.20034999999802
 20
663.52322109510169
 40
1.8999938500000002
 50
180.00009000000003
 51
265.42237
  0
ARC
  8
_0-5_金属
  6
CONTINUOUS
 62
    7
 10
680.90029999999956
 20
658.52322109510169
 40
3.2000122000000002
 50
324.21611000000001
 51
359.99995999999999
  0
ARC
  8
_0-5_金属
  6
CONTINUOUS
 62
    7
 10
681.20034999999802
 20
663.52322109510169
 40
3.0999907999999996
 50
180.00009000000003
 51
265.41831999999999
  0
ARC
  8
_0-5_金属
  6
CONTINUOUS
 62
    7
 10
681.00039999999922
 20
658.52322109510169
 40
3.1000213500000005
 50
0.000035
 51
85.42326300000002
  0
ARC
  8
_0-5_金属
  6
CONTINUOUS
 62
    7
 10
680.90029999999956
 20
658.52322109510169
 40
2.0000114
 50
323.92410000000001
 51
359.99995999999999
  0
ARC
  8
_0-5_金属
  6
CONTINUOUS
 62
    7
 10
681.30044999999882
 20
663.52322109510169
 40
1.9999961500000007
 50
144.05027000000001
 51
179.99995999999999
  0
ARC
  8
_0-5_金属
  6
CONTINUOUS
 62
    7
 10
681.30044999999882
 20
663.52322109510169
 40
3.1999969500000001
 50
144.05005000000003
 51
179.99995999999999
  0
ARC
  8
_0-5_金属
  6
CONTINUOUS
 62
    7
 10
1110.9697499999982
 20
674.52322109510192
 40
3.0000000000000004
 50
35.949770999999998
 51
89.999654000000007
  0
ARC
  8
_0-5_金属
  6
CONTINUOUS
 62
    7
 10
1110.9697499999982
 20
674.52322109510192
 40
1.7999992
 50
35.949661999999996
 51
89.999489999999994
  0
ARC
  8
_0-5_金属
  6
CONTINUOUS
 62
    7
 10
1139.0356499999996
 20
630.52322109510214
 40
2.9999989999999999
 50
215.78405000000001
 51
270.00022999999999
  0
ARC
  8
_0-5_金属
  6
CONTINUOUS
 62
    7
 10
1139.0356499999996
 20
630.52322109510214
 40
1.7999992
 50
215.78405000000001
 51
270.00022999999999
  0
ARC
  8
_0-5_金属
  6
CONTINUOUS
 62
    7
 10
1118.999799999998
 20
658.52322109510169
 40
1.9000091499999998
 50
94.580906999999996
 51
179.9999
  0
ARC
  8
_0-5_金属
  6
CONTINUOUS
 62
    7
 10
1118.7998499999992
 20
663.52322109510169
 40
1.8999938500000002
 50
274.57776999999999
 51
359.99995999999999
  0
ARC
  8
_0-5_金属
  6
CONTINUOUS
 62
    7
 10
1119.0998499999989
 20
658.52322109510169
 40
3.2000122000000002
 50
180.00009000000003
 51
215.78394000000003
  0
ARC
  8
_0-5_金属
  6
CONTINUOUS
 62
    7
 10
1118.7998499999992
 20
663.52322109510169
 40
3.0999907999999996
 50
274.58181000000002
 51
359.99996000000004
  0
ARC
  8
_0-5_金属
  6
CONTINUOUS
 62
    7
 10
1118.999799999998
 20
658.52322109510169
 40
3.1000213500000005
 50
94.576591000000008
 51
179.99990000000003
  0
ARC
  8
_0-5_金属
  6
CONTINUOUS
 62
    7
 10
1119.0998499999989
 20
658.52322109510169
 40
2.0000114
 50
180.00009000000003
 51
216.07594000000003
  0
ARC
  8
_0-5_金属
  6
CONTINUOUS
 62
    7
 10
1118.699949999999
 20
663.52322109510169
 40
1.9999961500000007
 50
0.000035
 51
35.949717000000007
  0
ARC
  8
_0-5_金属
  6
CONTINUOUS
 62
    7
 10
1118.699949999999
 20
663.52322109510169
 40
3.1999969500000001
 50
0.000035
 51
35.949935000000004
  0
ARC
  8
_0-5_金属
  6
CONTINUOUS
 62
    7
 10
810.97014999999942
 20
674.52322109510192
 40
3.0000000000000004
 50
35.949770999999998
 51
89.999654000000007
  0
ARC
  8
_0-5_金属
  6
CONTINUOUS
 62
    7
 10
810.97014999999942
 20
674.52322109510192
 40
1.7999992
 50
35.949661999999996
 51
89.999489999999994
  0
ARC
  8
_0-5_金属
  6
CONTINUOUS
 62
    7
 10
839.03604999999857
 20
630.52347109510151
 40
2.9999989999999999
 50
215.78405000000001
 51
270.00022999999999
  0
ARC
  8
_0-5_金属
  6
CONTINUOUS
 62
    7
 10
839.03604999999857
 20
630.52347109510151
 40
1.7999992
 50
215.78405000000001
 51
270.00022999999999
  0
ARC
  8
_0-5_金属
  6
CONTINUOUS
 62
    7
 10
819.00039999999876
 20
658.52322109510169
 40
1.9000091499999998
 50
94.580906999999996
 51
179.9999
  0
ARC
  8
_0-5_金属
  6
CONTINUOUS
 62
    7
 10
818.80019999999831
 20
663.52322109510169
 40
1.8999938500000002
 50
274.57776999999999
 51
359.99995999999999
  0
ARC
  8
_0-5_金属
  6
CONTINUOUS
 62
    7
 10
819.10024999999905
 20
658.52322109510169
 40
3.2000122000000002
 50
180.00009000000003
 51
215.78394000000003
  0
ARC
  8
_0-5_金属
  6
CONTINUOUS
 62
    7
 10
818.80019999999831
 20
663.52322109510169
 40
3.0999907999999996
 50
274.58181000000002
 51
359.99996000000004
  0
ARC
  8
_0-5_金属
  6
CONTINUOUS
 62
    7
 10
819.00039999999876
 20
658.52322109510169
 40
3.1000213500000005
 50
94.576591000000008
 51
179.99990000000003
  0
ARC
  8
_0-5_金属
  6
CONTINUOUS
 62
    7
 10
819.10024999999905
 20
658.52322109510169
 40
2.0000114
 50
180.00009000000003
 51
216.07594000000003
  0
ARC
  8
_0-5_金属
  6
CONTINUOUS
 62
    7
 10
818.70034999999916
 20
663.52322109510169
 40
1.9999961500000007
 50
0.000035
 51
35.949717000000007
  0
ARC
  8
_0-5_金属
  6
CONTINUOUS
 62
    7
 10
818.70034999999916
 20
663.52322109510169
 40
3.1999969500000001
 50
0.000035
 51
35.949935000000004
  0
ARC
  8
_0-5_金属
  6
CONTINUOUS
 62
    7
 10
886.20009999999866
 20
637.32327109510265
 40
3.1999998000000001
 50
180.00009000000003
 51
236.88223000000005
  0
ARC
  8
_0-5_金属
  6
CONTINUOUS
 62
    7
 10
886.20009999999866
 20
637.32327109510265
 40
1.9999990000000001
 50
180.00009000000003
 51
236.88223000000005
  0
ARC
  8
_0-5_金属
  6
CONTINUOUS
 62
    7
 10
886.79999999999836
 20
630.72342109510259
 40
2
 50
270.00011999999998
 51
56.882114999999992
  0
ARC
  8
_0-5_金属
  6
CONTINUOUS
 62
    7
 10
886.20009999999866
 20
637.32327109510265
 40
1.9999990000000001
 50
89.999927
 51
179.99990000000003
  0
ARC
  8
_0-5_金属
  6
CONTINUOUS
 62
    7
 10
886.20009999999866
 20
637.32327109510265
 40
3.1999998000000001
 50
89.999927
 51
179.99990000000003
  0
ARC
  8
_0-5_金属
  6
CONTINUOUS
 62
    7
 10
886.79999999999836
 20
630.72342109510259
 40
3.2000007500000005
 50
270.00011999999998
 51
56.882114999999992
  0
ARC
  8
_0-5_金属
  6
CONTINUOUS
 62
    7
 10
989.03019999999856
 20
674.52322109510192
 40
3.0000000000000004
 50
90.000200000000021
 51
144.05016000000001
  0
ARC
  8
_0-5_金属
  6
CONTINUOUS
 62
    7
 10
989.03019999999856
 20
674.52322109510192
 40
1.7999992
 50
90.000364000000005
 51
144.05026999999998
  0
ARC
  8
_0-5_金属
  6
CONTINUOUS
 62
    7
 10
960.96429999999941
 20
630.52347109510151
 40
2.9999989999999999
 50
269.99990000000003
 51
324.21602000000001
  0
ARC
  8
_0-5_金属
  6
CONTINUOUS
 62
    7
 10
960.96429999999941
 20
630.52347109510151
 40
1.7999992
 50
269.99990000000003
 51
324.21602000000001
  0
ARC
  8
_0-5_金属
  6
CONTINUOUS
 62
    7
 10
980.99994999999808
 20
658.52322109510169
 40
1.9000091499999998
 50
359.99999000000003
 51
85.418945999999991
  0
ARC
  8
_0-5_金属
  6
CONTINUOUS
 62
    7
 10
981.20009999999866
 20
663.52322109510169
 40
1.8999938500000002
 50
180.00009000000003
 51
265.42237
  0
ARC
  8
_0-5_金属
  6
CONTINUOUS
 62
    7
 10
980.90009999999893
 20
658.52347109510106
 40
3.2000122000000002
 50
324.21614
 51
359.99997999999999
  0
ARC
  8
_0-5_金属
  6
CONTINUOUS
 62
    7
 10
981.20009999999866
 20
663.52322109510169
 40
3.0999907999999996
 50
180.00009000000003
 51
265.41831999999999
  0
ARC
  8
_0-5_金属
  6
CONTINUOUS
 62
    7
 10
980.99994999999808
 20
658.52322109510169
 40
3.1000213500000005
 50
359.99999000000003
 51
85.42326300000002
  0
ARC
  8
_0-5_金属
  6
CONTINUOUS
 62
    7
 10
980.90009999999893
 20
658.52347109510106
 40
2.0000114
 50
323.92412999999999
 51
359.99997999999999
  0
ARC
  8
_0-5_金属
  6
CONTINUOUS
 62
    7
 10
981.29999999999882
 20
663.52322109510169
 40
1.9999961500000007
 50
144.05027000000001
 51
179.99995999999999
  0
ARC
  8
_0-5_金属
  6
CONTINUOUS
 62
    7
 10
981.29999999999882
 20
663.52322109510169
 40
3.1999969500000001
 50
144.05005000000003
 51
179.99995999999999
  0
ARC
  8
_0-5_金属
  6
CONTINUOUS
 62
    7
 10
913.79999999999882
 20
637.32327109510265
 40
3.1999998000000001
 50
303.11786999999998
 51
359.99997999999999
  0
ARC
  8
_0-5_金属
  6
CONTINUOUS
 62
    7
 10
913.79999999999882
 20
637.32327109510265
 40
1.9999990000000001
 50
303.11786999999998
 51
359.99997999999999
  0
ARC
  8
_0-5_金属
  6
CONTINUOUS
 62
    7
 10
913.20009999999911
 20
630.72342109510259
 40
2
 50
123.11782000000001
 51
269.99988999999999
  0
ARC
  8
_0-5_金属
  6
CONTINUOUS
 62
    7
 10
913.79999999999882
 20
637.32327109510265
 40
1.9999990000000001
 50
359.99999000000003
 51
89.999927
  0
ARC
  8
_0-5_金属
  6
CONTINUOUS
 62
    7
 10
913.79999999999882
 20
637.32327109510265
 40
3.1999998000000001
 50
359.99999000000003
 51
89.999927
  0
ARC
  8
_0-5_金属
  6
CONTINUOUS
 62
    7
 10
913.20009999999911
 20
630.72342109510259
 40
3.2000007500000005
 50
123.11782000000001
 51
269.99988999999999
  0
LINE
  8
_0-5_金属
  6
CONTINUOUS
 62
    7
 10
1047.8747499999986
 20
665.40557109510132
 11
1037.5293999999985
 21
675.7931210951017
  0
LINE
  8
_0-5_金属
  6
CONTINUOUS
 62
    7
 10
1048.7250999999981
 20
666.25252109510143
 11
1038.379799999999
 21
676.6400710951018
  0
LINE
  8
_0-5_金属
  6
CONTINUOUS
 62
    7
 10
1062.4710499999981
 20
675.7929210951022
 11
1052.1260999999993
 21
665.40572109510208
  0
LINE
  8
_0-5_金属
  6
CONTINUOUS
 62
    7
 10
1061.6208499999982
 20
676.63967109510168
 11
1051.2758499999984
 21
666.25247109510155
  0
LINE
  8
_0-5_金属
  6
CONTINUOUS
 62
    7
 10
762.47159999999781
 20
675.79347109510195
 11
752.12614999999801
 21
665.40577109510195
  0
LINE
  8
_0-5_金属
  6
CONTINUOUS
 62
    7
 10
761.62109999999871
 20
676.6402710951013
 11
751.27574999999865
 21
666.25272109510206
  0
LINE
  8
_0-5_金属
  6
CONTINUOUS
 62
    7
 10
747.87479999999846
 20
665.40597109510259
 11
737.52984999999853
 21
675.79317109510157
  0
LINE
  8
_0-5_金属
  6
CONTINUOUS
 62
    7
 10
748.72509999999806
 20
666.25277109510193
 11
738.38009999999827
 21
676.64002109510193
  0
LINE
  8
_0-5_金属
  6
CONTINUOUS
 62
    7
 10
1194.1998999999987
 20
639.32327109510197
 11
1194.1998999999987
 21
638.1233210951018
  0
LINE
  8
_0-5_金属
  6
CONTINUOUS
 62
    7
 10
1187.3998499999982
 20
638.1233210951018
 11
1194.1998999999987
 21
638.1233210951018
  0
LINE
  8
_0-5_金属
  6
CONTINUOUS
 62
    7
 10
1186.8157499999995
 20
632.9770710951027
 11
1188.364049999999
 21
632.68982109510148
  0
LINE
  8
_0-5_金属
  6
CONTINUOUS
 62
    7
 10
1187.0346999999981
 20
634.15717109510183
 11
1188.5829999999987
 21
633.86987109510187
  0
LINE
  8
_0-5_金属
  6
CONTINUOUS
 62
    7
 10
689.03069999999843
 20
676.32327109510129
 11
736.25454999999874
 21
676.32327109510129
  0
LINE
  8
_0-5_金属
  6
CONTINUOUS
 62
    7
 10
689.03069999999843
 20
677.52322109510146
 11
736.25454999999874
 21
677.52322109510146
  0
LINE
  8
_0-5_金属
  6
CONTINUOUS
 62
    7
 10
679.68134999999847
 20
664.69757109510169
 11
687.57339999999886
 21
675.58007109510186
  0
LINE
  8
_0-5_金属
  6
CONTINUOUS
 62
    7
 10
682.52289999999789
 20
657.35387109510157
 11
662.42489999999862
 21
629.47087109510221
  0
LINE
  8
_0-5_金属
  6
CONTINUOUS
 62
    7
 10
680.95269999999914
 20
660.43317109510213
 11
681.15194999999858
 21
660.41717109510159
  0
LINE
  8
_0-5_金属
  6
CONTINUOUS
 62
    7
 10
681.04869999999892
 20
661.62947109510128
 11
681.24779999999873
 21
661.61352109510176
  0
LINE
  8
_0-5_金属
  6
CONTINUOUS
 62
    7
 10
683.49634999999921
 20
656.6522710951017
 11
663.3983499999988
 21
628.76922109510247
  0
LINE
  8
_0-5_金属
  6
CONTINUOUS
 62
    7
 10
678.70989999999779
 20
665.40202109510233
 11
686.60204999999905
 21
676.28457109510123
  0
LINE
  8
_0-5_金属
  6
CONTINUOUS
 62
    7
 10
1063.2641999999987
 20
676.32327109510129
 11
1110.9697999999992
 21
676.32327109510129
  0
LINE
  8
_0-5_金属
  6
CONTINUOUS
 62
    7
 10
1063.5748499999988
 20
677.52322109510146
 11
1110.9697999999992
 21
677.52322109510146
  0
LINE
  8
_0-5_金属
  6
CONTINUOUS
 62
    7
 10
1139.0356999999983
 20
628.72342109510214
 11
1187.9996999999992
 21
628.72342109510214
  0
LINE
  8
_0-5_金属
  6
CONTINUOUS
 62
    7
 10
1112.4267999999995
 20
675.57997109510211
 11
1120.3189499999985
 21
664.69732109510119
  0
LINE
  8
_0-5_金属
  6
CONTINUOUS
 62
    7
 10
1137.5752999999986
 20
629.47097109510196
 11
1117.4773999999991
 21
657.35397109510245
  0
LINE
  8
_0-5_金属
  6
CONTINUOUS
 62
    7
 10
1118.848099999999
 20
660.41727109510134
 11
1119.0474499999993
 21
660.433221095102
  0
LINE
  8
_0-5_金属
  6
CONTINUOUS
 62
    7
 10
1118.7524999999994
 20
661.61352109510176
 11
1118.9515499999982
 21
661.62942109510254
  0
LINE
  8
_0-5_金属
  6
CONTINUOUS
 62
    7
 10
1136.6018999999994
 20
628.76932109510221
 11
1116.5039499999989
 21
656.65232109510157
  0
LINE
  8
_0-5_金属
  6
CONTINUOUS
 62
    7
 10
1113.398199999998
 20
676.28442109510274
 11
1121.2903499999982
 21
665.4018210951017
  0
LINE
  8
_0-5_金属
  6
CONTINUOUS
 62
    7
 10
1139.0659499999981
 20
627.52322109510146
 11
1187.9996999999992
 21
627.52322109510146
  0
LINE
  8
_0-5_金属
  6
CONTINUOUS
 62
    7
 10
763.74724999999899
 20
676.32327109510129
 11
810.97014999999942
 21
676.32327109510129
  0
LINE
  8
_0-5_金属
  6
CONTINUOUS
 62
    7
 10
763.74699999999848
 20
677.52322109510146
 11
810.97014999999942
 21
677.52322109510146
  0
LINE
  8
_0-5_金属
  6
CONTINUOUS
 62
    7
 10
839.03604999999857
 20
628.72342109510214
 11
886.80019999999899
 21
628.72342109510214
  0
LINE
  8
_0-5_金属
  6
CONTINUOUS
 62
    7
 10
812.42729999999824
 20
675.58007109510186
 11
820.31944999999837
 21
664.69747109510195
  0
LINE
  8
_0-5_金属
  6
CONTINUOUS
 62
    7
 10
837.57579999999848
 20
629.47092109510209
 11
817.47784999999908
 21
657.35397109510245
  0
LINE
  8
_0-5_金属
  6
CONTINUOUS
 62
    7
 10
818.84859999999776
 20
660.41732109510235
 11
819.04789999999934
 21
660.43327109510187
  0
LINE
  8
_0-5_金属
  6
CONTINUOUS
 62
    7
 10
818.75294999999824
 20
661.61347109510189
 11
818.95204999999919
 21
661.62937109510153
  0
LINE
  8
_0-5_金属
  6
CONTINUOUS
 62
    7
 10
836.60229999999842
 20
628.7692710951012
 11
816.5043999999989
 21
656.6522710951017
  0
LINE
  8
_0-5_金属
  6
CONTINUOUS
 62
    7
 10
813.39874999999893
 20
676.28457109510123
 11
821.29089999999792
 21
665.40192109510258
  0
LINE
  8
_0-5_金属
  6
CONTINUOUS
 62
    7
 10
839.06634999999937
 20
627.52322109510146
 11
886.80019999999899
 21
627.52322109510146
  0
LINE
  8
_0-5_金属
  6
CONTINUOUS
 62
    7
 10
886.20034999999916
 20
639.32327109510197
 11
900.00039999999785
 21
639.32327109510197
  0
LINE
  8
_0-5_金属
  6
CONTINUOUS
 62
    7
 10
887.89294999999811
 20
632.39852109510252
 11
884.45199999999772
 21
634.64322109510135
  0
LINE
  8
_0-5_金属
  6
CONTINUOUS
 62
    7
 10
888.54859999999803
 20
633.40362109510238
 11
885.10764999999878
 21
635.64827109510247
  0
LINE
  8
_0-5_金属
  6
CONTINUOUS
 62
    7
 10
886.20034999999916
 20
640.52322109510101
 11
900.00039999999785
 21
640.52322109510101
  0
LINE
  8
_0-5_金属
  6
CONTINUOUS
 62
    7
 10
989.03044999999906
 20
676.32327109510129
 11
1036.3071999999988
 21
676.32327109510129
  0
LINE
  8
_0-5_金属
  6
CONTINUOUS
 62
    7
 10
989.03044999999906
 20
677.52322109510146
 11
1036.2589499999979
 21
677.52297109510209
  0
LINE
  8
_0-5_金属
  6
CONTINUOUS
 62
    7
 10
913.20034999999848
 20
628.72342109510214
 11
960.96454999999878
 21
628.72342109510214
  0
LINE
  8
_0-5_金属
  6
CONTINUOUS
 62
    7
 10
979.68094999999835
 20
664.69757109510169
 11
987.57294999999772
 21
675.58002109510198
  0
LINE
  8
_0-5_金属
  6
CONTINUOUS
 62
    7
 10
982.52239999999915
 20
657.35392109510144
 11
962.42449999999849
 21
629.47097109510196
  0
LINE
  8
_0-5_金属
  6
CONTINUOUS
 62
    7
 10
980.95254999999838
 20
660.433221095102
 11
981.1520999999982
 21
660.4172210951026
  0
LINE
  8
_0-5_金属
  6
CONTINUOUS
 62
    7
 10
981.04864999999904
 20
661.62937109510153
 11
981.24749999999835
 21
661.61347109510189
  0
LINE
  8
_0-5_金属
  6
CONTINUOUS
 62
    7
 10
983.49599999999896
 20
656.65212109510207
 11
963.39814999999817
 21
628.76917109510146
  0
LINE
  8
_0-5_金属
  6
CONTINUOUS
 62
    7
 10
978.70954999999867
 20
665.40207109510106
 11
986.60169999999766
 21
676.28467109510098
  0
LINE
  8
_0-5_金属
  6
CONTINUOUS
 62
    7
 10
913.20034999999848
 20
627.52322109510146
 11
960.93424999999911
 21
627.52322109510146
  0
LINE
  8
_0-5_金属
  6
CONTINUOUS
 62
    7
 10
900.00039999999785
 20
639.32327109510197
 11
913.80019999999945
 21
639.32327109510197
  0
LINE
  8
_0-5_金属
  6
CONTINUOUS
 62
    7
 10
915.54854999999861
 20
634.64322109510135
 11
912.10739999999873
 21
632.39842109510164
  0
LINE
  8
_0-5_金属
  6
CONTINUOUS
 62
    7
 10
914.89294999999856
 20
635.64822109510146
 11
911.45179999999868
 21
633.40347109510162
  0
LINE
  8
_0-5_金属
  6
CONTINUOUS
 62
    7
 10
900.00039999999785
 20
640.52322109510101
 11
913.80019999999945
 21
640.52322109510101
  0
ARC
  8
_0-5_金属
  6
CONTINUOUS
 62
    7
 10
1363.7469999999985
 20
674.52322109510192
 40
1.7999992
 50
89.999435000000005
 51
135.11660000000001
  0
ARC
  8
_0-5_金属
  6
CONTINUOUS
 62
    7
 10
1363.7467499999991
 20
674.52322109510192
 40
3.0000000000000004
 50
89.997741000000005
 51
135.11528999999999
  0
ARC
  8
_0-5_金属
  6
CONTINUOUS
 62
    7
 10
1336.2542999999982
 20
674.52322109510192
 40
3.0000000000000004
 50
44.881701999999997
 51
89.998013999999998
  0
ARC
  8
_0-5_金属
  6
CONTINUOUS
 62
    7
 10
1336.2542999999982
 20
674.52322109510192
 40
1.7999992
 50
44.880642999999999
 51
89.996648000000008
  0
ARC
  8
_0-5_金属
  6
CONTINUOUS
 62
    7
 10
1350.0003999999979
 20
667.52297109510209
 40
1.79999825
 50
224.57187999999999
 51
315.11669999999998
  0
ARC
  8
_0-5_金属
  6
CONTINUOUS
 62
    7
 10
1350.0003999999979
 20
667.52297109510209
 40
2.9999989999999999
 50
224.88328000000001
 51
315.11669999999998
  0
ARC
  8
_0-5_金属
  6
CONTINUOUS
 62
    7
 10
1187.4010499999986
 20
636.12332109510248
 40
4.4001951000000004
 50
180.00009000000003
 51
216.22041000000002
  0
ARC
  8
_0-5_金属
  6
CONTINUOUS
 62
    7
 10
1187.4010499999986
 20
636.12332109510248
 40
3.2001952999999999
 50
180.00009000000003
 51
216.22260000000003
  0
ARC
  8
_0-5_金属
  6
CONTINUOUS
 62
    7
 10
1186.2005999999985
 20
637.32327109510265
 40
1.9999990000000001
 50
89.999927
 51
179.99990000000003
  0
ARC
  8
_0-5_金属
  6
CONTINUOUS
 62
    7
 10
1186.2005999999985
 20
637.32327109510265
 40
3.1999998000000001
 50
89.999927
 51
179.99990000000003
  0
ARC
  8
_0-5_金属
  6
CONTINUOUS
 62
    7
 10
1289.0304499999991
 20
674.52322109510192
 40
3.0000000000000004
 50
90.000200000000021
 51
144.05016000000001
  0
ARC
  8
_0-5_金属
  6
CONTINUOUS
 62
    7
 10
1289.0304499999991
 20
674.52322109510192
 40
1.7999992
 50
90.000364000000005
 51
144.05026999999998
  0
ARC
  8
_0-5_金属
  6
CONTINUOUS
 62
    7
 10
1260.9647499999994
 20
630.52347109510151
 40
2.9999989999999999
 50
269.99990000000003
 51
324.21600000000001
  0
ARC
  8
_0-5_金属
  6
CONTINUOUS
 62
    7
 10
1260.9647499999994
 20
630.52347109510151
 40
1.7999992
 50
269.99990000000003
 51
324.21600000000001
  0
ARC
  8
_0-5_金属
  6
CONTINUOUS
 62
    7
 10
1281.0003999999992
 20
658.52322109510169
 40
1.9000091499999998
 50
0.000035
 51
85.418946000000005
  0
ARC
  8
_0-5_金属
  6
CONTINUOUS
 62
    7
 10
1281.200349999998
 20
663.52322109510169
 40
1.8999938500000002
 50
180.00009000000003
 51
265.42237
  0
ARC
  8
_0-5_金属
  6
CONTINUOUS
 62
    7
 10
1280.9002999999996
 20
658.52322109510169
 40
3.2000122000000002
 50
324.21611000000001
 51
359.99995999999999
  0
ARC
  8
_0-5_金属
  6
CONTINUOUS
 62
    7
 10
1281.200349999998
 20
663.52322109510169
 40
3.0999907999999996
 50
180.00009000000003
 51
265.41831999999999
  0
ARC
  8
_0-5_金属
  6
CONTINUOUS
 62
    7
 10
1281.0003999999992
 20
658.52322109510169
 40
3.1000213500000005
 50
0.000035
 51
85.42326300000002
  0
ARC
  8
_0-5_金属
  6
CONTINUOUS
 62
    7
 10
1280.9002999999996
 20
658.52322109510169
 40
2.0000114
 50
323.92410000000001
 51
359.99995999999999
  0
ARC
  8
_0-5_金属
  6
CONTINUOUS
 62
    7
 10
1281.3004499999988
 20
663.52322109510169
 40
1.9999961500000007
 50
144.05027000000001
 51
179.99995999999999
  0
ARC
  8
_0-5_金属
  6
CONTINUOUS
 62
    7
 10
1281.3004499999988
 20
663.52322109510169
 40
3.1999969500000001
 50
144.05005000000003
 51
179.99995999999999
  0
ARC
  8
_0-5_金属
  6
CONTINUOUS
 62
    7
 10
1213.8004499999988
 20
637.32327109510265
 40
3.1999998000000001
 50
303.11781999999999
 51
359.99995999999999
  0
ARC
  8
_0-5_金属
  6
CONTINUOUS
 62
    7
 10
1213.8004499999988
 20
637.32327109510265
 40
1.9999990000000001
 50
303.11781999999999
 51
359.99995999999999
  0
ARC
  8
_0-5_金属
  6
CONTINUOUS
 62
    7
 10
1213.200599999999
 20
630.72342109510259
 40
2
 50
123.11782000000001
 51
269.99982999999997
  0
ARC
  8
_0-5_金属
  6
CONTINUOUS
 62
    7
 10
1213.8004499999988
 20
637.32327109510265
 40
1.9999990000000001
 50
0.000035
 51
89.999927
  0
ARC
  8
_0-5_金属
  6
CONTINUOUS
 62
    7
 10
1213.8004499999988
 20
637.32327109510265
 40
3.1999998000000001
 50
0.000035
 51
89.999927
  0
ARC
  8
_0-5_金属
  6
CONTINUOUS
 62
    7
 10
1213.200599999999
 20
630.72342109510259
 40
3.2000007500000005
 50
123.11782000000001
 51
269.99982999999997
  0
ARC
  8
_0-5_金属
  6
CONTINUOUS
 62
    7
 10
1410.9701499999994
 20
674.52322109510192
 40
3.0000000000000004
 50
35.949770999999998
 51
89.999654000000007
  0
ARC
  8
_0-5_金属
  6
CONTINUOUS
 62
    7
 10
1410.9701499999994
 20
674.52322109510192
 40
1.7999992
 50
35.949661999999996
 51
89.999489999999994
  0
ARC
  8
_0-5_金属
  6
CONTINUOUS
 62
    7
 10
1439.0360499999986
 20
630.52347109510151
 40
2.9999989999999999
 50
215.78405000000001
 51
270.00022999999999
  0
ARC
  8
_0-5_金属
  6
CONTINUOUS
 62
    7
 10
1439.0360499999986
 20
630.52347109510151
 40
1.7999992
 50
215.78405000000001
 51
270.00022999999999
  0
ARC
  8
_0-5_金属
  6
CONTINUOUS
 62
    7
 10
1419.0003999999988
 20
658.52322109510169
 40
1.9000091499999998
 50
94.580906999999996
 51
179.9999
  0
ARC
  8
_0-5_金属
  6
CONTINUOUS
 62
    7
 10
1418.8001999999983
 20
663.52322109510169
 40
1.8999938500000002
 50
274.57776999999999
 51
359.99995999999999
  0
ARC
  8
_0-5_金属
  6
CONTINUOUS
 62
    7
 10
1419.1002499999991
 20
658.52322109510169
 40
3.2000122000000002
 50
180.00009000000003
 51
215.78394000000003
  0
ARC
  8
_0-5_金属
  6
CONTINUOUS
 62
    7
 10
1418.8001999999983
 20
663.52322109510169
 40
3.0999907999999996
 50
274.58181000000002
 51
359.99996000000004
  0
ARC
  8
_0-5_金属
  6
CONTINUOUS
 62
    7
 10
1419.0003999999988
 20
658.52322109510169
 40
3.1000213500000005
 50
94.576591000000008
 51
179.99990000000003
  0
ARC
  8
_0-5_金属
  6
CONTINUOUS
 62
    7
 10
1419.1002499999991
 20
658.52322109510169
 40
2.0000114
 50
180.00009000000003
 51
216.07594000000003
  0
ARC
  8
_0-5_金属
  6
CONTINUOUS
 62
    7
 10
1418.7003499999992
 20
663.52322109510169
 40
1.9999961500000007
 50
0.000035
 51
35.949717000000007
  0
ARC
  8
_0-5_金属
  6
CONTINUOUS
 62
    7
 10
1418.7003499999992
 20
663.52322109510169
 40
3.1999969500000001
 50
0.000035
 51
35.949935000000004
  0
LINE
  8
_0-5_金属
  6
CONTINUOUS
 62
    7
 10
1362.4715999999978
 20
675.79347109510195
 11
1352.126149999998
 21
665.40577109510195
  0
LINE
  8
_0-5_金属
  6
CONTINUOUS
 62
    7
 10
1361.6210999999987
 20
676.6402710951013
 11
1351.2757499999987
 21
666.25272109510206
  0
LINE
  8
_0-5_金属
  6
CONTINUOUS
 62
    7
 10
1347.8747999999985
 20
665.40597109510259
 11
1337.5298499999985
 21
675.79317109510157
  0
LINE
  8
_0-5_金属
  6
CONTINUOUS
 62
    7
 10
1348.7250999999981
 20
666.25277109510193
 11
1338.3800999999983
 21
676.64002109510193
  0
LINE
  8
_0-5_金属
  6
CONTINUOUS
 62
    7
 10
1187.4009999999987
 20
636.12337109510122
 11
1183.8511999999992
 21
633.52332109510257
  0
LINE
  8
_0-5_金属
  6
CONTINUOUS
 62
    7
 10
1183.0013999999983
 20
636.12337109510122
 11
1187.4015499999985
 21
636.12337109510122
  0
LINE
  8
_0-5_金属
  6
CONTINUOUS
 62
    7
 10
1183.8515499999983
 20
633.52372109510156
 11
1184.8197999999991
 21
634.23292109510157
  0
LINE
  8
_0-5_金属
  6
CONTINUOUS
 62
    7
 10
1183.0011499999989
 20
637.32327109510265
 11
1183.0011499999989
 21
636.12332109510248
  0
LINE
  8
_0-5_金属
  6
CONTINUOUS
 62
    7
 10
1184.2010999999991
 20
637.32327109510265
 11
1184.2010999999991
 21
636.12332109510248
  0
LINE
  8
_0-5_金属
  6
CONTINUOUS
 62
    7
 10
1186.200849999999
 20
639.32327109510197
 11
1200.0008999999989
 21
639.32327109510197
  0
LINE
  8
_0-5_金属
  6
CONTINUOUS
 62
    7
 10
1186.200849999999
 20
640.52322109510101
 11
1200.0008999999989
 21
640.52322109510101
  0
LINE
  8
_0-5_金属
  6
CONTINUOUS
 62
    7
 10
1289.0306999999984
 20
676.32327109510129
 11
1336.2545499999987
 21
676.32327109510129
  0
LINE
  8
_0-5_金属
  6
CONTINUOUS
 62
    7
 10
1289.0306999999984
 20
677.52322109510146
 11
1336.2545499999987
 21
677.52322109510146
  0
LINE
  8
_0-5_金属
  6
CONTINUOUS
 62
    7
 10
1213.2008499999984
 20
628.72342109510214
 11
1260.9647499999994
 21
628.72342109510214
  0
LINE
  8
_0-5_金属
  6
CONTINUOUS
 62
    7
 10
1279.6813499999985
 20
664.69757109510169
 11
1287.5733999999989
 21
675.58007109510186
  0
LINE
  8
_0-5_金属
  6
CONTINUOUS
 62
    7
 10
1282.5228999999979
 20
657.35387109510157
 11
1262.4248999999986
 21
629.47087109510221
  0
LINE
  8
_0-5_金属
  6
CONTINUOUS
 62
    7
 10
1280.9526999999991
 20
660.43317109510213
 11
1281.1519499999986
 21
660.41717109510159
  0
LINE
  8
_0-5_金属
  6
CONTINUOUS
 62
    7
 10
1281.0486999999989
 20
661.62947109510128
 11
1281.2477999999987
 21
661.61352109510176
  0
LINE
  8
_0-5_金属
  6
CONTINUOUS
 62
    7
 10
1283.4963499999992
 20
656.6522710951017
 11
1263.3983499999988
 21
628.76922109510247
  0
LINE
  8
_0-5_金属
  6
CONTINUOUS
 62
    7
 10
1278.7098999999978
 20
665.40202109510233
 11
1286.6020499999991
 21
676.28457109510123
  0
LINE
  8
_0-5_金属
  6
CONTINUOUS
 62
    7
 10
1213.2008499999984
 20
627.52322109510146
 11
1260.9344999999996
 21
627.52322109510146
  0
LINE
  8
_0-5_金属
  6
CONTINUOUS
 62
    7
 10
1200.0008999999989
 20
639.32327109510197
 11
1213.8006999999982
 21
639.32327109510197
  0
LINE
  8
_0-5_金属
  6
CONTINUOUS
 62
    7
 10
1215.548799999998
 20
634.64327109510236
 11
1212.1078499999987
 21
632.39862109510227
  0
LINE
  8
_0-5_金属
  6
CONTINUOUS
 62
    7
 10
1214.8931999999979
 20
635.64832109510121
 11
1211.4521999999988
 21
633.40362109510238
  0
LINE
  8
_0-5_金属
  6
CONTINUOUS
 62
    7
 10
1200.0008999999989
 20
640.52322109510101
 11
1213.8006999999982
 21
640.52322109510101
  0
LINE
  8
_0-5_金属
  6
CONTINUOUS
 62
    7
 10
1363.747249999999
 20
676.32327109510129
 11
1410.9701499999994
 21
676.32327109510129
  0
LINE
  8
_0-5_金属
  6
CONTINUOUS
 62
    7
 10
1363.7469999999985
 20
677.52322109510146
 11
1410.9701499999994
 21
677.52322109510146
  0
LINE
  8
_0-5_金属
  6
CONTINUOUS
 62
    7
 10
1412.4272999999982
 20
675.58007109510186
 11
1420.3194499999984
 21
664.69747109510195
  0
LINE
  8
_0-5_金属
  6
CONTINUOUS
 62
    7
 10
1437.5757999999985
 20
629.47092109510209
 11
1417.4778499999991
 21
657.35397109510245
  0
LINE
  8
_0-5_金属
  6
CONTINUOUS
 62
    7
 10
1418.8485999999978
 20
660.41732109510235
 11
1419.0478999999993
 21
660.43327109510187
  0
LINE
  8
_0-5_金属
  6
CONTINUOUS
 62
    7
 10
1418.7529499999982
 20
661.61347109510189
 11
1418.9520499999992
 21
661.62937109510153
  0
LINE
  8
_0-5_金属
  6
CONTINUOUS
 62
    7
 10
1436.6022999999984
 20
628.7692710951012
 11
1416.5043999999989
 21
656.6522710951017
  0
LINE
  8
_0-5_金属
  6
CONTINUOUS
 62
    7
 10
1413.3987499999989
 20
676.28457109510123
 11
1421.2908999999979
 21
665.40192109510258
  0
ARC
  8
_0-1_線色１__水色__
  6
CONTINUOUS
 62
    4
 10
1052.6929953230308
 20
715.98130441686067
 40
1.2083333333333581
 50
307.52351320333912
 51
232.47648680464988
  0
ARC
  8
_0-1_線色１__水色__
  6
CONTINUOUS
 62
    4
 10
1051.2210351788246
 20
714.06463775005591
 40
1.2083333333333179
 50
127.52351320610693
 51
52.47648680188081
  0
ARC
  8
_0-1_線色１__水色__
  6
CONTINUOUS
 62
    4
 10
1049.7490750343479
 20
715.98130441665603
 40
1.2083333333333581
 50
307.52351320333912
 51
232.47648680464988
  0
ARC
  8
_0-1_線色１__水色__
  6
CONTINUOUS
 62
    4
 10
1048.2771148901418
 20
714.06463774985127
 40
1.2083333333333179
 50
127.52351320610693
 51
52.47648680188081
  0
ARC
  8
_0-1_線色１__水色__
  6
CONTINUOUS
 62
    4
 10
1046.805154745665
 20
715.98130441645139
 40
1.2083333333333581
 50
307.52351320333912
 51
232.47648680464988
  0
ARC
  8
_0-1_線色１__水色__
  6
CONTINUOUS
 62
    4
 10
1045.3331946014589
 20
714.0646377496455
 40
1.2083333333333179
 50
127.52351320610693
 51
52.47648680188081
  0
ARC
  8
_0-1_線色１__水色__
  6
CONTINUOUS
 62
    4
 10
1054.1649554675087
 20
714.0646377496455
 40
1.2083333333333179
 50
127.52351320610693
 51
52.47648680188081
  0
LINE
  8
_0-2_線色２__白__
  6
CONTINUOUS
 62
    7
 10
641.48239966434971
 20
712.5229710933661
 11
1458.5176003356503
 21
712.5229710933661
  0
LINE
  8
_0-2_線色２__白__
  6
CONTINUOUS
 62
    7
 10
641.48239966434971
 20
717.5229710933661
 11
1458.5176003356503
 21
717.5229710933661
  0
LINE
  8
_0-a_文字
  6
CONTINUOUS
 62
    7
 10
1153.6192947895574
 20
627.52322109510146
 11
1178.0519939784961
 21
585.20454473381392
  0
LINE
  8
_0-a_文字
  6
CONTINUOUS
 62
    7
 10
1178.0519939784961
 20
585.20454473381392
 11
1198.0519939784961
 21
585.20454473381392
  0
LINE
  8
_0-d_断熱__ハッチ
  6
CONTINUOUS
 62
    4
 10
1055.6763688235662
 20
712.5229710933661
 11
1090.6763688235662
 21
677.5229710933661
  0
LINE
  8
_0-d_断熱__ハッチ
  6
CONTINUOUS
 62
    4
 10
970.8235550811753
 20
712.5229710933661
 11
1005.8235550811753
 21
677.5229710933661
  0
TEXT
  8
_0-a_文字
 62
    7
 10
801.27456121898717
 20
759.99623267557922
 40
15.00000000000008
 41
0.9999999999999992
 50
0
  1
断熱材
  0
LINE
  8
_0-d_断熱__ハッチ
  6
CONTINUOUS
 62
    4
 10
1413.1711623209378
 20
677.52297109336496
 11
1448.1711623209401
 21
712.5229710933661
  0
LINE
  8
_0-d_断熱__ハッチ
  6
CONTINUOUS
 62
    4
 10
1384.8868910734825
 20
677.5229710933661
 11
1419.8868910734825
 21
712.5229710933661
  0
LINE
  8
_0-d_断熱__ハッチ
  6
CONTINUOUS
 62
    4
 10
1356.6026198260136
 20
677.52297109336496
 11
1391.6026198260158
 21
712.5229710933661
  0
LINE
  8
_0-d_断熱__ハッチ
  6
CONTINUOUS
 62
    4
 10
1328.3183485785582
 20
677.5229710933661
 11
1363.3183485785582
 21
712.5229710933661
  0
LINE
  8
_0-d_断熱__ハッチ
  6
CONTINUOUS
 62
    4
 10
1300.0340773310916
 20
677.52297109336496
 11
1335.0340773310916
 21
712.5229710933661
  0
LINE
  8
_0-d_断熱__ハッチ
  6
CONTINUOUS
 62
    4
 10
1271.749806083634
 20
677.5229710933661
 11
1306.749806083634
 21
712.5229710933661
  0
LINE
  8
_0-d_断熱__ハッチ
  6
CONTINUOUS
 62
    4
 10
1243.4655348361673
 20
677.5229710933661
 11
1278.4655348361673
 21
712.5229710933661
  0
LINE
  8
_0-d_断熱__ハッチ
  6
CONTINUOUS
 62
    4
 10
1215.1812635887097
 20
677.5229710933661
 11
1250.1812635887097
 21
712.5229710933661
  0
LINE
  8
_0-d_断熱__ハッチ
  6
CONTINUOUS
 62
    4
 10
1186.896992341243
 20
677.5229710933661
 11
1221.896992341243
 21
712.5229710933661
  0
LINE
  8
_0-d_断熱__ハッチ
  6
CONTINUOUS
 62
    4
 10
1158.6127210937855
 20
677.52297109336723
 11
1193.6127210937855
 21
712.5229710933661
  0
LINE
  8
_0-d_断熱__ハッチ
  6
CONTINUOUS
 62
    4
 10
1130.3284498463188
 20
677.5229710933661
 11
1165.3284498463188
 21
712.5229710933661
  0
LINE
  8
_0-d_断熱__ハッチ
  6
CONTINUOUS
 62
    4
 10
1102.0441785988612
 20
677.52297109336723
 11
1137.0441785988612
 21
712.5229710933661
  0
LINE
  8
_0-d_断熱__ハッチ
  6
CONTINUOUS
 62
    4
 10
988.90709360901269
 20
677.52297109336496
 11
1023.9070936090127
 21
712.5229710933661
  0
LINE
  8
_0-d_断熱__ハッチ
  6
CONTINUOUS
 62
    4
 10
960.62282236155511
 20
677.5229710933661
 11
995.62282236155511
 21
712.5229710933661
  0
LINE
  8
_0-d_断熱__ハッチ
  6
CONTINUOUS
 62
    4
 10
932.33855111408616
 20
677.52297109336382
 11
967.33855111408843
 21
712.5229710933661
  0
LINE
  8
_0-d_断熱__ハッチ
  6
CONTINUOUS
 62
    4
 10
904.05427986663085
 20
677.5229710933661
 11
939.05427986663085
 21
712.5229710933661
  0
LINE
  8
_0-d_断熱__ハッチ
  6
CONTINUOUS
 62
    4
 10
875.7700086191619
 20
677.52297109336382
 11
910.77000861916417
 21
712.5229710933661
  0
LINE
  8
_0-d_断熱__ハッチ
  6
CONTINUOUS
 62
    4
 10
847.48573737170659
 20
677.5229710933661
 11
882.48573737170659
 21
712.5229710933661
  0
LINE
  8
_0-d_断熱__ハッチ
  6
CONTINUOUS
 62
    4
 10
819.20146612423764
 20
677.52297109336382
 11
854.20146612423991
 21
712.5229710933661
  0
LINE
  8
_0-d_断熱__ハッチ
  6
CONTINUOUS
 62
    4
 10
790.91719487678233
 20
677.5229710933661
 11
825.91719487678233
 21
712.5229710933661
  0
LINE
  8
_0-d_断熱__ハッチ
  6
CONTINUOUS
 62
    4
 10
762.63292362931338
 20
677.52297109336382
 11
797.63292362931566
 21
712.5229710933661
  0
LINE
  8
_0-d_断熱__ハッチ
  6
CONTINUOUS
 62
    4
 10
734.34865238185807
 20
677.52297109336723
 11
769.34865238185807
 21
712.5229710933661
  0
LINE
  8
_0-d_断熱__ハッチ
  6
CONTINUOUS
 62
    4
 10
706.06438113438912
 20
677.52297109336382
 11
741.0643811343914
 21
712.5229710933661
  0
LINE
  8
_0-d_断熱__ハッチ
  6
CONTINUOUS
 62
    4
 10
677.78010988693381
 20
677.52297109336723
 11
712.78010988693381
 21
712.5229710933661
  0
LINE
  8
_0-d_断熱__ハッチ
  6
CONTINUOUS
 62
    4
 10
649.49583863946486
 20
677.52297109336496
 11
684.49583863946714
 21
712.5229710933661
  0
LINE
  8
_0-d_断熱__ハッチ
  6
CONTINUOUS
 62
    4
 10
659.69657135909642
 20
712.5229710933661
 11
694.69657135909642
 21
677.52297109336723
  0
LINE
  8
_0-d_断熱__ハッチ
  6
CONTINUOUS
 62
    4
 10
687.9808426065631
 20
712.5229710933661
 11
722.98084260656537
 21
677.52297109336496
  0
LINE
  8
_0-d_断熱__ハッチ
  6
CONTINUOUS
 62
    4
 10
716.26511385402068
 20
712.5229710933661
 11
751.26511385402068
 21
677.52297109336723
  0
LINE
  8
_0-d_断熱__ハッチ
  6
CONTINUOUS
 62
    4
 10
744.54938510148736
 20
712.5229710933661
 11
779.54938510148963
 21
677.52297109336496
  0
LINE
  8
_0-d_断熱__ハッチ
  6
CONTINUOUS
 62
    4
 10
772.83365634894494
 20
712.5229710933661
 11
807.83365634894494
 21
677.5229710933661
  0
LINE
  8
_0-d_断熱__ハッチ
  6
CONTINUOUS
 62
    4
 10
801.11792759641162
 20
712.5229710933661
 11
836.11792759641162
 21
677.5229710933661
  0
LINE
  8
_0-d_断熱__ハッチ
  6
CONTINUOUS
 62
    4
 10
829.4021988438692
 20
712.5229710933661
 11
864.4021988438692
 21
677.5229710933661
  0
LINE
  8
_0-d_断熱__ハッチ
  6
CONTINUOUS
 62
    4
 10
857.68647009133588
 20
712.5229710933661
 11
892.68647009133588
 21
677.5229710933661
  0
LINE
  8
_0-d_断熱__ハッチ
  6
CONTINUOUS
 62
    4
 10
885.97074133879346
 20
712.5229710933661
 11
920.97074133879346
 21
677.5229710933661
  0
LINE
  8
_0-d_断熱__ハッチ
  6
CONTINUOUS
 62
    4
 10
914.25501258625104
 20
712.5229710933661
 11
949.25501258625104
 21
677.5229710933661
  0
LINE
  8
_0-d_断熱__ハッチ
  6
CONTINUOUS
 62
    4
 10
942.53928383371772
 20
712.5229710933661
 11
977.53928383371999
 21
677.52297109336382
  0
LINE
  8
_0-d_断熱__ハッチ
  6
CONTINUOUS
 62
    4
 10
1083.9606400710238
 20
712.5229710933661
 11
1118.9606400710238
 21
677.5229710933661
  0
LINE
  8
_0-d_断熱__ハッチ
  6
CONTINUOUS
 62
    4
 10
1112.2449113184905
 20
712.5229710933661
 11
1147.2449113184928
 21
677.52297109336496
  0
LINE
  8
_0-d_断熱__ハッチ
  6
CONTINUOUS
 62
    4
 10
1140.5291825659481
 20
712.5229710933661
 11
1175.5291825659481
 21
677.5229710933661
  0
LINE
  8
_0-d_断熱__ハッチ
  6
CONTINUOUS
 62
    4
 10
1168.8134538134148
 20
712.5229710933661
 11
1203.813453813417
 21
677.52297109336496
  0
LINE
  8
_0-d_断熱__ハッチ
  6
CONTINUOUS
 62
    4
 10
1197.0977250608723
 20
712.5229710933661
 11
1232.0977250608723
 21
677.5229710933661
  0
LINE
  8
_0-d_断熱__ハッチ
  6
CONTINUOUS
 62
    4
 10
1225.381996308339
 20
712.5229710933661
 11
1260.381996308339
 21
677.5229710933661
  0
LINE
  8
_0-d_断熱__ハッチ
  6
CONTINUOUS
 62
    4
 10
1253.6662675557966
 20
712.5229710933661
 11
1288.6662675557966
 21
677.5229710933661
  0
LINE
  8
_0-d_断熱__ハッチ
  6
CONTINUOUS
 62
    4
 10
1281.9505388032633
 20
712.5229710933661
 11
1316.9505388032633
 21
677.5229710933661
  0
LINE
  8
_0-d_断熱__ハッチ
  6
CONTINUOUS
 62
    4
 10
1310.2348100507209
 20
712.5229710933661
 11
1345.2348100507209
 21
677.5229710933661
  0
LINE
  8
_0-d_断熱__ハッチ
  6
CONTINUOUS
 62
    4
 10
1338.5190812981875
 20
712.5229710933661
 11
1373.5190812981875
 21
677.5229710933661
  0
LINE
  8
_0-d_断熱__ハッチ
  6
CONTINUOUS
 62
    4
 10
1366.8033525456451
 20
712.5229710933661
 11
1401.8033525456451
 21
677.52297109336723
  0
LINE
  8
_0-d_断熱__ハッチ
  6
CONTINUOUS
 62
    4
 10
1395.0876237931118
 20
712.5229710933661
 11
1430.0876237931118
 21
677.5229710933661
  0
LINE
  8
_0-d_断熱__ハッチ
  6
CONTINUOUS
 62
    4
 10
1423.3718950405694
 20
712.5229710933661
 11
1458.3718950405694
 21
677.52297109336723
  0
LINE
  8
_0-d_断熱__ハッチ
  6
CONTINUOUS
 62
    4
 10
1451.656166288027
 20
712.5229710933661
 11
1458.5176003356503
 21
705.6615370457439
  0
LINE
  8
_0-d_断熱__ハッチ
  6
CONTINUOUS
 62
    4
 10
641.48239966434744
 20
697.79380336570398
 11
656.21156739200956
 21
712.5229710933661
  0
TEXT
  8
_0-a_文字
 62
    7
 10
801.27456121898717
 20
809.99623267557922
 40
15.000000000000124
 41
0.9999999999999912
 50
0
  1
塩ビシート 機械的固定工法
  0
TEXT
  8
_0-a_文字
 62
    7
 10
801.27456121898717
 20
784.99623267557922
 40
15.000000000000036
 41
1.0000000000000004
 50
0
  1
ラジアルシートＬ６００
  0
LINE
  8
_0-a_文字
  6
CONTINUOUS
 62
    7
 10
747.40704775950576
 20
767.49623267557922
 11
796.27456121898717
 21
767.49623267557922
  0
LINE
  8
_0-a_文字
  6
CONTINUOUS
 62
    7
 10
761.84080448924647
 20
792.49623267557922
 11
796.27456121898717
 21
792.49623267557922
  0
LINE
  8
_0-a_文字
  6
CONTINUOUS
 62
    7
 10
776.27456121898717
 20
817.49623267557922
 11
796.27456121898717
 21
817.49623267557922
  0
ARC
  8
_0-1_線色１__水色__
  6
CONTINUOUS
 62
    4
 10
1423.6269516968571
 20
715.98130443615787
 40
1.2083333333333581
 50
307.52351320333912
 51
232.47648680464988
  0
ARC
  8
_0-1_線色１__水色__
  6
CONTINUOUS
 62
    4
 10
1425.0989118413315
 20
714.06463776955775
 40
1.2083333333333179
 50
127.52351320610693
 51
52.47648680188081
  0
ARC
  8
_0-1_線色１__水色__
  6
CONTINUOUS
 62
    4
 10
1420.6830314081742
 20
715.9813044359521
 40
1.2083333333333581
 50
307.52351320333912
 51
232.47648680464988
  0
ARC
  8
_0-1_線色１__水色__
  6
CONTINUOUS
 62
    4
 10
1422.1549915526487
 20
714.06463776935311
 40
1.2083333333333179
 50
127.52351320610693
 51
52.47648680188081
  0
ARC
  8
_0-1_線色１__水色__
  6
CONTINUOUS
 62
    4
 10
1417.7391111194913
 20
715.98130443574632
 40
1.2083333333333581
 50
307.52351320333912
 51
232.47648680464988
  0
ARC
  8
_0-1_線色１__水色__
  6
CONTINUOUS
 62
    4
 10
1419.2110712639658
 20
714.06463776914734
 40
1.2083333333333179
 50
127.52351320610693
 51
52.47648680188081
  0
ARC
  8
_0-1_線色１__水色__
  6
CONTINUOUS
 62
    4
 10
1414.7951908308062
 20
715.98130443554169
 40
1.2083333333333581
 50
307.52351320333912
 51
232.47648680464988
  0
ARC
  8
_0-1_線色１__水色__
  6
CONTINUOUS
 62
    4
 10
1416.2671509752829
 20
714.06463776894157
 40
1.2083333333333179
 50
127.52351320610693
 51
52.47648680188081
  0
ARC
  8
_0-1_線色１__水色__
  6
CONTINUOUS
 62
    4
 10
1411.8512705421233
 20
715.98130443533705
 40
1.2083333333333581
 50
307.52351320333912
 51
232.47648680464988
  0
ARC
  8
_0-1_線色１__水色__
  6
CONTINUOUS
 62
    4
 10
1413.3232306865978
 20
714.06463776873693
 40
1.2083333333333179
 50
127.52351320610693
 51
52.47648680188081
  0
ARC
  8
_0-1_線色１__水色__
  6
CONTINUOUS
 62
    4
 10
1408.9073502534404
 20
715.98130443513128
 40
1.2083333333333581
 50
307.52351320333912
 51
232.47648680464988
  0
ARC
  8
_0-1_線色１__水色__
  6
CONTINUOUS
 62
    4
 10
1410.3793103979149
 20
714.06463776853229
 40
1.2083333333333179
 50
127.52351320610693
 51
52.47648680188081
  0
ARC
  8
_0-1_線色１__水色__
  6
CONTINUOUS
 62
    4
 10
1405.9634299647576
 20
715.98130443492551
 40
1.2083333333333581
 50
307.52351320333912
 51
232.47648680464988
  0
ARC
  8
_0-1_線色１__水色__
  6
CONTINUOUS
 62
    4
 10
1404.4914698205491
 20
714.06463776812075
 40
1.2083333333333179
 50
127.52351320610693
 51
52.47648680188081
  0
ARC
  8
_0-1_線色１__水色__
  6
CONTINUOUS
 62
    4
 10
1407.435390109232
 20
714.06463776832652
 40
1.2083333333333179
 50
127.52351320610693
 51
52.47648680188081
  0
ARC
  8
_0-1_線色１__水色__
  6
CONTINUOUS
 62
    4
 10
1428.0428321300144
 20
714.06463776914734
 40
1.2083333333333179
 50
127.52351320610693
 51
52.47648680188081
  0
ARC
  8
_0-1_線色１__水色__
  6
CONTINUOUS
 62
    4
 10
1426.57087198554
 20
715.98130443574632
 40
1.2083333333333581
 50
307.52351320333912
 51
232.47648680464988
  0
ARC
  8
_0-1_線色１__水色__
  6
CONTINUOUS
 62
    4
 10
1403.0195096760724
 20
715.98130443472087
 40
1.2083333333333581
 50
307.52351320333912
 51
232.47648680464988
  0
ARC
  8
_0-1_線色１__水色__
  6
CONTINUOUS
 62
    4
 10
1450.1222342950075
 20
715.98130443738796
 40
1.2083333333333581
 50
307.52351320333912
 51
232.47648680464988
  0
ARC
  8
_0-1_線色１__水色__
  6
CONTINUOUS
 62
    4
 10
1451.594194439482
 20
714.06463777078784
 40
1.2083333333333179
 50
127.52351320610693
 51
52.47648680188081
  0
ARC
  8
_0-1_線色１__水色__
  6
CONTINUOUS
 62
    4
 10
1447.1783140063246
 20
715.98130443718333
 40
1.2083333333333581
 50
307.52351320333912
 51
232.47648680464988
  0
ARC
  8
_0-1_線色１__水色__
  6
CONTINUOUS
 62
    4
 10
1448.6502741507991
 20
714.0646377705832
 40
1.2083333333333179
 50
127.52351320610693
 51
52.47648680188081
  0
ARC
  8
_0-1_線色１__水色__
  6
CONTINUOUS
 62
    4
 10
1444.2343937176395
 20
715.98130443697869
 40
1.2083333333333581
 50
307.52351320333912
 51
232.47648680464988
  0
ARC
  8
_0-1_線色１__水色__
  6
CONTINUOUS
 62
    4
 10
1445.7063538621162
 20
714.06463777037857
 40
1.2083333333333179
 50
127.52351320610693
 51
52.47648680188081
  0
ARC
  8
_0-1_線色１__水色__
  6
CONTINUOUS
 62
    4
 10
1441.2904734289566
 20
715.98130443677292
 40
1.2083333333333581
 50
307.52351320333912
 51
232.47648680464988
  0
ARC
  8
_0-1_線色１__水色__
  6
CONTINUOUS
 62
    4
 10
1442.7624335734333
 20
714.06463777017279
 40
1.2083333333333179
 50
127.52351320610693
 51
52.47648680188081
  0
ARC
  8
_0-1_線色１__水色__
  6
CONTINUOUS
 62
    4
 10
1438.3465531402737
 20
715.98130443656714
 40
1.2083333333333581
 50
307.52351320333912
 51
232.47648680464988
  0
ARC
  8
_0-1_線色１__水色__
  6
CONTINUOUS
 62
    4
 10
1439.8185132847482
 20
714.06463776996816
 40
1.2083333333333179
 50
127.52351320610693
 51
52.47648680188081
  0
ARC
  8
_0-1_線色１__水色__
  6
CONTINUOUS
 62
    4
 10
1435.4026328515909
 20
715.98130443636251
 40
1.2083333333333581
 50
307.52351320333912
 51
232.47648680464988
  0
ARC
  8
_0-1_線色１__水色__
  6
CONTINUOUS
 62
    4
 10
1436.8745929960653
 20
714.06463776976238
 40
1.2083333333333179
 50
127.52351320610693
 51
52.47648680188081
  0
ARC
  8
_0-1_線色１__水色__
  6
CONTINUOUS
 62
    4
 10
1432.458712562908
 20
715.98130443615787
 40
1.2083333333333581
 50
307.52351320333912
 51
232.47648680464988
  0
ARC
  8
_0-1_線色１__水色__
  6
CONTINUOUS
 62
    4
 10
1430.9867524186996
 20
714.06463776935311
 40
1.2083333333333179
 50
127.52351320610693
 51
52.47648680188081
  0
ARC
  8
_0-1_線色１__水色__
  6
CONTINUOUS
 62
    4
 10
1433.9306727073824
 20
714.06463776955775
 40
1.2083333333333179
 50
127.52351320610693
 51
52.47648680188081
  0
ARC
  8
_0-1_線色１__水色__
  6
CONTINUOUS
 62
    4
 10
1454.5381147281648
 20
714.06463777037857
 40
1.2083333333333179
 50
127.52351320610693
 51
52.47648680188081
  0
ARC
  8
_0-1_線色１__水色__
  6
CONTINUOUS
 62
    4
 10
1453.0661545836904
 20
715.98130443697869
 40
1.2083333333333581
 50
307.52351320333912
 51
232.47648680464988
  0
ARC
  8
_0-1_線色１__水色__
  6
CONTINUOUS
 62
    4
 10
1429.5147922742228
 20
715.9813044359521
 40
1.2083333333333581
 50
307.52351320333912
 51
232.47648680464988
  0
ARC
  8
_0-1_線色１__水色__
  6
CONTINUOUS
 62
    4
 10
1456.0100748723733
 20
715.98130443718333
 40
1.2083333333333581
 50
307.52351320333912
 51
232.47648680464988
  0
ARC
  8
_0-1_線色１__水色__
  6
CONTINUOUS
 62
    4
 10
1458.9539951610561
 20
715.98130443738796
 40
1.2083333333333581
 50
111.17110481933528
 51
232.47648680464988
  0
ARC
  8
_0-1_線色１__水色__
  6
CONTINUOUS
 62
    4
 10
1457.4820350168477
 20
714.0646377705832
 40
1.2083333333333179
 50
127.52351320610693
 51
328.98356997769429
  0
ARC
  8
_0-1_線色１__水色__
  6
CONTINUOUS
 62
    4
 10
1457.4820350168477
 20
714.0646377705832
 40
1.2083333333333179
 50
31.016430022305769
 51
52.476486801880846
  0
ARC
  8
_0-1_線色１__水色__
  6
CONTINUOUS
 62
    4
 10
1389.7718683771552
 20
714.0646377670771
 40
1.2083333333333179
 50
127.52351320610693
 51
52.47648680188081
  0
ARC
  8
_0-1_線色１__水色__
  6
CONTINUOUS
 62
    4
 10
1388.2999082326808
 20
715.98130443367722
 40
1.2083333333333581
 50
307.52351320333912
 51
232.47648680464988
  0
ARC
  8
_0-1_線色１__水色__
  6
CONTINUOUS
 62
    4
 10
1400.0755893874123
 20
715.98130443449804
 40
1.2083333333333581
 50
307.52351320333912
 51
232.47648680464988
  0
ARC
  8
_0-1_線色１__水色__
  6
CONTINUOUS
 62
    4
 10
1397.1316690987294
 20
715.98130443429227
 40
1.2083333333333581
 50
307.52351320333912
 51
232.47648680464988
  0
ARC
  8
_0-1_線色１__水色__
  6
CONTINUOUS
 62
    4
 10
1398.6036292432061
 20
714.06463776769328
 40
1.2083333333333179
 50
127.52351320610693
 51
52.47648680188081
  0
ARC
  8
_0-1_線色１__水色__
  6
CONTINUOUS
 62
    4
 10
1394.1877488100465
 20
715.98130443408763
 40
1.2083333333333581
 50
307.52351320333912
 51
232.47648680464988
  0
ARC
  8
_0-1_線色１__水色__
  6
CONTINUOUS
 62
    4
 10
1392.7157886658381
 20
714.06463776728287
 40
1.2083333333333179
 50
127.52351320610693
 51
52.47648680188081
  0
ARC
  8
_0-1_線色１__水色__
  6
CONTINUOUS
 62
    4
 10
1395.659708954521
 20
714.06463776748751
 40
1.2083333333333179
 50
127.52351320610693
 51
52.47648680188081
  0
ARC
  8
_0-1_線色１__水色__
  6
CONTINUOUS
 62
    4
 10
1391.2438285213636
 20
715.98130443388186
 40
1.2083333333333581
 50
307.52351320333912
 51
232.47648680464988
  0
ARC
  8
_0-1_線色１__水色__
  6
CONTINUOUS
 62
    4
 10
1401.547549531889
 20
714.06463776789792
 40
1.2083333333333179
 50
127.52351320610693
 51
52.47648680188081
  0
ARC
  8
_0-1_線色１__水色__
  6
CONTINUOUS
 62
    4
 10
1355.9167850571873
 20
715.98130443263358
 40
1.2083333333333581
 50
307.52351320333912
 51
232.47648680464988
  0
ARC
  8
_0-1_線色１__水色__
  6
CONTINUOUS
 62
    4
 10
1357.3887452016618
 20
714.06463776603346
 40
1.2083333333333179
 50
127.52351320610693
 51
52.47648680188081
  0
ARC
  8
_0-1_線色１__水色__
  6
CONTINUOUS
 62
    4
 10
1352.9728647685022
 20
715.98130443242894
 40
1.2083333333333581
 50
307.52351320333912
 51
232.47648680464988
  0
ARC
  8
_0-1_線色１__水色__
  6
CONTINUOUS
 62
    4
 10
1354.4448249129789
 20
714.06463776582882
 40
1.2083333333333179
 50
127.52351320610693
 51
52.47648680188081
  0
ARC
  8
_0-1_線色１__水色__
  6
CONTINUOUS
 62
    4
 10
1350.0289444798193
 20
715.98130443222317
 40
1.2083333333333581
 50
307.52351320333912
 51
232.47648680464988
  0
ARC
  8
_0-1_線色１__水色__
  6
CONTINUOUS
 62
    4
 10
1351.500904624296
 20
714.06463776562418
 40
1.2083333333333179
 50
127.52351320610693
 51
52.47648680188081
  0
ARC
  8
_0-1_線色１__水色__
  6
CONTINUOUS
 62
    4
 10
1347.0850241911364
 20
715.9813044320174
 40
1.2083333333333581
 50
307.52351320333912
 51
232.47648680464988
  0
ARC
  8
_0-1_線色１__水色__
  6
CONTINUOUS
 62
    4
 10
1348.5569843356109
 20
714.06463776541841
 40
1.2083333333333179
 50
127.52351320610693
 51
52.47648680188081
  0
ARC
  8
_0-1_線色１__水色__
  6
CONTINUOUS
 62
    4
 10
1344.1411039024536
 20
715.98130443181276
 40
1.2083333333333581
 50
307.52351320333912
 51
232.47648680464988
  0
ARC
  8
_0-1_線色１__水色__
  6
CONTINUOUS
 62
    4
 10
1345.613064046928
 20
714.06463776521264
 40
1.2083333333333179
 50
127.52351320610693
 51
52.47648680188081
  0
ARC
  8
_0-1_線色１__水色__
  6
CONTINUOUS
 62
    4
 10
1341.1971836137707
 20
715.98130443160812
 40
1.2083333333333581
 50
307.52351320333912
 51
232.47648680464988
  0
ARC
  8
_0-1_線色１__水色__
  6
CONTINUOUS
 62
    4
 10
1342.6691437582451
 20
714.064637765008
 40
1.2083333333333179
 50
127.52351320610693
 51
52.47648680188081
  0
ARC
  8
_0-1_線色１__水色__
  6
CONTINUOUS
 62
    4
 10
1338.2532633250855
 20
715.98130443140235
 40
1.2083333333333581
 50
307.52351320333912
 51
232.47648680464988
  0
ARC
  8
_0-1_線色１__水色__
  6
CONTINUOUS
 62
    4
 10
1336.7813031808794
 20
714.06463776459759
 40
1.2083333333333179
 50
127.52351320610693
 51
52.47648680188081
  0
ARC
  8
_0-1_線色１__水色__
  6
CONTINUOUS
 62
    4
 10
1339.7252234695623
 20
714.06463776480336
 40
1.2083333333333179
 50
127.52351320610693
 51
52.47648680188081
  0
ARC
  8
_0-1_線色１__水色__
  6
CONTINUOUS
 62
    4
 10
1360.3326654903447
 20
714.06463776562418
 40
1.2083333333333179
 50
127.52351320610693
 51
52.47648680188081
  0
ARC
  8
_0-1_線色１__水色__
  6
CONTINUOUS
 62
    4
 10
1358.8607053458702
 20
715.98130443222317
 40
1.2083333333333581
 50
307.52351320333912
 51
232.47648680464988
  0
ARC
  8
_0-1_線色１__水色__
  6
CONTINUOUS
 62
    4
 10
1335.3093430364027
 20
715.98130443119658
 40
1.2083333333333581
 50
307.52351320333912
 51
232.47648680464988
  0
ARC
  8
_0-1_線色１__水色__
  6
CONTINUOUS
 62
    4
 10
1382.4120676553355
 20
715.98130443386481
 40
1.2083333333333581
 50
307.52351320333912
 51
232.47648680464988
  0
ARC
  8
_0-1_線色１__水色__
  6
CONTINUOUS
 62
    4
 10
1383.8840277998122
 20
714.06463776726468
 40
1.2083333333333179
 50
127.52351320610693
 51
52.47648680188081
  0
ARC
  8
_0-1_線色１__水色__
  6
CONTINUOUS
 62
    4
 10
1379.4681473666526
 20
715.98130443365903
 40
1.2083333333333581
 50
307.52351320333912
 51
232.47648680464988
  0
ARC
  8
_0-1_線色１__水色__
  6
CONTINUOUS
 62
    4
 10
1380.9401075111293
 20
714.06463776705891
 40
1.2083333333333179
 50
127.52351320610693
 51
52.47648680188081
  0
ARC
  8
_0-1_線色１__水色__
  6
CONTINUOUS
 62
    4
 10
1376.5242270779697
 20
715.9813044334544
 40
1.2083333333333581
 50
307.52351320333912
 51
232.47648680464988
  0
ARC
  8
_0-1_線色１__水色__
  6
CONTINUOUS
 62
    4
 10
1377.9961872224442
 20
714.06463776685428
 40
1.2083333333333179
 50
127.52351320610693
 51
52.47648680188081
  0
ARC
  8
_0-1_線色１__水色__
  6
CONTINUOUS
 62
    4
 10
1373.5803067892869
 20
715.98130443324976
 40
1.2083333333333581
 50
307.52351320333912
 51
232.47648680464988
  0
ARC
  8
_0-1_線色１__水色__
  6
CONTINUOUS
 62
    4
 10
1375.0522669337613
 20
714.06463776664964
 40
1.2083333333333179
 50
127.52351320610693
 51
52.47648680188081
  0
ARC
  8
_0-1_線色１__水色__
  6
CONTINUOUS
 62
    4
 10
1370.636386500604
 20
715.98130443304399
 40
1.2083333333333581
 50
307.52351320333912
 51
232.47648680464988
  0
ARC
  8
_0-1_線色１__水色__
  6
CONTINUOUS
 62
    4
 10
1372.1083466450784
 20
714.064637766445
 40
1.2083333333333179
 50
127.52351320610693
 51
52.47648680188081
  0
ARC
  8
_0-1_線色１__水色__
  6
CONTINUOUS
 62
    4
 10
1367.6924662119188
 20
715.98130443283821
 40
1.2083333333333581
 50
307.52351320333912
 51
232.47648680464988
  0
ARC
  8
_0-1_線色１__水色__
  6
CONTINUOUS
 62
    4
 10
1369.1644263563956
 20
714.06463776623923
 40
1.2083333333333179
 50
127.52351320610693
 51
52.47648680188081
  0
ARC
  8
_0-1_線色１__水色__
  6
CONTINUOUS
 62
    4
 10
1364.748545923236
 20
715.98130443263358
 40
1.2083333333333581
 50
307.52351320333912
 51
232.47648680464988
  0
ARC
  8
_0-1_線色１__水色__
  6
CONTINUOUS
 62
    4
 10
1363.2765857790275
 20
714.06463776582882
 40
1.2083333333333179
 50
127.52351320610693
 51
52.47648680188081
  0
ARC
  8
_0-1_線色１__水色__
  6
CONTINUOUS
 62
    4
 10
1366.2205060677127
 20
714.06463776603346
 40
1.2083333333333179
 50
127.52351320610693
 51
52.47648680188081
  0
ARC
  8
_0-1_線色１__水色__
  6
CONTINUOUS
 62
    4
 10
1386.8279480884951
 20
714.06463776685428
 40
1.2083333333333179
 50
127.52351320610693
 51
52.47648680188081
  0
ARC
  8
_0-1_線色１__水色__
  6
CONTINUOUS
 62
    4
 10
1385.3559879440206
 20
715.9813044334544
 40
1.2083333333333581
 50
307.52351320333912
 51
232.47648680464988
  0
ARC
  8
_0-1_線色１__水色__
  6
CONTINUOUS
 62
    4
 10
1361.8046256345531
 20
715.98130443242894
 40
1.2083333333333581
 50
307.52351320333912
 51
232.47648680464988
  0
ARC
  8
_0-1_線色１__水色__
  6
CONTINUOUS
 62
    4
 10
1322.0617017374832
 20
714.06463776355395
 40
1.2083333333333179
 50
127.52351320610693
 51
52.47648680188081
  0
ARC
  8
_0-1_線色１__水色__
  6
CONTINUOUS
 62
    4
 10
1320.5897415930087
 20
715.98130443015293
 40
1.2083333333333581
 50
307.52351320333912
 51
232.47648680464988
  0
ARC
  8
_0-1_線色１__水色__
  6
CONTINUOUS
 62
    4
 10
1332.3654227477425
 20
715.98130443097375
 40
1.2083333333333581
 50
307.52351320333912
 51
232.47648680464988
  0
ARC
  8
_0-1_線色１__水色__
  6
CONTINUOUS
 62
    4
 10
1329.4215024590596
 20
715.98130443076911
 40
1.2083333333333581
 50
307.52351320333912
 51
232.47648680464988
  0
ARC
  8
_0-1_線色１__水色__
  6
CONTINUOUS
 62
    4
 10
1330.8934626035341
 20
714.06463776416899
 40
1.2083333333333179
 50
127.52351320610693
 51
52.47648680188081
  0
ARC
  8
_0-1_線色１__水色__
  6
CONTINUOUS
 62
    4
 10
1326.4775821703768
 20
715.98130443056334
 40
1.2083333333333581
 50
307.52351320333912
 51
232.47648680464988
  0
ARC
  8
_0-1_線色１__水色__
  6
CONTINUOUS
 62
    4
 10
1325.0056220261683
 20
714.06463776375858
 40
1.2083333333333179
 50
127.52351320610693
 51
52.47648680188081
  0
ARC
  8
_0-1_線色１__水色__
  6
CONTINUOUS
 62
    4
 10
1327.9495423148512
 20
714.06463776396436
 40
1.2083333333333179
 50
127.52351320610693
 51
52.47648680188081
  0
ARC
  8
_0-1_線色１__水色__
  6
CONTINUOUS
 62
    4
 10
1323.5336618816916
 20
715.9813044303587
 40
1.2083333333333581
 50
307.52351320333912
 51
232.47648680464988
  0
ARC
  8
_0-1_線色１__水色__
  6
CONTINUOUS
 62
    4
 10
1333.837382892217
 20
714.06463776437477
 40
1.2083333333333179
 50
127.52351320610693
 51
52.47648680188081
  0
ARC
  8
_0-1_線色１__水色__
  6
CONTINUOUS
 62
    4
 10
1288.2066184175153
 20
715.98130442910929
 40
1.2083333333333581
 50
307.52351320333912
 51
232.47648680464988
  0
ARC
  8
_0-1_線色１__水色__
  6
CONTINUOUS
 62
    4
 10
1289.678578561992
 20
714.0646377625103
 40
1.2083333333333179
 50
127.52351320610693
 51
52.47648680188081
  0
ARC
  8
_0-1_線色１__水色__
  6
CONTINUOUS
 62
    4
 10
1285.2626981288324
 20
715.98130442890465
 40
1.2083333333333581
 50
307.52351320333912
 51
232.47648680464988
  0
ARC
  8
_0-1_線色１__水色__
  6
CONTINUOUS
 62
    4
 10
1286.7346582733069
 20
714.06463776230453
 40
1.2083333333333179
 50
127.52351320610693
 51
52.47648680188081
  0
ARC
  8
_0-1_線色１__水色__
  6
CONTINUOUS
 62
    4
 10
1282.3187778401496
 20
715.98130442869888
 40
1.2083333333333581
 50
307.52351320333912
 51
232.47648680464988
  0
ARC
  8
_0-1_線色１__水色__
  6
CONTINUOUS
 62
    4
 10
1283.790737984624
 20
714.06463776209989
 40
1.2083333333333179
 50
127.52351320610693
 51
52.47648680188081
  0
ARC
  8
_0-1_線色１__水色__
  6
CONTINUOUS
 62
    4
 10
1279.3748575514667
 20
715.98130442849424
 40
1.2083333333333581
 50
307.52351320333912
 51
232.47648680464988
  0
ARC
  8
_0-1_線色１__水色__
  6
CONTINUOUS
 62
    4
 10
1280.8468176959411
 20
714.06463776189412
 40
1.2083333333333179
 50
127.52351320610693
 51
52.47648680188081
  0
ARC
  8
_0-1_線色１__水色__
  6
CONTINUOUS
 62
    4
 10
1276.4309372627815
 20
715.98130442828847
 40
1.2083333333333581
 50
307.52351320333912
 51
232.47648680464988
  0
ARC
  8
_0-1_線色１__水色__
  6
CONTINUOUS
 62
    4
 10
1277.9028974072583
 20
714.06463776168948
 40
1.2083333333333179
 50
127.52351320610693
 51
52.47648680188081
  0
ARC
  8
_0-1_線色１__水色__
  6
CONTINUOUS
 62
    4
 10
1273.4870169740987
 20
715.98130442808383
 40
1.2083333333333581
 50
307.52351320333912
 51
232.47648680464988
  0
ARC
  8
_0-1_線色１__水色__
  6
CONTINUOUS
 62
    4
 10
1274.9589771185731
 20
714.06463776148371
 40
1.2083333333333179
 50
127.52351320610693
 51
52.47648680188081
  0
ARC
  8
_0-1_線色１__水色__
  6
CONTINUOUS
 62
    4
 10
1270.5430966854158
 20
715.98130442787806
 40
1.2083333333333581
 50
307.52351320333912
 51
232.47648680464988
  0
ARC
  8
_0-1_線色１__水色__
  6
CONTINUOUS
 62
    4
 10
1269.0711365412074
 20
714.0646377610733
 40
1.2083333333333179
 50
127.52351320610693
 51
52.47648680188081
  0
ARC
  8
_0-1_線色１__水色__
  6
CONTINUOUS
 62
    4
 10
1272.0150568298902
 20
714.06463776127907
 40
1.2083333333333179
 50
127.52351320610693
 51
52.47648680188081
  0
ARC
  8
_0-1_線色１__水色__
  6
CONTINUOUS
 62
    4
 10
1292.6224988506749
 20
714.06463776209989
 40
1.2083333333333179
 50
127.52351320610693
 51
52.47648680188081
  0
ARC
  8
_0-1_線色１__水色__
  6
CONTINUOUS
 62
    4
 10
1291.1505387061982
 20
715.98130442869888
 40
1.2083333333333581
 50
307.52351320333912
 51
232.47648680464988
  0
ARC
  8
_0-1_線色１__水色__
  6
CONTINUOUS
 62
    4
 10
1267.5991763967329
 20
715.98130442767342
 40
1.2083333333333581
 50
307.52351320333912
 51
232.47648680464988
  0
ARC
  8
_0-1_線色１__水色__
  6
CONTINUOUS
 62
    4
 10
1314.7019010156657
 20
715.98130443034051
 40
1.2083333333333581
 50
307.52351320333912
 51
232.47648680464988
  0
ARC
  8
_0-1_線色１__水色__
  6
CONTINUOUS
 62
    4
 10
1316.1738611601402
 20
714.06463776374039
 40
1.2083333333333179
 50
127.52351320610693
 51
52.47648680188081
  0
ARC
  8
_0-1_線色１__水色__
  6
CONTINUOUS
 62
    4
 10
1311.7579807269829
 20
715.98130443013588
 40
1.2083333333333581
 50
307.52351320333912
 51
232.47648680464988
  0
ARC
  8
_0-1_線色１__水色__
  6
CONTINUOUS
 62
    4
 10
1313.2299408714573
 20
714.06463776353576
 40
1.2083333333333179
 50
127.52351320610693
 51
52.47648680188081
  0
ARC
  8
_0-1_線色１__水色__
  6
CONTINUOUS
 62
    4
 10
1308.8140604383
 20
715.98130442993011
 40
1.2083333333333581
 50
307.52351320333912
 51
232.47648680464988
  0
ARC
  8
_0-1_線色１__水色__
  6
CONTINUOUS
 62
    4
 10
1310.2860205827744
 20
714.06463776332998
 40
1.2083333333333179
 50
127.52351320610693
 51
52.47648680188081
  0
ARC
  8
_0-1_線色１__水色__
  6
CONTINUOUS
 62
    4
 10
1305.8701401496148
 20
715.98130442972547
 40
1.2083333333333581
 50
307.52351320333912
 51
232.47648680464988
  0
ARC
  8
_0-1_線色１__水色__
  6
CONTINUOUS
 62
    4
 10
1307.3421002940916
 20
714.06463776312535
 40
1.2083333333333179
 50
127.52351320610693
 51
52.47648680188081
  0
ARC
  8
_0-1_線色１__水色__
  6
CONTINUOUS
 62
    4
 10
1302.926219860932
 20
715.9813044295197
 40
1.2083333333333581
 50
307.52351320333912
 51
232.47648680464988
  0
ARC
  8
_0-1_線色１__水色__
  6
CONTINUOUS
 62
    4
 10
1304.3981800054087
 20
714.06463776292071
 40
1.2083333333333179
 50
127.52351320610693
 51
52.47648680188081
  0
ARC
  8
_0-1_線色１__水色__
  6
CONTINUOUS
 62
    4
 10
1299.9822995722491
 20
715.98130442931506
 40
1.2083333333333581
 50
307.52351320333912
 51
232.47648680464988
  0
ARC
  8
_0-1_線色１__水色__
  6
CONTINUOUS
 62
    4
 10
1301.4542597167235
 20
714.06463776271494
 40
1.2083333333333179
 50
127.52351320610693
 51
52.47648680188081
  0
ARC
  8
_0-1_線色１__水色__
  6
CONTINUOUS
 62
    4
 10
1297.0383792835662
 20
715.98130442910929
 40
1.2083333333333581
 50
307.52351320333912
 51
232.47648680464988
  0
ARC
  8
_0-1_線色１__水色__
  6
CONTINUOUS
 62
    4
 10
1295.5664191393578
 20
714.06463776230453
 40
1.2083333333333179
 50
127.52351320610693
 51
52.47648680188081
  0
ARC
  8
_0-1_線色１__水色__
  6
CONTINUOUS
 62
    4
 10
1298.5103394280407
 20
714.0646377625103
 40
1.2083333333333179
 50
127.52351320610693
 51
52.47648680188081
  0
ARC
  8
_0-1_線色１__水色__
  6
CONTINUOUS
 62
    4
 10
1319.1177814488253
 20
714.06463776332998
 40
1.2083333333333179
 50
127.52351320610693
 51
52.47648680188081
  0
ARC
  8
_0-1_線色１__水色__
  6
CONTINUOUS
 62
    4
 10
1317.6458213043486
 20
715.98130442993011
 40
1.2083333333333581
 50
307.52351320333912
 51
232.47648680464988
  0
ARC
  8
_0-1_線色１__水色__
  6
CONTINUOUS
 62
    4
 10
1294.0944589948833
 20
715.98130442890465
 40
1.2083333333333581
 50
307.52351320333912
 51
232.47648680464988
  0
ARC
  8
_0-1_線色１__水色__
  6
CONTINUOUS
 62
    4
 10
1254.3515350978134
 20
714.06463776002965
 40
1.2083333333333179
 50
127.52351320610693
 51
52.47648680188081
  0
ARC
  8
_0-1_線色１__水色__
  6
CONTINUOUS
 62
    4
 10
1252.879574953339
 20
715.98130442662978
 40
1.2083333333333581
 50
307.52351320333912
 51
232.47648680464988
  0
ARC
  8
_0-1_線色１__水色__
  6
CONTINUOUS
 62
    4
 10
1264.6552561080728
 20
715.9813044274506
 40
1.2083333333333581
 50
307.52351320333912
 51
232.47648680464988
  0
ARC
  8
_0-1_線色１__水色__
  6
CONTINUOUS
 62
    4
 10
1261.7113358193876
 20
715.98130442724482
 40
1.2083333333333581
 50
307.52351320333912
 51
232.47648680464988
  0
ARC
  8
_0-1_線色１__水色__
  6
CONTINUOUS
 62
    4
 10
1263.1832959638643
 20
714.06463776064584
 40
1.2083333333333179
 50
127.52351320610693
 51
52.47648680188081
  0
ARC
  8
_0-1_線色１__水色__
  6
CONTINUOUS
 62
    4
 10
1258.7674155307047
 20
715.98130442704019
 40
1.2083333333333581
 50
307.52351320333912
 51
232.47648680464988
  0
ARC
  8
_0-1_線色１__水色__
  6
CONTINUOUS
 62
    4
 10
1257.2954553864963
 20
714.06463776023543
 40
1.2083333333333179
 50
127.52351320610693
 51
52.47648680188081
  0
ARC
  8
_0-1_線色１__水色__
  6
CONTINUOUS
 62
    4
 10
1260.2393756751815
 20
714.06463776044006
 40
1.2083333333333179
 50
127.52351320610693
 51
52.47648680188081
  0
ARC
  8
_0-1_線色１__水色__
  6
CONTINUOUS
 62
    4
 10
1255.8234952420219
 20
715.98130442683441
 40
1.2083333333333581
 50
307.52351320333912
 51
232.47648680464988
  0
ARC
  8
_0-1_線色１__水色__
  6
CONTINUOUS
 62
    4
 10
1266.1272162525472
 20
714.06463776085047
 40
1.2083333333333179
 50
127.52351320610693
 51
52.47648680188081
  0
ARC
  8
_0-1_線色１__水色__
  6
CONTINUOUS
 62
    4
 10
1220.4964517778456
 20
715.98130442558613
 40
1.2083333333333581
 50
307.52351320333912
 51
232.47648680464988
  0
ARC
  8
_0-1_線色１__水色__
  6
CONTINUOUS
 62
    4
 10
1221.96841192232
 20
714.06463775898601
 40
1.2083333333333179
 50
127.52351320610693
 51
52.47648680188081
  0
ARC
  8
_0-1_線色１__水色__
  6
CONTINUOUS
 62
    4
 10
1217.5525314891627
 20
715.98130442538036
 40
1.2083333333333581
 50
307.52351320333912
 51
232.47648680464988
  0
ARC
  8
_0-1_線色１__水色__
  6
CONTINUOUS
 62
    4
 10
1219.0244916336371
 20
714.06463775878137
 40
1.2083333333333179
 50
127.52351320610693
 51
52.47648680188081
  0
ARC
  8
_0-1_線色１__水色__
  6
CONTINUOUS
 62
    4
 10
1214.6086112004798
 20
715.98130442517572
 40
1.2083333333333581
 50
307.52351320333912
 51
232.47648680464988
  0
ARC
  8
_0-1_線色１__水色__
  6
CONTINUOUS
 62
    4
 10
1216.0805713449543
 20
714.0646377585756
 40
1.2083333333333179
 50
127.52351320610693
 51
52.47648680188081
  0
ARC
  8
_0-1_線色１__水色__
  6
CONTINUOUS
 62
    4
 10
1211.6646909117947
 20
715.98130442496995
 40
1.2083333333333581
 50
307.52351320333912
 51
232.47648680464988
  0
ARC
  8
_0-1_線色１__水色__
  6
CONTINUOUS
 62
    4
 10
1213.1366510562714
 20
714.06463775837096
 40
1.2083333333333179
 50
127.52351320610693
 51
52.47648680188081
  0
ARC
  8
_0-1_線色１__水色__
  6
CONTINUOUS
 62
    4
 10
1208.7207706231118
 20
715.98130442476531
 40
1.2083333333333581
 50
307.52351320333912
 51
232.47648680464988
  0
ARC
  8
_0-1_線色１__水色__
  6
CONTINUOUS
 62
    4
 10
1210.1927307675862
 20
714.06463775816519
 40
1.2083333333333179
 50
127.52351320610693
 51
52.47648680188081
  0
ARC
  8
_0-1_線色１__水色__
  6
CONTINUOUS
 62
    4
 10
1205.7768503344289
 20
715.98130442455954
 40
1.2083333333333581
 50
307.52351320333912
 51
232.47648680464988
  0
ARC
  8
_0-1_線色１__水色__
  6
CONTINUOUS
 62
    4
 10
1207.2488104789034
 20
714.06463775796055
 40
1.2083333333333179
 50
127.52351320610693
 51
52.47648680188081
  0
ARC
  8
_0-1_線色１__水色__
  6
CONTINUOUS
 62
    4
 10
1202.832930045746
 20
715.9813044243549
 40
1.2083333333333581
 50
307.52351320333912
 51
232.47648680464988
  0
ARC
  8
_0-1_線色１__水色__
  6
CONTINUOUS
 62
    4
 10
1201.3609699015376
 20
714.06463775755014
 40
1.2083333333333179
 50
127.52351320610693
 51
52.47648680188081
  0
ARC
  8
_0-1_線色１__水色__
  6
CONTINUOUS
 62
    4
 10
1204.3048901902205
 20
714.06463775775478
 40
1.2083333333333179
 50
127.52351320610693
 51
52.47648680188081
  0
ARC
  8
_0-1_線色１__水色__
  6
CONTINUOUS
 62
    4
 10
1224.9123322110029
 20
714.0646377585756
 40
1.2083333333333179
 50
127.52351320610693
 51
52.47648680188081
  0
ARC
  8
_0-1_線色１__水色__
  6
CONTINUOUS
 62
    4
 10
1223.4403720665284
 20
715.98130442517572
 40
1.2083333333333581
 50
307.52351320333912
 51
232.47648680464988
  0
ARC
  8
_0-1_線色１__水色__
  6
CONTINUOUS
 62
    4
 10
1199.8890097570609
 20
715.98130442414913
 40
1.2083333333333581
 50
307.52351320333912
 51
232.47648680464988
  0
ARC
  8
_0-1_線色１__水色__
  6
CONTINUOUS
 62
    4
 10
1246.991734375996
 20
715.98130442681736
 40
1.2083333333333581
 50
307.52351320333912
 51
232.47648680464988
  0
ARC
  8
_0-1_線色１__水色__
  6
CONTINUOUS
 62
    4
 10
1248.4636945204704
 20
714.06463776021724
 40
1.2083333333333179
 50
127.52351320610693
 51
52.47648680188081
  0
ARC
  8
_0-1_線色１__水色__
  6
CONTINUOUS
 62
    4
 10
1244.0478140873108
 20
715.98130442661159
 40
1.2083333333333581
 50
307.52351320333912
 51
232.47648680464988
  0
ARC
  8
_0-1_線色１__水色__
  6
CONTINUOUS
 62
    4
 10
1245.5197742317876
 20
714.06463776001146
 40
1.2083333333333179
 50
127.52351320610693
 51
52.47648680188081
  0
ARC
  8
_0-1_線色１__水色__
  6
CONTINUOUS
 62
    4
 10
1241.103893798628
 20
715.98130442640695
 40
1.2083333333333581
 50
307.52351320333912
 51
232.47648680464988
  0
ARC
  8
_0-1_線色１__水色__
  6
CONTINUOUS
 62
    4
 10
1242.5758539431047
 20
714.06463775980683
 40
1.2083333333333179
 50
127.52351320610693
 51
52.47648680188081
  0
ARC
  8
_0-1_線色１__水色__
  6
CONTINUOUS
 62
    4
 10
1238.1599735099451
 20
715.98130442620118
 40
1.2083333333333581
 50
307.52351320333912
 51
232.47648680464988
  0
ARC
  8
_0-1_線色１__水色__
  6
CONTINUOUS
 62
    4
 10
1239.6319336544195
 20
714.06463775960106
 40
1.2083333333333179
 50
127.52351320610693
 51
52.47648680188081
  0
ARC
  8
_0-1_線色１__水色__
  6
CONTINUOUS
 62
    4
 10
1235.2160532212622
 20
715.98130442599654
 40
1.2083333333333581
 50
307.52351320333912
 51
232.47648680464988
  0
ARC
  8
_0-1_線色１__水色__
  6
CONTINUOUS
 62
    4
 10
1236.6880133657367
 20
714.06463775939642
 40
1.2083333333333179
 50
127.52351320610693
 51
52.47648680188081
  0
ARC
  8
_0-1_線色１__水色__
  6
CONTINUOUS
 62
    4
 10
1232.2721329325793
 20
715.98130442579077
 40
1.2083333333333581
 50
307.52351320333912
 51
232.47648680464988
  0
ARC
  8
_0-1_線色１__水色__
  6
CONTINUOUS
 62
    4
 10
1233.7440930770538
 20
714.06463775919178
 40
1.2083333333333179
 50
127.52351320610693
 51
52.47648680188081
  0
ARC
  8
_0-1_線色１__水色__
  6
CONTINUOUS
 62
    4
 10
1229.3282126438942
 20
715.98130442558613
 40
1.2083333333333581
 50
307.52351320333912
 51
232.47648680464988
  0
ARC
  8
_0-1_線色１__水色__
  6
CONTINUOUS
 62
    4
 10
1227.856252499688
 20
714.06463775878137
 40
1.2083333333333179
 50
127.52351320610693
 51
52.47648680188081
  0
ARC
  8
_0-1_線色１__水色__
  6
CONTINUOUS
 62
    4
 10
1230.8001727883709
 20
714.06463775898601
 40
1.2083333333333179
 50
127.52351320610693
 51
52.47648680188081
  0
ARC
  8
_0-1_線色１__水色__
  6
CONTINUOUS
 62
    4
 10
1251.4076148091533
 20
714.06463775980683
 40
1.2083333333333179
 50
127.52351320610693
 51
52.47648680188081
  0
ARC
  8
_0-1_線色１__水色__
  6
CONTINUOUS
 62
    4
 10
1249.9356546646789
 20
715.98130442640695
 40
1.2083333333333581
 50
307.52351320333912
 51
232.47648680464988
  0
ARC
  8
_0-1_線色１__水色__
  6
CONTINUOUS
 62
    4
 10
1226.3842923552113
 20
715.98130442538036
 40
1.2083333333333581
 50
307.52351320333912
 51
232.47648680464988
  0
ARC
  8
_0-1_線色１__水色__
  6
CONTINUOUS
 62
    4
 10
1186.6413684581437
 20
714.0646377565065
 40
1.2083333333333179
 50
127.52351320610693
 51
52.47648680188081
  0
ARC
  8
_0-1_線色１__水色__
  6
CONTINUOUS
 62
    4
 10
1185.169408313667
 20
715.98130442310548
 40
1.2083333333333581
 50
307.52351320333912
 51
232.47648680464988
  0
ARC
  8
_0-1_線色１__水色__
  6
CONTINUOUS
 62
    4
 10
1196.9450894684007
 20
715.9813044239263
 40
1.2083333333333581
 50
307.52351320333912
 51
232.47648680464988
  0
ARC
  8
_0-1_線色１__水色__
  6
CONTINUOUS
 62
    4
 10
1194.0011691797179
 20
715.98130442372053
 40
1.2083333333333581
 50
307.52351320333912
 51
232.47648680464988
  0
ARC
  8
_0-1_線色１__水色__
  6
CONTINUOUS
 62
    4
 10
1195.4731293241923
 20
714.06463775712155
 40
1.2083333333333179
 50
127.52351320610693
 51
52.47648680188081
  0
ARC
  8
_0-1_線色１__水色__
  6
CONTINUOUS
 62
    4
 10
1191.057248891035
 20
715.98130442351589
 40
1.2083333333333581
 50
307.52351320333912
 51
232.47648680464988
  0
ARC
  8
_0-1_線色１__水色__
  6
CONTINUOUS
 62
    4
 10
1189.5852887468266
 20
714.06463775671114
 40
1.2083333333333179
 50
127.52351320610693
 51
52.47648680188081
  0
ARC
  8
_0-1_線色１__水色__
  6
CONTINUOUS
 62
    4
 10
1192.5292090355094
 20
714.06463775691577
 40
1.2083333333333179
 50
127.52351320610693
 51
52.47648680188081
  0
ARC
  8
_0-1_線色１__水色__
  6
CONTINUOUS
 62
    4
 10
1188.1133286023521
 20
715.98130442331126
 40
1.2083333333333581
 50
307.52351320333912
 51
232.47648680464988
  0
ARC
  8
_0-1_線色１__水色__
  6
CONTINUOUS
 62
    4
 10
1198.4170496128775
 20
714.06463775732732
 40
1.2083333333333179
 50
127.52351320610693
 51
52.47648680188081
  0
ARC
  8
_0-1_線色１__水色__
  6
CONTINUOUS
 62
    4
 10
1152.7862851381735
 20
715.98130442206184
 40
1.2083333333333581
 50
307.52351320333912
 51
232.47648680464988
  0
ARC
  8
_0-1_線色１__水色__
  6
CONTINUOUS
 62
    4
 10
1154.2582452826503
 20
714.06463775546285
 40
1.2083333333333179
 50
127.52351320610693
 51
52.47648680188081
  0
ARC
  8
_0-1_線色１__水色__
  6
CONTINUOUS
 62
    4
 10
1149.8423648494907
 20
715.9813044218572
 40
1.2083333333333581
 50
307.52351320333912
 51
232.47648680464988
  0
ARC
  8
_0-1_線色１__水色__
  6
CONTINUOUS
 62
    4
 10
1151.3143249939674
 20
714.06463775525708
 40
1.2083333333333179
 50
127.52351320610693
 51
52.47648680188081
  0
ARC
  8
_0-1_線色１__水色__
  6
CONTINUOUS
 62
    4
 10
1146.8984445608078
 20
715.98130442165143
 40
1.2083333333333581
 50
307.52351320333912
 51
232.47648680464988
  0
ARC
  8
_0-1_線色１__水色__
  6
CONTINUOUS
 62
    4
 10
1148.3704047052822
 20
714.06463775505244
 40
1.2083333333333179
 50
127.52351320610693
 51
52.47648680188081
  0
ARC
  8
_0-1_線色１__水色__
  6
CONTINUOUS
 62
    4
 10
1143.9545242721249
 20
715.98130442144679
 40
1.2083333333333581
 50
307.52351320333912
 51
232.47648680464988
  0
ARC
  8
_0-1_線色１__水色__
  6
CONTINUOUS
 62
    4
 10
1145.4264844165994
 20
714.06463775484667
 40
1.2083333333333179
 50
127.52351320610693
 51
52.47648680188081
  0
ARC
  8
_0-1_線色１__水色__
  6
CONTINUOUS
 62
    4
 10
1141.010603983442
 20
715.98130442124102
 40
1.2083333333333581
 50
307.52351320333912
 51
232.47648680464988
  0
ARC
  8
_0-1_線色１__水色__
  6
CONTINUOUS
 62
    4
 10
1142.4825641279165
 20
714.06463775464204
 40
1.2083333333333179
 50
127.52351320610693
 51
52.47648680188081
  0
ARC
  8
_0-1_線色１__水色__
  6
CONTINUOUS
 62
    4
 10
1138.0666836947569
 20
715.98130442103638
 40
1.2083333333333581
 50
307.52351320333912
 51
232.47648680464988
  0
ARC
  8
_0-1_線色１__水色__
  6
CONTINUOUS
 62
    4
 10
1139.5386438392336
 20
714.06463775443626
 40
1.2083333333333179
 50
127.52351320610693
 51
52.47648680188081
  0
ARC
  8
_0-1_線色１__水色__
  6
CONTINUOUS
 62
    4
 10
1135.122763406074
 20
715.98130442083061
 40
1.2083333333333581
 50
307.52351320333912
 51
232.47648680464988
  0
ARC
  8
_0-1_線色１__水色__
  6
CONTINUOUS
 62
    4
 10
1133.6508032618656
 20
714.06463775402585
 40
1.2083333333333179
 50
127.52351320610693
 51
52.47648680188081
  0
ARC
  8
_0-1_線色１__水色__
  6
CONTINUOUS
 62
    4
 10
1136.5947235505507
 20
714.06463775423163
 40
1.2083333333333179
 50
127.52351320610693
 51
52.47648680188081
  0
ARC
  8
_0-1_線色１__水色__
  6
CONTINUOUS
 62
    4
 10
1157.2021655713331
 20
714.06463775505244
 40
1.2083333333333179
 50
127.52351320610693
 51
52.47648680188081
  0
ARC
  8
_0-1_線色１__水色__
  6
CONTINUOUS
 62
    4
 10
1155.7302054268587
 20
715.98130442165143
 40
1.2083333333333581
 50
307.52351320333912
 51
232.47648680464988
  0
ARC
  8
_0-1_線色１__水色__
  6
CONTINUOUS
 62
    4
 10
1132.1788431173911
 20
715.98130442062597
 40
1.2083333333333581
 50
307.52351320333912
 51
232.47648680464988
  0
ARC
  8
_0-1_線色１__水色__
  6
CONTINUOUS
 62
    4
 10
1179.281567736324
 20
715.98130442329307
 40
1.2083333333333581
 50
307.52351320333912
 51
232.47648680464988
  0
ARC
  8
_0-1_線色１__水色__
  6
CONTINUOUS
 62
    4
 10
1180.7535278808007
 20
714.06463775669295
 40
1.2083333333333179
 50
127.52351320610693
 51
52.47648680188081
  0
ARC
  8
_0-1_線色１__水色__
  6
CONTINUOUS
 62
    4
 10
1176.3376474476411
 20
715.98130442308843
 40
1.2083333333333581
 50
307.52351320333912
 51
232.47648680464988
  0
ARC
  8
_0-1_線色１__水色__
  6
CONTINUOUS
 62
    4
 10
1177.8096075921155
 20
714.06463775648831
 40
1.2083333333333179
 50
127.52351320610693
 51
52.47648680188081
  0
ARC
  8
_0-1_線色１__水色__
  6
CONTINUOUS
 62
    4
 10
1173.3937271589582
 20
715.98130442288266
 40
1.2083333333333581
 50
307.52351320333912
 51
232.47648680464988
  0
ARC
  8
_0-1_線色１__水色__
  6
CONTINUOUS
 62
    4
 10
1174.8656873034327
 20
714.06463775628254
 40
1.2083333333333179
 50
127.52351320610693
 51
52.47648680188081
  0
ARC
  8
_0-1_線色１__水色__
  6
CONTINUOUS
 62
    4
 10
1170.4498068702753
 20
715.98130442267802
 40
1.2083333333333581
 50
307.52351320333912
 51
232.47648680464988
  0
ARC
  8
_0-1_線色１__水色__
  6
CONTINUOUS
 62
    4
 10
1171.9217670147498
 20
714.0646377560779
 40
1.2083333333333179
 50
127.52351320610693
 51
52.47648680188081
  0
ARC
  8
_0-1_線色１__水色__
  6
CONTINUOUS
 62
    4
 10
1167.5058865815902
 20
715.98130442247225
 40
1.2083333333333581
 50
307.52351320333912
 51
232.47648680464988
  0
ARC
  8
_0-1_線色１__水色__
  6
CONTINUOUS
 62
    4
 10
1168.9778467260669
 20
714.06463775587326
 40
1.2083333333333179
 50
127.52351320610693
 51
52.47648680188081
  0
ARC
  8
_0-1_線色１__水色__
  6
CONTINUOUS
 62
    4
 10
1164.5619662929073
 20
715.98130442226761
 40
1.2083333333333581
 50
307.52351320333912
 51
232.47648680464988
  0
ARC
  8
_0-1_線色１__水色__
  6
CONTINUOUS
 62
    4
 10
1166.033926437384
 20
714.06463775566749
 40
1.2083333333333179
 50
127.52351320610693
 51
52.47648680188081
  0
ARC
  8
_0-1_線色１__水色__
  6
CONTINUOUS
 62
    4
 10
1161.6180460042244
 20
715.98130442206184
 40
1.2083333333333581
 50
307.52351320333912
 51
232.47648680464988
  0
ARC
  8
_0-1_線色１__水色__
  6
CONTINUOUS
 62
    4
 10
1160.146085860016
 20
714.06463775525708
 40
1.2083333333333179
 50
127.52351320610693
 51
52.47648680188081
  0
ARC
  8
_0-1_線色１__水色__
  6
CONTINUOUS
 62
    4
 10
1163.0900061486989
 20
714.06463775546285
 40
1.2083333333333179
 50
127.52351320610693
 51
52.47648680188081
  0
ARC
  8
_0-1_線色１__水色__
  6
CONTINUOUS
 62
    4
 10
1183.6974481694836
 20
714.06463775628254
 40
1.2083333333333179
 50
127.52351320610693
 51
52.47648680188081
  0
ARC
  8
_0-1_線色１__水色__
  6
CONTINUOUS
 62
    4
 10
1182.2254880250068
 20
715.98130442288266
 40
1.2083333333333581
 50
307.52351320333912
 51
232.47648680464988
  0
ARC
  8
_0-1_線色１__水色__
  6
CONTINUOUS
 62
    4
 10
1158.6741257155415
 20
715.9813044218572
 40
1.2083333333333581
 50
307.52351320333912
 51
232.47648680464988
  0
ARC
  8
_0-1_線色１__水色__
  6
CONTINUOUS
 62
    4
 10
1118.9312018184717
 20
714.06463775298221
 40
1.2083333333333179
 50
127.52351320610693
 51
52.47648680188081
  0
ARC
  8
_0-1_線色１__水色__
  6
CONTINUOUS
 62
    4
 10
1117.4592416739972
 20
715.98130441958233
 40
1.2083333333333581
 50
307.52351320333912
 51
232.47648680464988
  0
ARC
  8
_0-1_線色１__水色__
  6
CONTINUOUS
 62
    4
 10
1129.234922828731
 20
715.98130442040315
 40
1.2083333333333581
 50
307.52351320333912
 51
232.47648680464988
  0
ARC
  8
_0-1_線色１__水色__
  6
CONTINUOUS
 62
    4
 10
1126.2910025400481
 20
715.98130442019738
 40
1.2083333333333581
 50
307.52351320333912
 51
232.47648680464988
  0
ARC
  8
_0-1_線色１__水色__
  6
CONTINUOUS
 62
    4
 10
1127.7629626845226
 20
714.06463775359839
 40
1.2083333333333179
 50
127.52351320610693
 51
52.47648680188081
  0
ARC
  8
_0-1_線色１__水色__
  6
CONTINUOUS
 62
    4
 10
1123.3470822513652
 20
715.9813044199916
 40
1.2083333333333581
 50
307.52351320333912
 51
232.47648680464988
  0
ARC
  8
_0-1_線色１__水色__
  6
CONTINUOUS
 62
    4
 10
1121.8751221071568
 20
714.06463775318684
 40
1.2083333333333179
 50
127.52351320610693
 51
52.47648680188081
  0
ARC
  8
_0-1_線色１__水色__
  6
CONTINUOUS
 62
    4
 10
1124.8190423958397
 20
714.06463775339262
 40
1.2083333333333179
 50
127.52351320610693
 51
52.47648680188081
  0
ARC
  8
_0-1_線色１__水色__
  6
CONTINUOUS
 62
    4
 10
1120.4031619626801
 20
715.98130441978697
 40
1.2083333333333581
 50
307.52351320333912
 51
232.47648680464988
  0
ARC
  8
_0-1_線色１__水色__
  6
CONTINUOUS
 62
    4
 10
1130.7068829732054
 20
714.06463775380303
 40
1.2083333333333179
 50
127.52351320610693
 51
52.47648680188081
  0
ARC
  8
_0-1_線色１__水色__
  6
CONTINUOUS
 62
    4
 10
1085.0761184985038
 20
715.98130441853868
 40
1.2083333333333581
 50
307.52351320333912
 51
232.47648680464988
  0
ARC
  8
_0-1_線色１__水色__
  6
CONTINUOUS
 62
    4
 10
1086.5480786429805
 20
714.06463775193856
 40
1.2083333333333179
 50
127.52351320610693
 51
52.47648680188081
  0
ARC
  8
_0-1_線色１__水色__
  6
CONTINUOUS
 62
    4
 10
1082.1321982098209
 20
715.98130441833291
 40
1.2083333333333581
 50
307.52351320333912
 51
232.47648680464988
  0
ARC
  8
_0-1_線色１__水色__
  6
CONTINUOUS
 62
    4
 10
1083.6041583542954
 20
714.06463775173393
 40
1.2083333333333179
 50
127.52351320610693
 51
52.47648680188081
  0
ARC
  8
_0-1_線色１__水色__
  6
CONTINUOUS
 62
    4
 10
1079.188277921138
 20
715.98130441812827
 40
1.2083333333333581
 50
307.52351320333912
 51
232.47648680464988
  0
ARC
  8
_0-1_線色１__水色__
  6
CONTINUOUS
 62
    4
 10
1080.6602380656125
 20
714.06463775152815
 40
1.2083333333333179
 50
127.52351320610693
 51
52.47648680188081
  0
ARC
  8
_0-1_線色１__水色__
  6
CONTINUOUS
 62
    4
 10
1076.2443576324551
 20
715.9813044179225
 40
1.2083333333333581
 50
307.52351320333912
 51
232.47648680464988
  0
ARC
  8
_0-1_線色１__水色__
  6
CONTINUOUS
 62
    4
 10
1077.7163177769296
 20
714.06463775132352
 40
1.2083333333333179
 50
127.52351320610693
 51
52.47648680188081
  0
ARC
  8
_0-1_線色１__水色__
  6
CONTINUOUS
 62
    4
 10
1073.30043734377
 20
715.98130441771787
 40
1.2083333333333581
 50
307.52351320333912
 51
232.47648680464988
  0
ARC
  8
_0-1_線色１__水色__
  6
CONTINUOUS
 62
    4
 10
1074.7723974882467
 20
714.06463775111774
 40
1.2083333333333179
 50
127.52351320610693
 51
52.47648680188081
  0
ARC
  8
_0-1_線色１__水色__
  6
CONTINUOUS
 62
    4
 10
1070.3565170550871
 20
715.98130441751209
 40
1.2083333333333581
 50
307.52351320333912
 51
232.47648680464988
  0
ARC
  8
_0-1_線色１__水色__
  6
CONTINUOUS
 62
    4
 10
1071.8284771995616
 20
714.06463775091311
 40
1.2083333333333179
 50
127.52351320610693
 51
52.47648680188081
  0
ARC
  8
_0-1_線色１__水色__
  6
CONTINUOUS
 62
    4
 10
1067.4125967664042
 20
715.98130441730746
 40
1.2083333333333581
 50
307.52351320333912
 51
232.47648680464988
  0
ARC
  8
_0-1_線色１__水色__
  6
CONTINUOUS
 62
    4
 10
1065.9406366221958
 20
714.0646377505027
 40
1.2083333333333179
 50
127.52351320610693
 51
52.47648680188081
  0
ARC
  8
_0-1_線色１__水色__
  6
CONTINUOUS
 62
    4
 10
1068.8845569108787
 20
714.06463775070733
 40
1.2083333333333179
 50
127.52351320610693
 51
52.47648680188081
  0
ARC
  8
_0-1_線色１__水色__
  6
CONTINUOUS
 62
    4
 10
1089.4919989316634
 20
714.06463775152815
 40
1.2083333333333179
 50
127.52351320610693
 51
52.47648680188081
  0
ARC
  8
_0-1_線色１__水色__
  6
CONTINUOUS
 62
    4
 10
1088.0200387871866
 20
715.98130441812827
 40
1.2083333333333581
 50
307.52351320333912
 51
232.47648680464988
  0
ARC
  8
_0-1_線色１__水色__
  6
CONTINUOUS
 62
    4
 10
1064.4686764777214
 20
715.98130441710168
 40
1.2083333333333581
 50
307.52351320333912
 51
232.47648680464988
  0
ARC
  8
_0-1_線色１__水色__
  6
CONTINUOUS
 62
    4
 10
1111.5714010966542
 20
715.98130441976991
 40
1.2083333333333581
 50
307.52351320333912
 51
232.47648680464988
  0
ARC
  8
_0-1_線色１__水色__
  6
CONTINUOUS
 62
    4
 10
1113.0433612411287
 20
714.06463775316979
 40
1.2083333333333179
 50
127.52351320610693
 51
52.47648680188081
  0
ARC
  8
_0-1_線色１__水色__
  6
CONTINUOUS
 62
    4
 10
1108.6274808079713
 20
715.98130441956414
 40
1.2083333333333581
 50
307.52351320333912
 51
232.47648680464988
  0
ARC
  8
_0-1_線色１__水色__
  6
CONTINUOUS
 62
    4
 10
1110.0994409524458
 20
714.06463775296402
 40
1.2083333333333179
 50
127.52351320610693
 51
52.47648680188081
  0
ARC
  8
_0-1_線色１__水色__
  6
CONTINUOUS
 62
    4
 10
1105.6835605192884
 20
715.9813044193595
 40
1.2083333333333581
 50
307.52351320333912
 51
232.47648680464988
  0
ARC
  8
_0-1_線色１__水色__
  6
CONTINUOUS
 62
    4
 10
1107.1555206637629
 20
714.06463775275938
 40
1.2083333333333179
 50
127.52351320610693
 51
52.47648680188081
  0
ARC
  8
_0-1_線色１__水色__
  6
CONTINUOUS
 62
    4
 10
1102.7396402306033
 20
715.98130441915373
 40
1.2083333333333581
 50
307.52351320333912
 51
232.47648680464988
  0
ARC
  8
_0-1_線色１__水色__
  6
CONTINUOUS
 62
    4
 10
1104.21160037508
 20
714.06463775255361
 40
1.2083333333333179
 50
127.52351320610693
 51
52.47648680188081
  0
ARC
  8
_0-1_線色１__水色__
  6
CONTINUOUS
 62
    4
 10
1099.7957199419204
 20
715.98130441894909
 40
1.2083333333333581
 50
307.52351320333912
 51
232.47648680464988
  0
ARC
  8
_0-1_線色１__水色__
  6
CONTINUOUS
 62
    4
 10
1101.2676800863949
 20
714.06463775234897
 40
1.2083333333333179
 50
127.52351320610693
 51
52.47648680188081
  0
ARC
  8
_0-1_線色１__水色__
  6
CONTINUOUS
 62
    4
 10
1096.8517996532375
 20
715.98130441874332
 40
1.2083333333333581
 50
307.52351320333912
 51
232.47648680464988
  0
ARC
  8
_0-1_線色１__水色__
  6
CONTINUOUS
 62
    4
 10
1098.323759797712
 20
714.06463775214434
 40
1.2083333333333179
 50
127.52351320610693
 51
52.47648680188081
  0
ARC
  8
_0-1_線色１__水色__
  6
CONTINUOUS
 62
    4
 10
1093.9078793645547
 20
715.98130441853868
 40
1.2083333333333581
 50
307.52351320333912
 51
232.47648680464988
  0
ARC
  8
_0-1_線色１__水色__
  6
CONTINUOUS
 62
    4
 10
1092.4359192203462
 20
714.06463775173393
 40
1.2083333333333179
 50
127.52351320610693
 51
52.47648680188081
  0
ARC
  8
_0-1_線色１__水色__
  6
CONTINUOUS
 62
    4
 10
1095.3798395090291
 20
714.06463775193856
 40
1.2083333333333179
 50
127.52351320610693
 51
52.47648680188081
  0
ARC
  8
_0-1_線色１__水色__
  6
CONTINUOUS
 62
    4
 10
1115.9872815298115
 20
714.06463775275938
 40
1.2083333333333179
 50
127.52351320610693
 51
52.47648680188081
  0
ARC
  8
_0-1_線色１__水色__
  6
CONTINUOUS
 62
    4
 10
1114.5153213853371
 20
715.9813044193595
 40
1.2083333333333581
 50
307.52351320333912
 51
232.47648680464988
  0
ARC
  8
_0-1_線色１__水色__
  6
CONTINUOUS
 62
    4
 10
1090.9639590758695
 20
715.98130441833291
 40
1.2083333333333581
 50
307.52351320333912
 51
232.47648680464988
  0
ARC
  8
_0-1_線色１__水色__
  6
CONTINUOUS
 62
    4
 10
1061.524756189059
 20
715.98130441687886
 40
1.2083333333333581
 50
307.52351320333912
 51
232.47648680464988
  0
ARC
  8
_0-1_線色１__水色__
  6
CONTINUOUS
 62
    4
 10
1058.5808359003761
 20
715.98130441667422
 40
1.2083333333333581
 50
307.52351320333912
 51
232.47648680464988
  0
ARC
  8
_0-1_線色１__水色__
  6
CONTINUOUS
 62
    4
 10
1060.0527960448528
 20
714.0646377500741
 40
1.2083333333333179
 50
127.52351320610693
 51
52.47648680188081
  0
ARC
  8
_0-1_線色１__水色__
  6
CONTINUOUS
 62
    4
 10
1055.6369156116932
 20
715.98130441646845
 40
1.2083333333333581
 50
307.52351320333912
 51
232.47648680464988
  0
ARC
  8
_0-1_線色１__水色__
  6
CONTINUOUS
 62
    4
 10
1057.1088757561677
 20
714.06463774986946
 40
1.2083333333333179
 50
127.52351320610693
 51
52.47648680188081
  0
ARC
  8
_0-1_線色１__水色__
  6
CONTINUOUS
 62
    4
 10
1062.9967163335357
 20
714.06463775027873
 40
1.2083333333333179
 50
127.52351320610693
 51
52.47648680188081
  0
ARC
  8
_0-1_線色１__水色__
  6
CONTINUOUS
 62
    4
 10
1017.365951858834
 20
715.98130441501439
 40
1.2083333333333581
 50
307.52351320333912
 51
232.47648680464988
  0
ARC
  8
_0-1_線色１__水色__
  6
CONTINUOUS
 62
    4
 10
1018.8379120033085
 20
714.06463774841427
 40
1.2083333333333179
 50
127.52351320610693
 51
52.47648680188081
  0
ARC
  8
_0-1_線色１__水色__
  6
CONTINUOUS
 62
    4
 10
1014.4220315701489
 20
715.98130441480976
 40
1.2083333333333581
 50
307.52351320333912
 51
232.47648680464988
  0
ARC
  8
_0-1_線色１__水色__
  6
CONTINUOUS
 62
    4
 10
1015.8939917146256
 20
714.06463774820963
 40
1.2083333333333179
 50
127.52351320610693
 51
52.47648680188081
  0
ARC
  8
_0-1_線色１__水色__
  6
CONTINUOUS
 62
    4
 10
1011.478111281466
 20
715.98130441460398
 40
1.2083333333333581
 50
307.52351320333912
 51
232.47648680464988
  0
ARC
  8
_0-1_線色１__水色__
  6
CONTINUOUS
 62
    4
 10
1012.9500714259427
 20
714.064637748005
 40
1.2083333333333179
 50
127.52351320610693
 51
52.47648680188081
  0
ARC
  8
_0-1_線色１__水色__
  6
CONTINUOUS
 62
    4
 10
1008.5341909927831
 20
715.98130441439821
 40
1.2083333333333581
 50
307.52351320333912
 51
232.47648680464988
  0
ARC
  8
_0-1_線色１__水色__
  6
CONTINUOUS
 62
    4
 10
1010.0061511372576
 20
714.06463774779922
 40
1.2083333333333179
 50
127.52351320610693
 51
52.47648680188081
  0
ARC
  8
_0-1_線色１__水色__
  6
CONTINUOUS
 62
    4
 10
1005.5902707041002
 20
715.98130441419357
 40
1.2083333333333581
 50
307.52351320333912
 51
232.47648680464988
  0
ARC
  8
_0-1_線色１__水色__
  6
CONTINUOUS
 62
    4
 10
1007.0622308485747
 20
714.06463774759345
 40
1.2083333333333179
 50
127.52351320610693
 51
52.47648680188081
  0
ARC
  8
_0-1_線色１__水色__
  6
CONTINUOUS
 62
    4
 10
1002.6463504154174
 20
715.98130441398894
 40
1.2083333333333581
 50
307.52351320333912
 51
232.47648680464988
  0
ARC
  8
_0-1_線色１__水色__
  6
CONTINUOUS
 62
    4
 10
1004.1183105598918
 20
714.06463774738882
 40
1.2083333333333179
 50
127.52351320610693
 51
52.47648680188081
  0
ARC
  8
_0-1_線色１__水色__
  6
CONTINUOUS
 62
    4
 10
999.70243012673222
 20
715.98130441378316
 40
1.2083333333333581
 50
307.52351320333912
 51
232.47648680464988
  0
ARC
  8
_0-1_線色１__水色__
  6
CONTINUOUS
 62
    4
 10
998.23046998252607
 20
714.06463774697841
 40
1.2083333333333179
 50
127.52351320610693
 51
52.47648680188081
  0
ARC
  8
_0-1_線色１__水色__
  6
CONTINUOUS
 62
    4
 10
1001.1743902712089
 20
714.06463774718418
 40
1.2083333333333179
 50
127.52351320610693
 51
52.47648680188081
  0
ARC
  8
_0-1_線色１__水色__
  6
CONTINUOUS
 62
    4
 10
1021.7818322919913
 20
714.064637748005
 40
1.2083333333333179
 50
127.52351320610693
 51
52.47648680188081
  0
ARC
  8
_0-1_線色１__水色__
  6
CONTINUOUS
 62
    4
 10
1020.3098721475169
 20
715.98130441460398
 40
1.2083333333333581
 50
307.52351320333912
 51
232.47648680464988
  0
ARC
  8
_0-1_線色１__水色__
  6
CONTINUOUS
 62
    4
 10
996.75850983804935
 20
715.98130441357739
 40
1.2083333333333581
 50
307.52351320333912
 51
232.47648680464988
  0
ARC
  8
_0-1_線色１__水色__
  6
CONTINUOUS
 62
    4
 10
1043.8612344569822
 20
715.98130441624562
 40
1.2083333333333581
 50
307.52351320333912
 51
232.47648680464988
  0
ARC
  8
_0-1_線色１__水色__
  6
CONTINUOUS
 62
    4
 10
1040.9173141682993
 20
715.98130441603985
 40
1.2083333333333581
 50
307.52351320333912
 51
232.47648680464988
  0
ARC
  8
_0-1_線色１__水色__
  6
CONTINUOUS
 62
    4
 10
1042.389274312776
 20
714.06463774943973
 40
1.2083333333333179
 50
127.52351320610693
 51
52.47648680188081
  0
ARC
  8
_0-1_線色１__水色__
  6
CONTINUOUS
 62
    4
 10
1037.9733938796164
 20
715.98130441583521
 40
1.2083333333333581
 50
307.52351320333912
 51
232.47648680464988
  0
ARC
  8
_0-1_線色１__水色__
  6
CONTINUOUS
 62
    4
 10
1039.4453540240909
 20
714.06463774923509
 40
1.2083333333333179
 50
127.52351320610693
 51
52.47648680188081
  0
ARC
  8
_0-1_線色１__水色__
  6
CONTINUOUS
 62
    4
 10
1035.0294735909335
 20
715.98130441563058
 40
1.2083333333333581
 50
307.52351320333912
 51
232.47648680464988
  0
ARC
  8
_0-1_線色１__水色__
  6
CONTINUOUS
 62
    4
 10
1036.501433735408
 20
714.06463774903045
 40
1.2083333333333179
 50
127.52351320610693
 51
52.47648680188081
  0
ARC
  8
_0-1_線色１__水色__
  6
CONTINUOUS
 62
    4
 10
1032.0855533022507
 20
715.9813044154248
 40
1.2083333333333581
 50
307.52351320333912
 51
232.47648680464988
  0
ARC
  8
_0-1_線色１__水色__
  6
CONTINUOUS
 62
    4
 10
1033.5575134467251
 20
714.06463774882582
 40
1.2083333333333179
 50
127.52351320610693
 51
52.47648680188081
  0
ARC
  8
_0-1_線色１__水色__
  6
CONTINUOUS
 62
    4
 10
1029.1416330135655
 20
715.98130441521903
 40
1.2083333333333581
 50
307.52351320333912
 51
232.47648680464988
  0
ARC
  8
_0-1_線色１__水色__
  6
CONTINUOUS
 62
    4
 10
1030.6135931580422
 20
714.06463774862004
 40
1.2083333333333179
 50
127.52351320610693
 51
52.47648680188081
  0
ARC
  8
_0-1_線色１__水色__
  6
CONTINUOUS
 62
    4
 10
1026.1977127248826
 20
715.98130441501439
 40
1.2083333333333581
 50
307.52351320333912
 51
232.47648680464988
  0
ARC
  8
_0-1_線色１__水色__
  6
CONTINUOUS
 62
    4
 10
1024.7257525806742
 20
714.06463774820963
 40
1.2083333333333179
 50
127.52351320610693
 51
52.47648680188081
  0
ARC
  8
_0-1_線色１__水色__
  6
CONTINUOUS
 62
    4
 10
1027.6696728693594
 20
714.06463774841427
 40
1.2083333333333179
 50
127.52351320610693
 51
52.47648680188081
  0
ARC
  8
_0-1_線色１__水色__
  6
CONTINUOUS
 62
    4
 10
1023.2537924361998
 20
715.98130441480976
 40
1.2083333333333581
 50
307.52351320333912
 51
232.47648680464988
  0
ARC
  8
_0-1_線色１__水色__
  6
CONTINUOUS
 62
    4
 10
983.51086853913216
 20
714.06463774593476
 40
1.2083333333333179
 50
127.52351320610693
 51
52.47648680188081
  0
ARC
  8
_0-1_線色１__水色__
  6
CONTINUOUS
 62
    4
 10
982.03890839465544
 20
715.98130441253375
 40
1.2083333333333581
 50
307.52351320333912
 51
232.47648680464988
  0
ARC
  8
_0-1_線色１__水色__
  6
CONTINUOUS
 62
    4
 10
993.81458954938921
 20
715.98130441335456
 40
1.2083333333333581
 50
307.52351320333912
 51
232.47648680464988
  0
ARC
  8
_0-1_線色１__水色__
  6
CONTINUOUS
 62
    4
 10
990.87066926070634
 20
715.98130441314993
 40
1.2083333333333581
 50
307.52351320333912
 51
232.47648680464988
  0
ARC
  8
_0-1_線色１__水色__
  6
CONTINUOUS
 62
    4
 10
992.34262940518079
 20
714.06463774654981
 40
1.2083333333333179
 50
127.52351320610693
 51
52.47648680188081
  0
ARC
  8
_0-1_線色１__水色__
  6
CONTINUOUS
 62
    4
 10
987.92674897202346
 20
715.98130441294529
 40
1.2083333333333581
 50
307.52351320333912
 51
232.47648680464988
  0
ARC
  8
_0-1_線色１__水色__
  6
CONTINUOUS
 62
    4
 10
986.45478882781504
 20
714.06463774614053
 40
1.2083333333333179
 50
127.52351320610693
 51
52.47648680188081
  0
ARC
  8
_0-1_線色１__水色__
  6
CONTINUOUS
 62
    4
 10
989.39870911649791
 20
714.06463774634517
 40
1.2083333333333179
 50
127.52351320610693
 51
52.47648680188081
  0
ARC
  8
_0-1_線色１__水色__
  6
CONTINUOUS
 62
    4
 10
984.98282868333831
 20
715.98130441273952
 40
1.2083333333333581
 50
307.52351320333912
 51
232.47648680464988
  0
ARC
  8
_0-1_線色１__水色__
  6
CONTINUOUS
 62
    4
 10
995.28654969386366
 20
714.06463774675558
 40
1.2083333333333179
 50
127.52351320610693
 51
52.47648680188081
  0
ARC
  8
_0-1_線色１__水色__
  6
CONTINUOUS
 62
    4
 10
949.655785219162
 20
715.9813044114901
 40
1.2083333333333581
 50
307.52351320333912
 51
232.47648680464988
  0
ARC
  8
_0-1_線色１__水色__
  6
CONTINUOUS
 62
    4
 10
951.12774536363872
 20
714.06463774489112
 40
1.2083333333333179
 50
127.52351320610693
 51
52.47648680188081
  0
ARC
  8
_0-1_線色１__水色__
  6
CONTINUOUS
 62
    4
 10
946.71186493047912
 20
715.98130441128546
 40
1.2083333333333581
 50
307.52351320333912
 51
232.47648680464988
  0
ARC
  8
_0-1_線色１__水色__
  6
CONTINUOUS
 62
    4
 10
948.18382507495585
 20
714.06463774468534
 40
1.2083333333333179
 50
127.52351320610693
 51
52.47648680188081
  0
ARC
  8
_0-1_線色１__水色__
  6
CONTINUOUS
 62
    4
 10
943.76794464179625
 20
715.98130441108083
 40
1.2083333333333581
 50
307.52351320333912
 51
232.47648680464988
  0
ARC
  8
_0-1_線色１__水色__
  6
CONTINUOUS
 62
    4
 10
945.2399047862707
 20
714.06463774448071
 40
1.2083333333333179
 50
127.52351320610693
 51
52.47648680188081
  0
ARC
  8
_0-1_線色１__水色__
  6
CONTINUOUS
 62
    4
 10
940.82402435311337
 20
715.98130441087505
 40
1.2083333333333581
 50
307.52351320333912
 51
232.47648680464988
  0
ARC
  8
_0-1_線色１__水色__
  6
CONTINUOUS
 62
    4
 10
942.29598449758782
 20
714.06463774427607
 40
1.2083333333333179
 50
127.52351320610693
 51
52.47648680188081
  0
ARC
  8
_0-1_線色１__水色__
  6
CONTINUOUS
 62
    4
 10
937.8801040644305
 20
715.98130441066928
 40
1.2083333333333581
 50
307.52351320333912
 51
232.47648680464988
  0
ARC
  8
_0-1_線色１__水色__
  6
CONTINUOUS
 62
    4
 10
939.35206420890495
 20
714.0646377440703
 40
1.2083333333333179
 50
127.52351320610693
 51
52.47648680188081
  0
ARC
  8
_0-1_線色１__水色__
  6
CONTINUOUS
 62
    4
 10
934.93618377574535
 20
715.98130441046465
 40
1.2083333333333581
 50
307.52351320333912
 51
232.47648680464988
  0
ARC
  8
_0-1_線色１__水色__
  6
CONTINUOUS
 62
    4
 10
936.40814392022207
 20
714.06463774386452
 40
1.2083333333333179
 50
127.52351320610693
 51
52.47648680188081
  0
ARC
  8
_0-1_線色１__水色__
  6
CONTINUOUS
 62
    4
 10
931.99226348706247
 20
715.98130441026001
 40
1.2083333333333581
 50
307.52351320333912
 51
232.47648680464988
  0
ARC
  8
_0-1_線色１__水色__
  6
CONTINUOUS
 62
    4
 10
930.52030334285405
 20
714.06463774345525
 40
1.2083333333333179
 50
127.52351320610693
 51
52.47648680188081
  0
ARC
  8
_0-1_線色１__水色__
  6
CONTINUOUS
 62
    4
 10
933.4642236315392
 20
714.06463774365989
 40
1.2083333333333179
 50
127.52351320610693
 51
52.47648680188081
  0
ARC
  8
_0-1_線色１__水色__
  6
CONTINUOUS
 62
    4
 10
954.0716656523216
 20
714.06463774448071
 40
1.2083333333333179
 50
127.52351320610693
 51
52.47648680188081
  0
ARC
  8
_0-1_線色１__水色__
  6
CONTINUOUS
 62
    4
 10
952.59970550784715
 20
715.98130441108083
 40
1.2083333333333581
 50
307.52351320333912
 51
232.47648680464988
  0
ARC
  8
_0-1_線色１__水色__
  6
CONTINUOUS
 62
    4
 10
929.0483431983796
 20
715.98130441005424
 40
1.2083333333333581
 50
307.52351320333912
 51
232.47648680464988
  0
ARC
  8
_0-1_線色１__水色__
  6
CONTINUOUS
 62
    4
 10
976.15106781731242
 20
715.98130441272247
 40
1.2083333333333581
 50
307.52351320333912
 51
232.47648680464988
  0
ARC
  8
_0-1_線色１__水色__
  6
CONTINUOUS
 62
    4
 10
977.62302796178915
 20
714.06463774612234
 40
1.2083333333333179
 50
127.52351320610693
 51
52.47648680188081
  0
ARC
  8
_0-1_線色１__水色__
  6
CONTINUOUS
 62
    4
 10
973.20714752862955
 20
715.98130441251669
 40
1.2083333333333581
 50
307.52351320333912
 51
232.47648680464988
  0
ARC
  8
_0-1_線色１__水色__
  6
CONTINUOUS
 62
    4
 10
974.679107673104
 20
714.06463774591657
 40
1.2083333333333179
 50
127.52351320610693
 51
52.47648680188081
  0
ARC
  8
_0-1_線色１__水色__
  6
CONTINUOUS
 62
    4
 10
970.26322723994667
 20
715.98130441231092
 40
1.2083333333333581
 50
307.52351320333912
 51
232.47648680464988
  0
ARC
  8
_0-1_線色１__水色__
  6
CONTINUOUS
 62
    4
 10
971.73518738442112
 20
714.0646377457108
 40
1.2083333333333179
 50
127.52351320610693
 51
52.47648680188081
  0
ARC
  8
_0-1_線色１__水色__
  6
CONTINUOUS
 62
    4
 10
967.3193069512638
 20
715.98130441210628
 40
1.2083333333333581
 50
307.52351320333912
 51
232.47648680464988
  0
ARC
  8
_0-1_線色１__水色__
  6
CONTINUOUS
 62
    4
 10
968.79126709573825
 20
714.06463774550616
 40
1.2083333333333179
 50
127.52351320610693
 51
52.47648680188081
  0
ARC
  8
_0-1_線色１__水色__
  6
CONTINUOUS
 62
    4
 10
964.37538666257865
 20
715.98130441190165
 40
1.2083333333333581
 50
307.52351320333912
 51
232.47648680464988
  0
ARC
  8
_0-1_線色１__水色__
  6
CONTINUOUS
 62
    4
 10
965.84734680705537
 20
714.06463774530152
 40
1.2083333333333179
 50
127.52351320610693
 51
52.47648680188081
  0
ARC
  8
_0-1_線色１__水色__
  6
CONTINUOUS
 62
    4
 10
961.43146637389577
 20
715.98130441169587
 40
1.2083333333333581
 50
307.52351320333912
 51
232.47648680464988
  0
ARC
  8
_0-1_線色１__水色__
  6
CONTINUOUS
 62
    4
 10
962.90342651837022
 20
714.06463774509689
 40
1.2083333333333179
 50
127.52351320610693
 51
52.47648680188081
  0
ARC
  8
_0-1_線色１__水色__
  6
CONTINUOUS
 62
    4
 10
958.4875460852129
 20
715.9813044114901
 40
1.2083333333333581
 50
307.52351320333912
 51
232.47648680464988
  0
ARC
  8
_0-1_線色１__水色__
  6
CONTINUOUS
 62
    4
 10
957.01558594100447
 20
714.06463774468534
 40
1.2083333333333179
 50
127.52351320610693
 51
52.47648680188081
  0
ARC
  8
_0-1_線色１__水色__
  6
CONTINUOUS
 62
    4
 10
959.95950622968735
 20
714.06463774489112
 40
1.2083333333333179
 50
127.52351320610693
 51
52.47648680188081
  0
ARC
  8
_0-1_線色１__水色__
  6
CONTINUOUS
 62
    4
 10
980.56694825047202
 20
714.0646377457108
 40
1.2083333333333179
 50
127.52351320610693
 51
52.47648680188081
  0
ARC
  8
_0-1_線色１__水色__
  6
CONTINUOUS
 62
    4
 10
979.0949881059953
 20
715.98130441231092
 40
1.2083333333333581
 50
307.52351320333912
 51
232.47648680464988
  0
ARC
  8
_0-1_線色１__水色__
  6
CONTINUOUS
 62
    4
 10
955.54362579653002
 20
715.98130441128546
 40
1.2083333333333581
 50
307.52351320333912
 51
232.47648680464988
  0
ARC
  8
_0-1_線色１__水色__
  6
CONTINUOUS
 62
    4
 10
915.80070189946014
 20
714.06463774241047
 40
1.2083333333333179
 50
127.52351320610693
 51
52.47648680188081
  0
ARC
  8
_0-1_線色１__水色__
  6
CONTINUOUS
 62
    4
 10
914.32874175498569
 20
715.98130440901059
 40
1.2083333333333581
 50
307.52351320333912
 51
232.47648680464988
  0
ARC
  8
_0-1_線色１__水色__
  6
CONTINUOUS
 62
    4
 10
926.10442290971946
 20
715.98130440983141
 40
1.2083333333333581
 50
307.52351320333912
 51
232.47648680464988
  0
ARC
  8
_0-1_線色１__水色__
  6
CONTINUOUS
 62
    4
 10
923.16050262103431
 20
715.98130440962564
 40
1.2083333333333581
 50
307.52351320333912
 51
232.47648680464988
  0
ARC
  8
_0-1_線色１__水色__
  6
CONTINUOUS
 62
    4
 10
924.63246276551104
 20
714.06463774302665
 40
1.2083333333333179
 50
127.52351320610693
 51
52.47648680188081
  0
ARC
  8
_0-1_線色１__水色__
  6
CONTINUOUS
 62
    4
 10
920.21658233235144
 20
715.981304409421
 40
1.2083333333333581
 50
307.52351320333912
 51
232.47648680464988
  0
ARC
  8
_0-1_線色１__水色__
  6
CONTINUOUS
 62
    4
 10
918.74462218814301
 20
714.06463774261624
 40
1.2083333333333179
 50
127.52351320610693
 51
52.47648680188081
  0
ARC
  8
_0-1_線色１__水色__
  6
CONTINUOUS
 62
    4
 10
921.68854247682816
 20
714.06463774282088
 40
1.2083333333333179
 50
127.52351320610693
 51
52.47648680188081
  0
ARC
  8
_0-1_線色１__水色__
  6
CONTINUOUS
 62
    4
 10
917.27266204366856
 20
715.98130440921523
 40
1.2083333333333581
 50
307.52351320333912
 51
232.47648680464988
  0
ARC
  8
_0-1_線色１__水色__
  6
CONTINUOUS
 62
    4
 10
927.57638305419391
 20
714.06463774323129
 40
1.2083333333333179
 50
127.52351320610693
 51
52.47648680188081
  0
ARC
  8
_0-1_線色１__水色__
  6
CONTINUOUS
 62
    4
 10
881.94561857949225
 20
715.98130440796695
 40
1.2083333333333581
 50
307.52351320333912
 51
232.47648680464988
  0
ARC
  8
_0-1_線色１__水色__
  6
CONTINUOUS
 62
    4
 10
883.4175787239667
 20
714.06463774136796
 40
1.2083333333333179
 50
127.52351320610693
 51
52.47648680188081
  0
ARC
  8
_0-1_線色１__水色__
  6
CONTINUOUS
 62
    4
 10
879.00169829080937
 20
715.98130440776117
 40
1.2083333333333581
 50
307.52351320333912
 51
232.47648680464988
  0
ARC
  8
_0-1_線色１__水色__
  6
CONTINUOUS
 62
    4
 10
880.47365843528382
 20
714.06463774116219
 40
1.2083333333333179
 50
127.52351320610693
 51
52.47648680188081
  0
ARC
  8
_0-1_線色１__水色__
  6
CONTINUOUS
 62
    4
 10
876.0577780021265
 20
715.98130440755654
 40
1.2083333333333581
 50
307.52351320333912
 51
232.47648680464988
  0
ARC
  8
_0-1_線色１__水色__
  6
CONTINUOUS
 62
    4
 10
877.52973814660095
 20
714.06463774095641
 40
1.2083333333333179
 50
127.52351320610693
 51
52.47648680188081
  0
ARC
  8
_0-1_線色１__水色__
  6
CONTINUOUS
 62
    4
 10
873.11385771344135
 20
715.9813044073519
 40
1.2083333333333581
 50
307.52351320333912
 51
232.47648680464988
  0
ARC
  8
_0-1_線色１__水色__
  6
CONTINUOUS
 62
    4
 10
874.58581785791807
 20
714.06463774075178
 40
1.2083333333333179
 50
127.52351320610693
 51
52.47648680188081
  0
ARC
  8
_0-1_線色１__水色__
  6
CONTINUOUS
 62
    4
 10
870.16993742475847
 20
715.98130440714613
 40
1.2083333333333581
 50
307.52351320333912
 51
232.47648680464988
  0
ARC
  8
_0-1_線色１__水色__
  6
CONTINUOUS
 62
    4
 10
871.64189756923292
 20
714.06463774054714
 40
1.2083333333333179
 50
127.52351320610693
 51
52.47648680188081
  0
ARC
  8
_0-1_線色１__水色__
  6
CONTINUOUS
 62
    4
 10
867.2260171360756
 20
715.98130440694035
 40
1.2083333333333581
 50
307.52351320333912
 51
232.47648680464988
  0
ARC
  8
_0-1_線色１__水色__
  6
CONTINUOUS
 62
    4
 10
868.69797728055005
 20
714.06463774034137
 40
1.2083333333333179
 50
127.52351320610693
 51
52.47648680188081
  0
ARC
  8
_0-1_線色１__水色__
  6
CONTINUOUS
 62
    4
 10
864.28209684739272
 20
715.98130440673572
 40
1.2083333333333581
 50
307.52351320333912
 51
232.47648680464988
  0
ARC
  8
_0-1_線色１__水色__
  6
CONTINUOUS
 62
    4
 10
862.8101367031843
 20
714.06463773993096
 40
1.2083333333333179
 50
127.52351320610693
 51
52.47648680188081
  0
ARC
  8
_0-1_線色１__水色__
  6
CONTINUOUS
 62
    4
 10
865.75405699186717
 20
714.06463774013559
 40
1.2083333333333179
 50
127.52351320610693
 51
52.47648680188081
  0
ARC
  8
_0-1_線色１__水色__
  6
CONTINUOUS
 62
    4
 10
886.36149901264957
 20
714.06463774095641
 40
1.2083333333333179
 50
127.52351320610693
 51
52.47648680188081
  0
ARC
  8
_0-1_線色１__水色__
  6
CONTINUOUS
 62
    4
 10
884.88953886817512
 20
715.98130440755654
 40
1.2083333333333581
 50
307.52351320333912
 51
232.47648680464988
  0
ARC
  8
_0-1_線色１__水色__
  6
CONTINUOUS
 62
    4
 10
861.33817655870757
 20
715.98130440653108
 40
1.2083333333333581
 50
307.52351320333912
 51
232.47648680464988
  0
ARC
  8
_0-1_線色１__水色__
  6
CONTINUOUS
 62
    4
 10
908.44090117764267
 20
715.98130440919817
 40
1.2083333333333581
 50
307.52351320333912
 51
232.47648680464988
  0
ARC
  8
_0-1_線色１__水色__
  6
CONTINUOUS
 62
    4
 10
909.91286132211712
 20
714.06463774259805
 40
1.2083333333333179
 50
127.52351320610693
 51
52.47648680188081
  0
ARC
  8
_0-1_線色１__水色__
  6
CONTINUOUS
 62
    4
 10
905.4969808889598
 20
715.98130440899354
 40
1.2083333333333581
 50
307.52351320333912
 51
232.47648680464988
  0
ARC
  8
_0-1_線色１__水色__
  6
CONTINUOUS
 62
    4
 10
906.96894103343425
 20
714.06463774239342
 40
1.2083333333333179
 50
127.52351320610693
 51
52.47648680188081
  0
ARC
  8
_0-1_線色１__水色__
  6
CONTINUOUS
 62
    4
 10
902.55306060027465
 20
715.98130440878776
 40
1.2083333333333581
 50
307.52351320333912
 51
232.47648680464988
  0
ARC
  8
_0-1_線色１__水色__
  6
CONTINUOUS
 62
    4
 10
904.02502074475137
 20
714.06463774218764
 40
1.2083333333333179
 50
127.52351320610693
 51
52.47648680188081
  0
ARC
  8
_0-1_線色１__水色__
  6
CONTINUOUS
 62
    4
 10
899.60914031159177
 20
715.98130440858199
 40
1.2083333333333581
 50
307.52351320333912
 51
232.47648680464988
  0
ARC
  8
_0-1_線色１__水色__
  6
CONTINUOUS
 62
    4
 10
901.0811004560685
 20
714.06463774198187
 40
1.2083333333333179
 50
127.52351320610693
 51
52.47648680188081
  0
ARC
  8
_0-1_線色１__水色__
  6
CONTINUOUS
 62
    4
 10
896.6652200229089
 20
715.98130440837735
 40
1.2083333333333581
 50
307.52351320333912
 51
232.47648680464988
  0
ARC
  8
_0-1_線色１__水色__
  6
CONTINUOUS
 62
    4
 10
898.13718016738335
 20
714.06463774177723
 40
1.2083333333333179
 50
127.52351320610693
 51
52.47648680188081
  0
ARC
  8
_0-1_線色１__水色__
  6
CONTINUOUS
 62
    4
 10
893.72129973422602
 20
715.98130440817272
 40
1.2083333333333581
 50
307.52351320333912
 51
232.47648680464988
  0
ARC
  8
_0-1_線色１__水色__
  6
CONTINUOUS
 62
    4
 10
895.19325987870047
 20
714.0646377415726
 40
1.2083333333333179
 50
127.52351320610693
 51
52.47648680188081
  0
ARC
  8
_0-1_線色１__水色__
  6
CONTINUOUS
 62
    4
 10
890.77737944554315
 20
715.98130440796695
 40
1.2083333333333581
 50
307.52351320333912
 51
232.47648680464988
  0
ARC
  8
_0-1_線色１__水色__
  6
CONTINUOUS
 62
    4
 10
889.30541930133472
 20
714.06463774116219
 40
1.2083333333333179
 50
127.52351320610693
 51
52.47648680188081
  0
ARC
  8
_0-1_線色１__水色__
  6
CONTINUOUS
 62
    4
 10
892.2493395900176
 20
714.06463774136796
 40
1.2083333333333179
 50
127.52351320610693
 51
52.47648680188081
  0
ARC
  8
_0-1_線色１__水色__
  6
CONTINUOUS
 62
    4
 10
912.8567816108
 20
714.06463774218764
 40
1.2083333333333179
 50
127.52351320610693
 51
52.47648680188081
  0
ARC
  8
_0-1_線色１__水色__
  6
CONTINUOUS
 62
    4
 10
911.38482146632555
 20
715.98130440878776
 40
1.2083333333333581
 50
307.52351320333912
 51
232.47648680464988
  0
ARC
  8
_0-1_線色１__水色__
  6
CONTINUOUS
 62
    4
 10
887.833459156858
 20
715.98130440776117
 40
1.2083333333333581
 50
307.52351320333912
 51
232.47648680464988
  0
ARC
  8
_0-1_線色１__水色__
  6
CONTINUOUS
 62
    4
 10
848.09053525979039
 20
714.06463773888731
 40
1.2083333333333179
 50
127.52351320610693
 51
52.47648680188081
  0
ARC
  8
_0-1_線色１__水色__
  6
CONTINUOUS
 62
    4
 10
846.61857511531593
 20
715.9813044054863
 40
1.2083333333333581
 50
307.52351320333912
 51
232.47648680464988
  0
ARC
  8
_0-1_線色１__水色__
  6
CONTINUOUS
 62
    4
 10
858.39425627004744
 20
715.98130440630712
 40
1.2083333333333581
 50
307.52351320333912
 51
232.47648680464988
  0
ARC
  8
_0-1_線色１__水色__
  6
CONTINUOUS
 62
    4
 10
855.45033598136456
 20
715.98130440610248
 40
1.2083333333333581
 50
307.52351320333912
 51
232.47648680464988
  0
ARC
  8
_0-1_線色１__水色__
  6
CONTINUOUS
 62
    4
 10
856.92229612584129
 20
714.06463773950236
 40
1.2083333333333179
 50
127.52351320610693
 51
52.47648680188081
  0
ARC
  8
_0-1_線色１__水色__
  6
CONTINUOUS
 62
    4
 10
852.50641569268168
 20
715.98130440589671
 40
1.2083333333333581
 50
307.52351320333912
 51
232.47648680464988
  0
ARC
  8
_0-1_線色１__水色__
  6
CONTINUOUS
 62
    4
 10
851.03445554847326
 20
714.06463773909195
 40
1.2083333333333179
 50
127.52351320610693
 51
52.47648680188081
  0
ARC
  8
_0-1_線色１__水色__
  6
CONTINUOUS
 62
    4
 10
853.97837583715614
 20
714.06463773929772
 40
1.2083333333333179
 50
127.52351320610693
 51
52.47648680188081
  0
ARC
  8
_0-1_線色１__水色__
  6
CONTINUOUS
 62
    4
 10
849.56249540399881
 20
715.98130440569207
 40
1.2083333333333581
 50
307.52351320333912
 51
232.47648680464988
  0
ARC
  8
_0-1_線色１__水色__
  6
CONTINUOUS
 62
    4
 10
859.86621641452416
 20
714.06463773970813
 40
1.2083333333333179
 50
127.52351320610693
 51
52.47648680188081
  0
ARC
  8
_0-1_線色１__水色__
  6
CONTINUOUS
 62
    4
 10
814.2354519398225
 20
715.98130440444379
 40
1.2083333333333581
 50
307.52351320333912
 51
232.47648680464988
  0
ARC
  8
_0-1_線色１__水色__
  6
CONTINUOUS
 62
    4
 10
815.70741208429695
 20
714.06463773784367
 40
1.2083333333333179
 50
127.52351320610693
 51
52.47648680188081
  0
ARC
  8
_0-1_線色１__水色__
  6
CONTINUOUS
 62
    4
 10
811.29153165113735
 20
715.98130440423802
 40
1.2083333333333581
 50
307.52351320333912
 51
232.47648680464988
  0
ARC
  8
_0-1_線色１__水色__
  6
CONTINUOUS
 62
    4
 10
812.76349179561407
 20
714.06463773763903
 40
1.2083333333333179
 50
127.52351320610693
 51
52.47648680188081
  0
ARC
  8
_0-1_線色１__水色__
  6
CONTINUOUS
 62
    4
 10
808.34761136245447
 20
715.98130440403224
 40
1.2083333333333581
 50
307.52351320333912
 51
232.47648680464988
  0
ARC
  8
_0-1_線色１__水色__
  6
CONTINUOUS
 62
    4
 10
809.8195715069312
 20
714.06463773743326
 40
1.2083333333333179
 50
127.52351320610693
 51
52.47648680188081
  0
ARC
  8
_0-1_線色１__水色__
  6
CONTINUOUS
 62
    4
 10
805.4036910737716
 20
715.98130440382761
 40
1.2083333333333581
 50
307.52351320333912
 51
232.47648680464988
  0
ARC
  8
_0-1_線色１__水色__
  6
CONTINUOUS
 62
    4
 10
806.87565121824605
 20
714.06463773722749
 40
1.2083333333333179
 50
127.52351320610693
 51
52.47648680188081
  0
ARC
  8
_0-1_線色１__水色__
  6
CONTINUOUS
 62
    4
 10
802.45977078508872
 20
715.98130440362297
 40
1.2083333333333581
 50
307.52351320333912
 51
232.47648680464988
  0
ARC
  8
_0-1_線色１__水色__
  6
CONTINUOUS
 62
    4
 10
803.93173092956317
 20
714.06463773702285
 40
1.2083333333333179
 50
127.52351320610693
 51
52.47648680188081
  0
ARC
  8
_0-1_線色１__水色__
  6
CONTINUOUS
 62
    4
 10
799.51585049640585
 20
715.9813044034172
 40
1.2083333333333581
 50
307.52351320333912
 51
232.47648680464988
  0
ARC
  8
_0-1_線色１__水色__
  6
CONTINUOUS
 62
    4
 10
800.9878106408803
 20
714.06463773681821
 40
1.2083333333333179
 50
127.52351320610693
 51
52.47648680188081
  0
ARC
  8
_0-1_線色１__水色__
  6
CONTINUOUS
 62
    4
 10
796.5719302077207
 20
715.98130440321142
 40
1.2083333333333581
 50
307.52351320333912
 51
232.47648680464988
  0
ARC
  8
_0-1_線色１__水色__
  6
CONTINUOUS
 62
    4
 10
795.09997006351455
 20
714.06463773640667
 40
1.2083333333333179
 50
127.52351320610693
 51
52.47648680188081
  0
ARC
  8
_0-1_線色１__水色__
  6
CONTINUOUS
 62
    4
 10
798.04389035219742
 20
714.06463773661244
 40
1.2083333333333179
 50
127.52351320610693
 51
52.47648680188081
  0
ARC
  8
_0-1_線色１__水色__
  6
CONTINUOUS
 62
    4
 10
818.65133237297982
 20
714.06463773743326
 40
1.2083333333333179
 50
127.52351320610693
 51
52.47648680188081
  0
ARC
  8
_0-1_線色１__水色__
  6
CONTINUOUS
 62
    4
 10
817.17937222850537
 20
715.98130440403224
 40
1.2083333333333581
 50
307.52351320333912
 51
232.47648680464988
  0
ARC
  8
_0-1_線色１__水色__
  6
CONTINUOUS
 62
    4
 10
793.62800991903782
 20
715.98130440300679
 40
1.2083333333333581
 50
307.52351320333912
 51
232.47648680464988
  0
ARC
  8
_0-1_線色１__水色__
  6
CONTINUOUS
 62
    4
 10
840.73073453797065
 20
715.98130440567388
 40
1.2083333333333581
 50
307.52351320333912
 51
232.47648680464988
  0
ARC
  8
_0-1_線色１__水色__
  6
CONTINUOUS
 62
    4
 10
842.20269468244737
 20
714.06463773907376
 40
1.2083333333333179
 50
127.52351320610693
 51
52.47648680188081
  0
ARC
  8
_0-1_線色１__水色__
  6
CONTINUOUS
 62
    4
 10
837.78681424928777
 20
715.98130440546925
 40
1.2083333333333581
 50
307.52351320333912
 51
232.47648680464988
  0
ARC
  8
_0-1_線色１__水色__
  6
CONTINUOUS
 62
    4
 10
839.2587743937645
 20
714.06463773886912
 40
1.2083333333333179
 50
127.52351320610693
 51
52.47648680188081
  0
ARC
  8
_0-1_線色１__水色__
  6
CONTINUOUS
 62
    4
 10
834.8428939606049
 20
715.98130440526461
 40
1.2083333333333581
 50
307.52351320333912
 51
232.47648680464988
  0
ARC
  8
_0-1_線色１__水色__
  6
CONTINUOUS
 62
    4
 10
836.31485410507935
 20
714.06463773866449
 40
1.2083333333333179
 50
127.52351320610693
 51
52.47648680188081
  0
ARC
  8
_0-1_線色１__水色__
  6
CONTINUOUS
 62
    4
 10
831.89897367192202
 20
715.98130440505884
 40
1.2083333333333581
 50
307.52351320333912
 51
232.47648680464988
  0
ARC
  8
_0-1_線色１__水色__
  6
CONTINUOUS
 62
    4
 10
833.37093381639647
 20
714.06463773845871
 40
1.2083333333333179
 50
127.52351320610693
 51
52.47648680188081
  0
ARC
  8
_0-1_線色１__水色__
  6
CONTINUOUS
 62
    4
 10
828.95505338323915
 20
715.98130440485306
 40
1.2083333333333581
 50
307.52351320333912
 51
232.47648680464988
  0
ARC
  8
_0-1_線色１__水色__
  6
CONTINUOUS
 62
    4
 10
830.4270135277136
 20
714.06463773825408
 40
1.2083333333333179
 50
127.52351320610693
 51
52.47648680188081
  0
ARC
  8
_0-1_線色１__水色__
  6
CONTINUOUS
 62
    4
 10
826.011133094554
 20
715.98130440464843
 40
1.2083333333333581
 50
307.52351320333912
 51
232.47648680464988
  0
ARC
  8
_0-1_線色１__水色__
  6
CONTINUOUS
 62
    4
 10
827.48309323903072
 20
714.0646377380483
 40
1.2083333333333179
 50
127.52351320610693
 51
52.47648680188081
  0
ARC
  8
_0-1_線色１__水色__
  6
CONTINUOUS
 62
    4
 10
823.06721280587112
 20
715.98130440444379
 40
1.2083333333333581
 50
307.52351320333912
 51
232.47648680464988
  0
ARC
  8
_0-1_線色１__水色__
  6
CONTINUOUS
 62
    4
 10
821.5952526616627
 20
714.06463773763903
 40
1.2083333333333179
 50
127.52351320610693
 51
52.47648680188081
  0
ARC
  8
_0-1_線色１__水色__
  6
CONTINUOUS
 62
    4
 10
824.53917295034785
 20
714.06463773784367
 40
1.2083333333333179
 50
127.52351320610693
 51
52.47648680188081
  0
ARC
  8
_0-1_線色１__水色__
  6
CONTINUOUS
 62
    4
 10
845.14661497113025
 20
714.06463773866449
 40
1.2083333333333179
 50
127.52351320610693
 51
52.47648680188081
  0
ARC
  8
_0-1_線色１__水色__
  6
CONTINUOUS
 62
    4
 10
843.6746548266558
 20
715.98130440526461
 40
1.2083333333333581
 50
307.52351320333912
 51
232.47648680464988
  0
ARC
  8
_0-1_線色１__水色__
  6
CONTINUOUS
 62
    4
 10
820.12329251718825
 20
715.98130440423802
 40
1.2083333333333581
 50
307.52351320333912
 51
232.47648680464988
  0
ARC
  8
_0-1_線色１__水色__
  6
CONTINUOUS
 62
    4
 10
780.38036862011836
 20
714.06463773536302
 40
1.2083333333333179
 50
127.52351320610693
 51
52.47648680188081
  0
ARC
  8
_0-1_線色１__水色__
  6
CONTINUOUS
 62
    4
 10
778.90840847564391
 20
715.98130440196314
 40
1.2083333333333581
 50
307.52351320333912
 51
232.47648680464988
  0
ARC
  8
_0-1_線色１__水色__
  6
CONTINUOUS
 62
    4
 10
790.68408963037768
 20
715.98130440278396
 40
1.2083333333333581
 50
307.52351320333912
 51
232.47648680464988
  0
ARC
  8
_0-1_線色１__水色__
  6
CONTINUOUS
 62
    4
 10
787.74016934169481
 20
715.98130440257819
 40
1.2083333333333581
 50
307.52351320333912
 51
232.47648680464988
  0
ARC
  8
_0-1_線色１__水色__
  6
CONTINUOUS
 62
    4
 10
789.21212948616926
 20
714.0646377359792
 40
1.2083333333333179
 50
127.52351320610693
 51
52.47648680188081
  0
ARC
  8
_0-1_線色１__水色__
  6
CONTINUOUS
 62
    4
 10
784.79624905301193
 20
715.98130440237355
 40
1.2083333333333581
 50
307.52351320333912
 51
232.47648680464988
  0
ARC
  8
_0-1_線色１__水色__
  6
CONTINUOUS
 62
    4
 10
783.32428890880351
 20
714.06463773556879
 40
1.2083333333333179
 50
127.52351320610693
 51
52.47648680188081
  0
ARC
  8
_0-1_線色１__水色__
  6
CONTINUOUS
 62
    4
 10
786.26820919748639
 20
714.06463773577343
 40
1.2083333333333179
 50
127.52351320610693
 51
52.47648680188081
  0
ARC
  8
_0-1_線色１__水色__
  6
CONTINUOUS
 62
    4
 10
781.85232876432678
 20
715.98130440216778
 40
1.2083333333333581
 50
307.52351320333912
 51
232.47648680464988
  0
ARC
  8
_0-1_線色１__水色__
  6
CONTINUOUS
 62
    4
 10
792.15604977485214
 20
714.06463773618384
 40
1.2083333333333179
 50
127.52351320610693
 51
52.47648680188081
  0
ARC
  8
_0-1_線色１__水色__
  6
CONTINUOUS
 62
    4
 10
746.52528530015047
 20
715.9813044009195
 40
1.2083333333333581
 50
307.52351320333912
 51
232.47648680464988
  0
ARC
  8
_0-1_線色１__水色__
  6
CONTINUOUS
 62
    4
 10
747.9972454446272
 20
714.06463773431938
 40
1.2083333333333179
 50
127.52351320610693
 51
52.47648680188081
  0
ARC
  8
_0-1_線色１__水色__
  6
CONTINUOUS
 62
    4
 10
743.5813650114676
 20
715.98130440071373
 40
1.2083333333333581
 50
307.52351320333912
 51
232.47648680464988
  0
ARC
  8
_0-1_線色１__水色__
  6
CONTINUOUS
 62
    4
 10
745.05332515594205
 20
714.06463773411474
 40
1.2083333333333179
 50
127.52351320610693
 51
52.47648680188081
  0
ARC
  8
_0-1_線色１__水色__
  6
CONTINUOUS
 62
    4
 10
740.63744472278472
 20
715.98130440050909
 40
1.2083333333333581
 50
307.52351320333912
 51
232.47648680464988
  0
ARC
  8
_0-1_線色１__水色__
  6
CONTINUOUS
 62
    4
 10
742.10940486725917
 20
714.06463773390897
 40
1.2083333333333179
 50
127.52351320610693
 51
52.47648680188081
  0
ARC
  8
_0-1_線色１__水色__
  6
CONTINUOUS
 62
    4
 10
737.69352443410185
 20
715.98130440030332
 40
1.2083333333333581
 50
307.52351320333912
 51
232.47648680464988
  0
ARC
  8
_0-1_線色１__水色__
  6
CONTINUOUS
 62
    4
 10
739.1654845785763
 20
714.06463773370433
 40
1.2083333333333179
 50
127.52351320610693
 51
52.47648680188081
  0
ARC
  8
_0-1_線色１__水色__
  6
CONTINUOUS
 62
    4
 10
734.7496041454167
 20
715.98130440009868
 40
1.2083333333333581
 50
307.52351320333912
 51
232.47648680464988
  0
ARC
  8
_0-1_線色１__水色__
  6
CONTINUOUS
 62
    4
 10
736.22156428989342
 20
714.06463773349856
 40
1.2083333333333179
 50
127.52351320610693
 51
52.47648680188081
  0
ARC
  8
_0-1_線色１__水色__
  6
CONTINUOUS
 62
    4
 10
731.80568385673382
 20
715.98130439989291
 40
1.2083333333333581
 50
307.52351320333912
 51
232.47648680464988
  0
ARC
  8
_0-1_線色１__水色__
  6
CONTINUOUS
 62
    4
 10
733.27764400120827
 20
714.06463773329392
 40
1.2083333333333179
 50
127.52351320610693
 51
52.47648680188081
  0
ARC
  8
_0-1_線色１__水色__
  6
CONTINUOUS
 62
    4
 10
728.86176356805095
 20
715.98130439968827
 40
1.2083333333333581
 50
307.52351320333912
 51
232.47648680464988
  0
ARC
  8
_0-1_線色１__水色__
  6
CONTINUOUS
 62
    4
 10
727.38980342384252
 20
714.06463773288351
 40
1.2083333333333179
 50
127.52351320610693
 51
52.47648680188081
  0
ARC
  8
_0-1_線色１__水色__
  6
CONTINUOUS
 62
    4
 10
730.3337237125254
 20
714.06463773308815
 40
1.2083333333333179
 50
127.52351320610693
 51
52.47648680188081
  0
ARC
  8
_0-1_線色１__水色__
  6
CONTINUOUS
 62
    4
 10
750.94116573331007
 20
714.06463773390897
 40
1.2083333333333179
 50
127.52351320610693
 51
52.47648680188081
  0
ARC
  8
_0-1_線色１__水色__
  6
CONTINUOUS
 62
    4
 10
749.46920558883335
 20
715.98130440050909
 40
1.2083333333333581
 50
307.52351320333912
 51
232.47648680464988
  0
ARC
  8
_0-1_線色１__水色__
  6
CONTINUOUS
 62
    4
 10
725.91784327936807
 20
715.9813043994825
 40
1.2083333333333581
 50
307.52351320333912
 51
232.47648680464988
  0
ARC
  8
_0-1_線色１__水色__
  6
CONTINUOUS
 62
    4
 10
773.0205678983009
 20
715.98130440215073
 40
1.2083333333333581
 50
307.52351320333912
 51
232.47648680464988
  0
ARC
  8
_0-1_線色１__水色__
  6
CONTINUOUS
 62
    4
 10
774.49252804277535
 20
714.0646377355506
 40
1.2083333333333179
 50
127.52351320610693
 51
52.47648680188081
  0
ARC
  8
_0-1_線色１__水色__
  6
CONTINUOUS
 62
    4
 10
770.07664760961802
 20
715.98130440194495
 40
1.2083333333333581
 50
307.52351320333912
 51
232.47648680464988
  0
ARC
  8
_0-1_線色１__水色__
  6
CONTINUOUS
 62
    4
 10
771.54860775409247
 20
714.06463773534483
 40
1.2083333333333179
 50
127.52351320610693
 51
52.47648680188081
  0
ARC
  8
_0-1_線色１__水色__
  6
CONTINUOUS
 62
    4
 10
767.13272732093515
 20
715.98130440174032
 40
1.2083333333333581
 50
307.52351320333912
 51
232.47648680464988
  0
ARC
  8
_0-1_線色１__水色__
  6
CONTINUOUS
 62
    4
 10
768.6046874654096
 20
714.0646377351402
 40
1.2083333333333179
 50
127.52351320610693
 51
52.47648680188081
  0
ARC
  8
_0-1_線色１__水色__
  6
CONTINUOUS
 62
    4
 10
764.18880703225
 20
715.98130440153454
 40
1.2083333333333581
 50
307.52351320333912
 51
232.47648680464988
  0
ARC
  8
_0-1_線色１__水色__
  6
CONTINUOUS
 62
    4
 10
765.66076717672672
 20
714.06463773493442
 40
1.2083333333333179
 50
127.52351320610693
 51
52.47648680188081
  0
ARC
  8
_0-1_線色１__水色__
  6
CONTINUOUS
 62
    4
 10
761.24488674356712
 20
715.98130440132991
 40
1.2083333333333581
 50
307.52351320333912
 51
232.47648680464988
  0
ARC
  8
_0-1_線色１__水色__
  6
CONTINUOUS
 62
    4
 10
762.71684688804385
 20
714.06463773472979
 40
1.2083333333333179
 50
127.52351320610693
 51
52.47648680188081
  0
ARC
  8
_0-1_線色１__水色__
  6
CONTINUOUS
 62
    4
 10
758.30096645488425
 20
715.98130440112413
 40
1.2083333333333581
 50
307.52351320333912
 51
232.47648680464988
  0
ARC
  8
_0-1_線色１__水色__
  6
CONTINUOUS
 62
    4
 10
759.7729265993587
 20
714.06463773452515
 40
1.2083333333333179
 50
127.52351320610693
 51
52.47648680188081
  0
ARC
  8
_0-1_線色１__水色__
  6
CONTINUOUS
 62
    4
 10
755.35704616620137
 20
715.9813044009195
 40
1.2083333333333581
 50
307.52351320333912
 51
232.47648680464988
  0
ARC
  8
_0-1_線色１__水色__
  6
CONTINUOUS
 62
    4
 10
753.88508602199295
 20
714.06463773411474
 40
1.2083333333333179
 50
127.52351320610693
 51
52.47648680188081
  0
ARC
  8
_0-1_線色１__水色__
  6
CONTINUOUS
 62
    4
 10
756.82900631067582
 20
714.06463773431938
 40
1.2083333333333179
 50
127.52351320610693
 51
52.47648680188081
  0
ARC
  8
_0-1_線色１__水色__
  6
CONTINUOUS
 62
    4
 10
777.4364483314605
 20
714.0646377351402
 40
1.2083333333333179
 50
127.52351320610693
 51
52.47648680188081
  0
ARC
  8
_0-1_線色１__水色__
  6
CONTINUOUS
 62
    4
 10
775.96448818698377
 20
715.98130440174032
 40
1.2083333333333581
 50
307.52351320333912
 51
232.47648680464988
  0
ARC
  8
_0-1_線色１__水色__
  6
CONTINUOUS
 62
    4
 10
752.4131258775185
 20
715.98130440071373
 40
1.2083333333333581
 50
307.52351320333912
 51
232.47648680464988
  0
ARC
  8
_0-1_線色１__水色__
  6
CONTINUOUS
 62
    4
 10
712.67020198044861
 20
714.06463773183987
 40
1.2083333333333179
 50
127.52351320610693
 51
52.47648680188081
  0
ARC
  8
_0-1_線色１__水色__
  6
CONTINUOUS
 62
    4
 10
711.19824183597416
 20
715.98130439843885
 40
1.2083333333333581
 50
307.52351320333912
 51
232.47648680464988
  0
ARC
  8
_0-1_線色１__水色__
  6
CONTINUOUS
 62
    4
 10
722.97392299070793
 20
715.98130439925967
 40
1.2083333333333581
 50
307.52351320333912
 51
232.47648680464988
  0
ARC
  8
_0-1_線色１__水色__
  6
CONTINUOUS
 62
    4
 10
720.03000270202278
 20
715.98130439905503
 40
1.2083333333333581
 50
307.52351320333912
 51
232.47648680464988
  0
ARC
  8
_0-1_線色１__水色__
  6
CONTINUOUS
 62
    4
 10
721.50196284649951
 20
714.06463773245491
 40
1.2083333333333179
 50
127.52351320610693
 51
52.47648680188081
  0
ARC
  8
_0-1_線色１__水色__
  6
CONTINUOUS
 62
    4
 10
717.08608241333991
 20
715.98130439884926
 40
1.2083333333333581
 50
307.52351320333912
 51
232.47648680464988
  0
ARC
  8
_0-1_線色１__水色__
  6
CONTINUOUS
 62
    4
 10
715.61412226913149
 20
714.0646377320445
 40
1.2083333333333179
 50
127.52351320610693
 51
52.47648680188081
  0
ARC
  8
_0-1_線色１__水色__
  6
CONTINUOUS
 62
    4
 10
718.55804255781663
 20
714.06463773225028
 40
1.2083333333333179
 50
127.52351320610693
 51
52.47648680188081
  0
ARC
  8
_0-1_線色１__水色__
  6
CONTINUOUS
 62
    4
 10
714.14216212465703
 20
715.98130439864462
 40
1.2083333333333581
 50
307.52351320333912
 51
232.47648680464988
  0
ARC
  8
_0-1_線色１__水色__
  6
CONTINUOUS
 62
    4
 10
724.44588313518238
 20
714.06463773266069
 40
1.2083333333333179
 50
127.52351320610693
 51
52.47648680188081
  0
ARC
  8
_0-1_線色１__水色__
  6
CONTINUOUS
 62
    4
 10
678.81511866048072
 20
715.98130439739521
 40
1.2083333333333581
 50
307.52351320333912
 51
232.47648680464988
  0
ARC
  8
_0-1_線色１__水色__
  6
CONTINUOUS
 62
    4
 10
680.28707880495517
 20
714.06463773079622
 40
1.2083333333333179
 50
127.52351320610693
 51
52.47648680188081
  0
ARC
  8
_0-1_線色１__水色__
  6
CONTINUOUS
 62
    4
 10
675.87119837179785
 20
715.98130439719057
 40
1.2083333333333581
 50
307.52351320333912
 51
232.47648680464988
  0
ARC
  8
_0-1_線色１__水色__
  6
CONTINUOUS
 62
    4
 10
677.3431585162723
 20
714.06463773059045
 40
1.2083333333333179
 50
127.52351320610693
 51
52.47648680188081
  0
ARC
  8
_0-1_線色１__水色__
  6
CONTINUOUS
 62
    4
 10
672.92727808311497
 20
715.9813043969848
 40
1.2083333333333581
 50
307.52351320333912
 51
232.47648680464988
  0
ARC
  8
_0-1_線色１__水色__
  6
CONTINUOUS
 62
    4
 10
674.39923822758942
 20
714.06463773038581
 40
1.2083333333333179
 50
127.52351320610693
 51
52.47648680188081
  0
ARC
  8
_0-1_線色１__水色__
  6
CONTINUOUS
 62
    4
 10
669.98335779442982
 20
715.98130439678016
 40
1.2083333333333581
 50
307.52351320333912
 51
232.47648680464988
  0
ARC
  8
_0-1_線色１__水色__
  6
CONTINUOUS
 62
    4
 10
671.45531793890655
 20
714.06463773018004
 40
1.2083333333333179
 50
127.52351320610693
 51
52.47648680188081
  0
ARC
  8
_0-1_線色１__水色__
  6
CONTINUOUS
 62
    4
 10
667.03943750574695
 20
715.98130439657439
 40
1.2083333333333581
 50
307.52351320333912
 51
232.47648680464988
  0
ARC
  8
_0-1_線色１__水色__
  6
CONTINUOUS
 62
    4
 10
668.5113976502214
 20
714.0646377299754
 40
1.2083333333333179
 50
127.52351320610693
 51
52.47648680188081
  0
ARC
  8
_0-1_線色１__水色__
  6
CONTINUOUS
 62
    4
 10
664.09551721706407
 20
715.98130439636975
 40
1.2083333333333581
 50
307.52351320333912
 51
232.47648680464988
  0
ARC
  8
_0-1_線色１__水色__
  6
CONTINUOUS
 62
    4
 10
665.56747736153852
 20
714.06463772976963
 40
1.2083333333333179
 50
127.52351320610693
 51
52.47648680188081
  0
ARC
  8
_0-1_線色１__水色__
  6
CONTINUOUS
 62
    4
 10
661.1515969283812
 20
715.98130439616398
 40
1.2083333333333581
 50
307.52351320333912
 51
232.47648680464988
  0
ARC
  8
_0-1_線色１__水色__
  6
CONTINUOUS
 62
    4
 10
659.67963678417277
 20
714.06463772935922
 40
1.2083333333333179
 50
127.52351320610693
 51
52.47648680188081
  0
ARC
  8
_0-1_線色１__水色__
  6
CONTINUOUS
 62
    4
 10
662.62355707285565
 20
714.06463772956499
 40
1.2083333333333179
 50
127.52351320610693
 51
52.47648680188081
  0
ARC
  8
_0-1_線色１__水色__
  6
CONTINUOUS
 62
    4
 10
683.23099909363805
 20
714.06463773038581
 40
1.2083333333333179
 50
127.52351320610693
 51
52.47648680188081
  0
ARC
  8
_0-1_線色１__水色__
  6
CONTINUOUS
 62
    4
 10
681.7590389491636
 20
715.9813043969848
 40
1.2083333333333581
 50
307.52351320333912
 51
232.47648680464988
  0
ARC
  8
_0-1_線色１__水色__
  6
CONTINUOUS
 62
    4
 10
658.20767663969605
 20
715.98130439595934
 40
1.2083333333333581
 50
307.52351320333912
 51
232.47648680464988
  0
ARC
  8
_0-1_線色１__水色__
  6
CONTINUOUS
 62
    4
 10
705.31040125863115
 20
715.98130439862643
 40
1.2083333333333581
 50
307.52351320333912
 51
232.47648680464988
  0
ARC
  8
_0-1_線色１__水色__
  6
CONTINUOUS
 62
    4
 10
706.7823614031056
 20
714.06463773202631
 40
1.2083333333333179
 50
127.52351320610693
 51
52.47648680188081
  0
ARC
  8
_0-1_線色１__水色__
  6
CONTINUOUS
 62
    4
 10
702.366480969946
 20
715.9813043984218
 40
1.2083333333333581
 50
307.52351320333912
 51
232.47648680464988
  0
ARC
  8
_0-1_線色１__水色__
  6
CONTINUOUS
 62
    4
 10
703.83844111442272
 20
714.06463773182168
 40
1.2083333333333179
 50
127.52351320610693
 51
52.47648680188081
  0
ARC
  8
_0-1_線色１__水色__
  6
CONTINUOUS
 62
    4
 10
699.42256068126312
 20
715.98130439821603
 40
1.2083333333333581
 50
307.52351320333912
 51
232.47648680464988
  0
ARC
  8
_0-1_線色１__水色__
  6
CONTINUOUS
 62
    4
 10
700.89452082573985
 20
714.0646377316159
 40
1.2083333333333179
 50
127.52351320610693
 51
52.47648680188081
  0
ARC
  8
_0-1_線色１__水色__
  6
CONTINUOUS
 62
    4
 10
696.47864039258025
 20
715.98130439801139
 40
1.2083333333333581
 50
307.52351320333912
 51
232.47648680464988
  0
ARC
  8
_0-1_線色１__水色__
  6
CONTINUOUS
 62
    4
 10
697.9506005370547
 20
714.06463773141127
 40
1.2083333333333179
 50
127.52351320610693
 51
52.47648680188081
  0
ARC
  8
_0-1_線色１__水色__
  6
CONTINUOUS
 62
    4
 10
693.53472010389737
 20
715.98130439780562
 40
1.2083333333333581
 50
307.52351320333912
 51
232.47648680464988
  0
ARC
  8
_0-1_線色１__水色__
  6
CONTINUOUS
 62
    4
 10
695.00668024837182
 20
714.06463773120663
 40
1.2083333333333179
 50
127.52351320610693
 51
52.47648680188081
  0
ARC
  8
_0-1_線色１__水色__
  6
CONTINUOUS
 62
    4
 10
690.5907998152145
 20
715.98130439760098
 40
1.2083333333333581
 50
307.52351320333912
 51
232.47648680464988
  0
ARC
  8
_0-1_線色１__水色__
  6
CONTINUOUS
 62
    4
 10
692.06275995968895
 20
714.06463773100086
 40
1.2083333333333179
 50
127.52351320610693
 51
52.47648680188081
  0
ARC
  8
_0-1_線色１__水色__
  6
CONTINUOUS
 62
    4
 10
687.64687952652935
 20
715.98130439739521
 40
1.2083333333333581
 50
307.52351320333912
 51
232.47648680464988
  0
ARC
  8
_0-1_線色１__水色__
  6
CONTINUOUS
 62
    4
 10
686.1749193823232
 20
714.06463773059045
 40
1.2083333333333179
 50
127.52351320610693
 51
52.47648680188081
  0
ARC
  8
_0-1_線色１__水色__
  6
CONTINUOUS
 62
    4
 10
689.11883967100607
 20
714.06463773079622
 40
1.2083333333333179
 50
127.52351320610693
 51
52.47648680188081
  0
ARC
  8
_0-1_線色１__水色__
  6
CONTINUOUS
 62
    4
 10
709.72628169178847
 20
714.0646377316159
 40
1.2083333333333179
 50
127.52351320610693
 51
52.47648680188081
  0
ARC
  8
_0-1_線色１__水色__
  6
CONTINUOUS
 62
    4
 10
708.25432154731402
 20
715.98130439821603
 40
1.2083333333333581
 50
307.52351320333912
 51
232.47648680464988
  0
ARC
  8
_0-1_線色１__水色__
  6
CONTINUOUS
 62
    4
 10
684.70295923784647
 20
715.98130439719057
 40
1.2083333333333581
 50
307.52351320333912
 51
232.47648680464988
  0
ARC
  8
_0-1_線色１__水色__
  6
CONTINUOUS
 62
    4
 10
644.96003534077886
 20
714.06463772831557
 40
1.2083333333333179
 50
127.52351320610693
 51
52.47648680188081
  0
ARC
  8
_0-1_線色１__水色__
  6
CONTINUOUS
 62
    4
 10
643.48807519630213
 20
715.98130439491456
 40
1.2083333333333581
 50
307.52351320333912
 51
232.47648680464988
  0
ARC
  8
_0-1_線色１__水色__
  6
CONTINUOUS
 62
    4
 10
655.26375635103591
 20
715.98130439573538
 40
1.2083333333333581
 50
307.52351320333912
 51
232.47648680464988
  0
ARC
  8
_0-1_線色１__水色__
  6
CONTINUOUS
 62
    4
 10
652.31983606235303
 20
715.98130439553074
 40
1.2083333333333581
 50
307.52351320333912
 51
232.47648680464988
  0
ARC
  8
_0-1_線色１__水色__
  6
CONTINUOUS
 62
    4
 10
653.79179620682748
 20
714.06463772893062
 40
1.2083333333333179
 50
127.52351320610693
 51
52.47648680188081
  0
ARC
  8
_0-1_線色１__水色__
  6
CONTINUOUS
 62
    4
 10
649.37591577367016
 20
715.98130439532611
 40
1.2083333333333581
 50
307.52351320333912
 51
232.47648680464988
  0
ARC
  8
_0-1_線色１__水色__
  6
CONTINUOUS
 62
    4
 10
647.90395562946173
 20
714.06463772852135
 40
1.2083333333333179
 50
127.52351320610693
 51
52.47648680188081
  0
ARC
  8
_0-1_線色１__水色__
  6
CONTINUOUS
 62
    4
 10
650.84787591814461
 20
714.06463772872598
 40
1.2083333333333179
 50
127.52351320610693
 51
52.47648680188081
  0
ARC
  8
_0-1_線色１__水色__
  6
CONTINUOUS
 62
    4
 10
646.43199548498728
 20
715.98130439512033
 40
1.2083333333333581
 50
307.52351320333912
 51
232.47648680464988
  0
ARC
  8
_0-1_線色１__水色__
  6
CONTINUOUS
 62
    4
 10
656.73571649551263
 20
714.06463772913639
 40
1.2083333333333179
 50
127.52351320610693
 51
52.47648680188081
  0
ARC
  8
_0-1_線色１__水色__
  6
CONTINUOUS
 62
    4
 10
642.01611505211872
 20
714.06463772809275
 40
1.2083333333333179
 50
243.78788958924599
 51
52.476486801880853
  0
ARC
  8
_0-1_線色１__水色__
  6
CONTINUOUS
 62
    4
 10
640.544154907642
 20
715.98130439469287
 40
1.2083333333333581
 50
320.93926410748708
 51
39.060735892512916
  0
LINE
  8
_0-d_断熱__ハッチ
  6
CONTINUOUS
 62
    4
 10
1441.4554335684068
 20
677.52297109336496
 11
1458.5176003356526
 21
694.58513786061076
  0
LINE
  8
_0-d_断熱__ハッチ
  6
CONTINUOUS
 62
    4
 10
641.48239966434744
 20
702.45287154065863
 11
666.41230011164112
 21
677.52297109336382
  0
LINE
  8
_f-0_
  6
CONTINUOUS
 62
  136
 10
1714.9999999999989
 20
1192.5
 11
385
 21
1192.5
  0
LINE
  8
_f-0_
  6
CONTINUOUS
 62
  136
 10
385
 20
277.50000000000341
 11
1714.9999999999989
 21
277.50000000000341
  0
LINE
  8
_f-0_
  6
CONTINUOUS
 62
  136
 10
385
 20
1192.5
 11
385
 21
277.50000000000341
  0
LINE
  8
_f-0_
  6
CONTINUOUS
 62
  136
 10
1714.9999999999989
 20
1192.5
 11
1714.9999999999989
 21
277.50000000000341
  0
LINE
  8
_f-0_
  6
CONTINUOUS
 62
    6
 10
1714.9999999999989
 20
1152.5
 11
385
 21
1152.5
  0
LINE
  8
_f-f_
  6
CONTINUOUS
 62
    9
 10
310
 20
217.5
 11
310
 21
1267.5
  0
LINE
  8
_f-f_
  6
CONTINUOUS
 62
    9
 10
1790
 20
217.5
 11
310
 21
217.5
  0
LINE
  8
_f-f_
  6
CONTINUOUS
 62
    9
 10
1790
 20
1267.5
 11
310
 21
1267.5
  0
LINE
  8
_f-f_
  6
CONTINUOUS
 62
    9
 10
1790
 20
1267.5
 11
1790
 21
217.5
  0
LINE
  8
ADD_LINE
  6
DOT
 62
  136
 10
1764.9999999999989
 20
1242.5
 11
335
 21
1242.5
  0
LINE
  8
ADD_LINE
  6
DOT
 62
  136
 10
335
 20
242.50000000000227
 11
335
 21
1242.5
  0
LINE
  8
ADD_LINE
  6
DOT
 62
  136
 10
1765
 20
1242.5
 11
1765
 21
242.5
  0
LINE
  8
ADD_LINE
  6
DOT
 62
  136
 10
1765
 20
242.5
 11
335.00000000000114
 21
242.5
  0
TEXT
  8
_f-0_
 62
    7
 10
405.30228976001922
 20
1163.75
 40
17.5
 41
1
 50
0
  1
平場 ＵＤ工法（ディスク板 先付け工法）
  0
LINE
  8
ADD_LINE
  6
DOT
 62
    4
 10
1049.9999999999989
 20
703.43266218219128
 11
1049.9999999999989
 21
737.1211671160097
  0
ARC
  8
_0-6_鋼板__アングル
  6
CONTINUOUS
 62
    2
 10
1088.0345070512851
 20
721.52303792297062
 40
2.0000000257749817
 50
359.99999255792812
 51
89.351639406775448
  0
LINE
  8
_0-6_鋼板__アングル
  6
CONTINUOUS
 62
    2
 10
1088.0571386227484
 20
723.52290989764128
 11
1012.0244848289929
 21
723.52303215785128
  0
ARC
  8
_0-6_鋼板__アングル
  6
CONTINUOUS
 62
    2
 10
1012.03444672915
 20
721.52305694209304
 40
2.0000000257749817
 50
90.285388593888896
 51
179.9999925579281
  0
LINE
  8
_0-6_鋼板__アングル
  6
CONTINUOUS
 62
    2
 10
1093.5344611400808
 20
719.52290109012324
 11
1093.5344686935889
 21
719.62303475182694
  0
LINE
  8
_0-6_鋼板__アングル
  6
CONTINUOUS
 62
    2
 10
1093.5344611400808
 20
719.52290109012324
 11
1006.5344856880802
 21
719.52304098574245
  0
LINE
  8
_0-6_鋼板__アングル
  6
CONTINUOUS
 62
    2
 10
1047.0344377035735
 20
720.52305855875034
 11
1047.0344358916714
 21
719.52304605667791
  0
LINE
  8
_0-6_鋼板__アングル
  6
CONTINUOUS
 62
    2
 10
1053.0344384865884
 20
720.5230482991135
 11
1053.0344366746851
 21
719.52303579703994
  0
LINE
  8
_0-6_鋼板__アングル
  6
CONTINUOUS
 62
    2
 10
1054.0344528005642
 20
721.52305898928375
 11
1053.0344384865884
 21
720.5230482991135
  0
LINE
  8
_0-6_鋼板__アングル
  6
CONTINUOUS
 62
    2
 10
1058.0345028088584
 20
721.52305174167282
 11
1054.0344528005642
 21
721.52305898928375
  0
LINE
  8
_0-6_鋼板__アングル
  6
CONTINUOUS
 62
    2
 10
1058.0345061267735
 20
723.52303963110671
 11
1058.0345028088584
 21
721.52305174167282
  0
LINE
  8
_0-6_鋼板__アングル
  6
CONTINUOUS
 62
    2
 10
1058.6344980008812
 20
722.92306827978905
 11
1058.6344943770757
 21
720.92304327564307
  0
LINE
  8
_0-6_鋼板__アングル
  6
CONTINUOUS
 62
    2
 10
1054.2830184077854
 20
720.92305173857881
 11
1058.6344943770757
 21
720.92304327564307
  0
LINE
  8
_0-6_鋼板__アングル
  6
CONTINUOUS
 62
    2
 10
1054.2830184077854
 20
720.92305173857881
 11
1053.6345061113354
 21
720.27453941172666
  0
LINE
  8
_0-6_鋼板__アングル
  6
CONTINUOUS
 62
    2
 10
1053.6345061113354
 20
720.27453941172666
 11
1053.6344741124117
 21
719.52306415695716
  0
LINE
  8
_0-6_鋼板__アングル
  6
CONTINUOUS
 62
    2
 10
1046.0345009369394
 20
721.52303514623441
 11
1042.0344509286463
 21
721.52304239384648
  0
LINE
  8
_0-6_鋼板__アングル
  6
CONTINUOUS
 62
    2
 10
1042.0344545524517
 20
723.52306739799246
 11
1042.0344509286463
 21
721.52304239384648
  0
LINE
  8
_0-6_鋼板__アングル
  6
CONTINUOUS
 62
    2
 10
1041.4344457805328
 20
722.92303871506306
 11
1041.4344424626165
 21
720.92305082562802
  0
LINE
  8
_0-6_鋼板__アングル
  6
CONTINUOUS
 62
    2
 10
1045.7859184319057
 20
720.92304236269342
 11
1041.4344424626165
 21
720.92305082562802
  0
LINE
  8
_0-6_鋼板__アングル
  6
CONTINUOUS
 62
    2
 10
1045.7859184319057
 20
720.92304236269342
 11
1046.4345049881842
 21
720.27452945446385
  0
LINE
  8
_0-6_鋼板__アングル
  6
CONTINUOUS
 62
    2
 10
1046.4345049881842
 20
720.27452945446385
 11
1046.4344729892605
 21
719.52305419969434
  0
LINE
  8
_0-6_鋼板__アングル
  6
CONTINUOUS
 62
    2
 10
1046.0345009369394
 20
721.52303514623441
 11
1054.0344528005642
 21
721.52305898928375
  0
LINE
  8
_0-6_鋼板__アングル
  6
CONTINUOUS
 62
    2
 10
1046.0345009369394
 20
721.52303514623441
 11
1047.0344377035735
 21
720.52305855875034
  0
ARC
  8
_0-6_鋼板__アングル
  6
CONTINUOUS
 62
    2
 10
1090.534507228698
 20
720.6230520778297
 40
1.1000000141762398
 50
179.99999255792812
 51
269.99999255792812
  0
ARC
  8
_0-6_鋼板__アングル
  6
CONTINUOUS
 62
    2
 10
1088.0345070512851
 20
721.52303792297062
 40
1.400000018042487
 50
359.99999255792812
 51
89.999992557928124
  0
ARC
  8
_0-6_鋼板__アングル
  6
CONTINUOUS
 62
    2
 10
1090.534507228698
 20
720.6230520778297
 40
0.5000000064437454
 50
179.99999255792812
 51
269.99999255792812
  0
ARC
  8
_0-6_鋼板__アングル
  6
CONTINUOUS
 62
    2
 10
1093.0344995572659
 20
719.6230353518888
 40
0.5000000064437454
 50
359.99999255792812
 51
89.999992557928124
  0
ARC
  8
_0-6_鋼板__アングル
  6
CONTINUOUS
 62
    2
 10
1035.0344409829404
 20
723.52304271959269
 40
3.0000000386624723
 50
179.99999255792812
 51
359.99999255792812
  0
ARC
  8
_0-6_鋼板__アングル
  6
CONTINUOUS
 62
    2
 10
1035.0344409829404
 20
723.52304271959269
 40
3.6000000463949671
 50
189.59406299249841
 51
350.40592212335781
  0
ARC
  8
_0-6_鋼板__アングル
  6
CONTINUOUS
 62
    2
 10
1065.0344455097911
 20
723.5230656508304
 40
3.6000000463949671
 50
189.59406299249841
 51
350.40592212335781
  0
ARC
  8
_0-6_鋼板__アングル
  6
CONTINUOUS
 62
    2
 10
1065.0344455097911
 20
723.5230656508304
 40
3.0000000386624723
 50
179.99999255792812
 51
359.99999255792812
  0
ARC
  8
_0-6_鋼板__アングル
  6
CONTINUOUS
 62
    2
 10
1007.0344623673589
 20
719.62303415176734
 40
0.5000000064437454
 50
89.999992557928124
 51
179.99999255792812
  0
ARC
  8
_0-6_鋼板__アングル
  6
CONTINUOUS
 62
    2
 10
1009.5344583197323
 20
720.62304242997357
 40
0.5000000064437454
 50
269.99999255792812
 51
359.99999255792812
  0
ARC
  8
_0-6_鋼板__アングル
  6
CONTINUOUS
 62
    2
 10
1009.5344583197323
 20
720.62304242997357
 40
1.1000000141762398
 50
269.99999255792812
 51
359.99999255792812
  0
ARC
  8
_0-6_鋼板__アングル
  6
CONTINUOUS
 62
    2
 10
1012.03444672915
 20
721.52305694209304
 40
1.400000018042487
 50
89.999992557928124
 51
179.99999255792812
  0
LINE
  8
_0-6_鋼板__アングル
  6
CONTINUOUS
 62
    2
 10
1089.4345009605377
 20
720.62306143268756
 11
1089.434494923596
 21
721.52304305396115
  0
LINE
  8
_0-6_鋼板__アングル
  6
CONTINUOUS
 62
    2
 10
1090.0344638629485
 20
720.62305328967113
 11
1090.0344578260069
 21
721.52303491094472
  0
LINE
  8
_0-6_鋼板__アングル
  6
CONTINUOUS
 62
    2
 10
1090.5344692080337
 20
720.1230461326827
 11
1093.0344633485038
 21
720.12304190881537
  0
LINE
  8
_0-6_鋼板__アングル
  6
CONTINUOUS
 62
    2
 10
1068.584143668769
 20
722.92305827357723
 11
1088.0344651114717
 21
722.92306321588399
  0
LINE
  8
_0-6_鋼板__アングル
  6
CONTINUOUS
 62
    2
 10
1058.6344980223464
 20
722.92306864456236
 11
1061.4848043765369
 21
722.92303526734599
  0
LINE
  8
_0-6_鋼板__アングル
  6
CONTINUOUS
 62
    2
 10
1041.434445801998
 20
722.92303907983523
 11
1038.5841391419183
 21
722.92303534233838
  0
LINE
  8
_0-6_鋼板__アングル
  6
CONTINUOUS
 62
    2
 10
1009.5344945284933
 20
720.123035873047
 11
1007.0345003880232
 21
720.12304009691547
  0
LINE
  8
_0-6_鋼板__アングル
  6
CONTINUOUS
 62
    2
 10
1006.5344856880802
 20
719.52304098574245
 11
1006.5344932310347
 21
719.62303475182921
  0
LINE
  8
_0-6_鋼板__アングル
  6
CONTINUOUS
 62
    2
 10
1010.0345016854817
 20
720.62304121813327
 11
1010.0344959544293
 21
721.52305995411893
  0
LINE
  8
_0-6_鋼板__アングル
  6
CONTINUOUS
 62
    2
 10
1010.6344645878926
 20
720.6230330751157
 11
1010.6344588568402
 21
721.5230518111025
  0
LINE
  8
_0-6_鋼板__アングル
  6
CONTINUOUS
 62
    2
 10
1031.4848001555754
 20
722.92304945082037
 11
1012.0344787128727
 21
722.92304450851361
  0
TEXT
  8
_0-a_文字
 62
    7
 10
1112.4999999999959
 20
307.50000000000341
 40
15.000000000000213
 41
0.9999999999999905
 50
0
  1
※ 断熱材の種類が硬質ウレタンフォームの場合、ラジアルシートＬ６００の敷設は不要
  0
TEXT
  8
_0-a_文字
 62
    7
 10
1112.4999999999959
 20
287.50000000000341
 40
15.000000000000213
 41
0.9999999999999905
 50
0
  1
※ 本図面は防水納まりの参考図であり、下地等の構造を保証するものではありません
  0
ENDSEC
  0
EOF
