  0
SECTION
  2
HEADER
  9
$ACADVER
  1
AC1009
  9
$INSBASE
 10
0
 20
0
 30
0
  9
$EXTMIN
 10
0
 20
0
  9
$EXTMAX
 10
2100
 20
1485
  9
$LIMMIN
 10
0
 20
0
  9
$LIMMAX
 10
2100
 20
1485
  9
$LTSCALE
 40
5
  0
ENDSEC
  0
SECTION
  2
TABLES
  0
TABLE
  2
LTYPE
 70
     9
  0
LTYPE
  2
CONTINUOUS
 70
    64
  3
実線
 72
    65
 73
     0
 40
0.0
  0
LTYPE
  2
DASHED1
 70
    64
  3
--  --  --  --  --  --  --  --  
 72
    65
 73
     2
 40
2.5
 49
1.25
 49
-1.25
  0
LTYPE
  2
DASHED2
 70
    64
  3
----    ----    ----    ----    
 72
    65
 73
     2
 40
5.0
 49
2.5
 49
-2.5
  0
LTYPE
  2
DASHED3
 70
    64
  3
------  ------  ------  ------  
 72
    65
 73
     2
 40
5.0
 49
3.75
 49
-1.25
  0
LTYPE
  2
CENTER1
 70
    64
  3
----- - ----- - ----- - ----- - 
 72
    65
 73
     4
 40
10.0
 49
6.25
 49
-1.25
 49
1.25
 49
-1.25
  0
LTYPE
  2
CENTER2
 70
    64
  3
----------  --  ----------  --  
 72
    65
 73
     4
 40
20.0
 49
12.5
 49
-2.5
 49
2.5
 49
-2.5
  0
LTYPE
  2
PHANTOM1
 70
    64
  3
--- - - --- - - --- - - --- - - 
 72
    65
 73
     6
 40
10.0
 49
3.25
 49
-1.25
 49
1.25
 49
-1.25
 49
1.25
 49
-1.25
  0
LTYPE
  2
PHANTOM2
 70
    64
  3
--------  -  -  --------  -  -  
 72
    65
 73
     6
 40
20.0
 49
10.0
 49
-2.5
 49
1.25
 49
-2.5
 49
1.25
 49
-2.5
  0
LTYPE
  2
DOT
 70
    64
  3
-   -   -   -   -   -   -   -   
 72
    65
 73
     2
 40
2.5
 49
0.625
 49
-1.875
  0
LTYPE
  2
DUMMY
 70
    64
  3
ダミー
 72
    65
 73
     0
 40
0.0
  0
LTYPE
  2
RAND1
 70
    64
  3
ランダム線1
 72
    65
 73
     4
 40
10.0
 49
1.0
 49
-2.0
 49
3.0
 49
-4.0
  0
LTYPE
  2
RAND2
 70
    64
  3
ランダム線2
 72
    65
 73
     4
 40
14.0
 49
2.0
 49
-3.0
 49
4.0
 49
-5.0
  0
LTYPE
  2
RAND3
 70
    64
  3
ランダム線3
 72
    65
 73
     4
 40
18.0
 49
3.0
 49
-4.0
 49
5.0
 49
-6.0
  0
LTYPE
  2
RAND4
 70
    64
  3
ランダム線4
 72
    65
 73
     4
 40
22.0
 49
4.0
 49
-5.0
 49
6.0
 49
-7.0
  0
LTYPE
  2
RAND5
 70
    64
  3
ランダム線5
 72
    65
 73
     4
 40
26.0
 49
5.0
 49
-6.0
 49
7.0
 49
-8.0
  0
LTYPE
  2
LONG1
 70
    64
  3
----------  --  ----------  --  
 72
    65
 73
     4
 40
40.0
 49
32.5
 49
-2.5
 49
2.5
 49
-2.5
  0
LTYPE
  2
LONG2
 70
    64
  3
--------  -  -  --------  -  -  
 72
    65
 73
     6
 40
40.0
 49
30.0
 49
-2.5
 49
1.25
 49
-2.5
 49
1.25
 49
-2.5
  0
LTYPE
  2
LONG3
 70
    64
  3
+++++++++++++++..+++++++++++++++
 72
    65
 73
     2
 40
40.0
 49
37.5
 49
-2.5
  0
LTYPE
  2
LONG4
 70
    64
  3
+++++++++++++++..+++++++++++++++
 72
    65
 73
     2
 40
80.0
 49
75.0
 49
-5.0
  0
LTYPE
  2
LONG5
 70
    64
  3
----------  --  ----------  --  
 72
    65
 73
     4
 40
60.0
 49
37.5
 49
-7.5
 49
7.5
 49
-7.5
  0
LTYPE
  2
dashed
 70
   64
  3
-------   -------------   ------
 72
   65
 73
    2
 40
7.5
 49
6
 49
-1.5
  0
LTYPE
  2
dashed_spaced
 70
   64
  3
----        --------        ----
 72
   65
 73
    2
 40
12
 49
6
 49
-6
  0
LTYPE
  2
long_dashed_dotted
 70
   64
  3
------------- --- --------------
 72
   65
 73
    4
 40
15.25
 49
12
 49
-1.5
 49
0.25
 49
-1.5
  0
LTYPE
  2
long_dashed_double-dotted
 70
   64
  3
----------- --- --- ------------
 72
   65
 73
    6
 40
17
 49
12
 49
-1.5
 49
0.25
 49
-1.5
 49
0.25
 49
-1.5
  0
LTYPE
  2
long_dashed_triplicate-dotted
 70
   64
  3
--------- --- --- --- ----------
 72
   65
 73
    8
 40
18.75
 49
12
 49
-1.5
 49
0.25
 49
-1.5
 49
0.25
 49
-1.5
 49
0.25
 49
-1.5
  0
LTYPE
  2
dotted
 70
   64
  3
   -       -       -       -    
 72
   65
 73
    2
 40
1.75
 49
0.25
 49
-1.5
  0
LTYPE
  2
chain
 70
   64
  3
-------------- -- --------------
 72
   65
 73
    4
 40
18.5
 49
12
 49
-1.5
 49
3.5
 49
-1.5
  0
LTYPE
  2
chain_double_dash
 70
   64
  3
------------ -- -- -------------
 72
   65
 73
    6
 40
23.5
 49
12
 49
-1.5
 49
3.5
 49
-1.5
 49
3.5
 49
-1.5
  0
LTYPE
  2
dashed_dotted
 70
   64
  3
-----------     -     ----------
 72
   65
 73
    4
 40
9.25
 49
6
 49
-1.5
 49
0.25
 49
-1.5
  0
LTYPE
  2
double-dashed_dotted
 70
   64
  3
------   -----------   -   -----
 72
   65
 73
    6
 40
16.75
 49
6
 49
-1.5
 49
6
 49
-1.5
 49
0.25
 49
-1.5
  0
LTYPE
  2
dashed_double-dotted
 70
   64
  3
---------    -    -    ---------
 72
   65
 73
    6
 40
11
 49
6
 49
-1.5
 49
0.25
 49
-1.5
 49
0.25
 49
-1.5
  0
LTYPE
  2
double-dashed_double-dotted
 70
   64
  3
-----   ---------   -   -   ----
 72
   65
 73
    8
 40
18.5
 49
6
 49
-1.5
 49
6
 49
-1.5
 49
0.25
 49
-1.5
 49
0.25
 49
-1.5
  0
LTYPE
  2
dashed_triplicate-dotted
 70
   64
  3
-------    -    -    -    ------
 72
   65
 73
    8
 40
12.75
 49
6
 49
-1.5
 49
0.25
 49
-1.5
 49
0.25
 49
-1.5
 49
0.25
 49
-1.5
  0
LTYPE
  2
double-dashed_triplicate-dotted
 70
   64
  3
-----  ---------  -  -  -  -----
 72
   65
 73
   10
 40
20.25
 49
6
 49
-1.5
 49
6
 49
-1.5
 49
0.25
 49
-1.5
 49
0.25
 49
-1.5
 49
0.25
 49
-1.5
  0
LTYPE
  2
undefined
 70
   64
  3
--------------------------------
 72
   65
 73
    0
 40
0
  0
ENDTAB
  0
TABLE
  2
STYLE
  5
3
100
AcDbSymbolTable
 70
     1
  0
STYLE
  5
10
100
AcDbSymbolTableRecord
100
AcDbTextStyleTableRecord
  2
STANDARD
 70
     0
 40
0.0
 41
1.0
 50
0.0
 71
     0
 42
0.2
  3
txt
  4
bigfont.shx
  0
STYLE
  5
26
100
AcDbSymbolTableRecord
100
AcDbTextStyleTableRecord
  2
TATEGAKI
 70
    68
 40
0.0
 41
1.0
 50
0.0
 71
     0
 42
1.0
  3
txt
  4
bigfont.shx
  0
ENDTAB
  0
TABLE
  2
LAYER
 70
   12
  0
LAYER
  2
_0-1_線色１__水色__
 70
   64
 62
    7
  6
CONTINUOUS
  0
LAYER
  2
_0-2_線色２__白__
 70
   64
 62
    7
  6
CONTINUOUS
  0
LAYER
  2
_0-4_線色４__黄__
 70
   64
 62
    7
  6
CONTINUOUS
  0
LAYER
  2
_0-5_金属
 70
   64
 62
    7
  6
CONTINUOUS
  0
LAYER
  2
_0-6_鋼板__アングル
 70
   64
 62
    7
  6
CONTINUOUS
  0
LAYER
  2
_0-7_ビス
 70
   64
 62
    7
  6
CONTINUOUS
  0
LAYER
  2
_0-8_笠木他
 70
   64
 62
    7
  6
CONTINUOUS
  0
LAYER
  2
_0-a_文字
 70
   64
 62
    7
  6
CONTINUOUS
  0
LAYER
  2
_0-d_断熱__ハッチ
 70
   64
 62
    7
  6
CONTINUOUS
  0
LAYER
  2
_f-0_
 70
   64
 62
    7
  6
CONTINUOUS
  0
LAYER
  2
_f-f_
 70
   64
 62
    7
  6
CONTINUOUS
  0
LAYER
  2
ADD_LINE
 70
   64
 62
    7
  6
CONTINUOUS
  0
ENDTAB
  0
ENDSEC
  0
SECTION
  2
BLOCKS
  0
ENDSEC
  0
SECTION
  2
ENTITIES
  0
ARC
  8
_0-1_線色１__水色__
  6
CONTINUOUS
 62
    4
 10
861.82484228035378
 20
798.17435420942559
 40
1.2083333333333581
 50
37.523513195350134
 51
322.47648679666082
  0
ARC
  8
_0-1_線色１__水色__
  6
CONTINUOUS
 62
    4
 10
863.7415089469539
 20
796.70239406495
 40
1.2083333333333177
 50
217.52351319811916
 51
142.47648679389312
  0
ARC
  8
_0-1_線色１__水色__
  6
CONTINUOUS
 62
    4
 10
861.82484228076419
 20
795.23043392074214
 40
1.2083333333333581
 50
37.523513195350134
 51
322.47648679666082
  0
ARC
  8
_0-1_線色１__水色__
  6
CONTINUOUS
 62
    4
 10
863.74150894736431
 20
793.75847377626712
 40
1.2083333333333177
 50
2.6128021044751155
 51
142.47648679389312
  0
LINE
  8
_0-d_断熱__ハッチ
  6
CONTINUOUS
 62
    4
 10
865.283175619453
 20
802.56978865922861
 11
874.03940718242438
 21
793.81355709625723
  0
LINE
  8
_0-d_断熱__ハッチ
  6
CONTINUOUS
 62
    4
 10
1052.911009018311
 20
793.81355709625666
 11
1086.7110090183137
 21
827.61355709625946
  0
LINE
  8
_0-d_断熱__ハッチ
  6
CONTINUOUS
 62
    4
 10
1024.6267377708546
 20
793.81355709625723
 11
1058.4267377708568
 21
827.61355709625946
  0
LINE
  8
_0-d_断熱__ハッチ
  6
CONTINUOUS
 62
    4
 10
996.34246652338732
 20
793.81355709625723
 11
1030.1424665233901
 21
827.61355709625946
  0
LINE
  8
_0-d_断熱__ハッチ
  6
CONTINUOUS
 62
    4
 10
968.0581952759303
 20
793.81355709625723
 11
1001.8581952759314
 21
827.61355709625832
  0
LINE
  8
_0-d_断熱__ハッチ
  6
CONTINUOUS
 62
    4
 10
939.77392402846363
 20
793.81355709625723
 11
973.57392402846585
 21
827.61355709625946
  0
LINE
  8
_0-d_断熱__ハッチ
  6
CONTINUOUS
 62
    4
 10
911.48965278100661
 20
793.8135570962578
 11
945.28965278100657
 21
827.61355709625832
  0
LINE
  8
_0-d_断熱__ハッチ
  6
CONTINUOUS
 62
    4
 10
883.20538153353937
 20
793.8135570962578
 11
917.00538153354159
 21
827.61355709626002
  0
LINE
  8
_0-d_断熱__ハッチ
  6
CONTINUOUS
 62
    4
 10
868.52367842988883
 20
827.61355709625946
 11
902.32367842988879
 21
793.8135570962595
  0
LINE
  8
_0-d_断熱__ハッチ
  6
CONTINUOUS
 62
    4
 10
896.80794967734641
 20
827.61355709625946
 11
930.60794967734751
 21
793.81355709625836
  0
LINE
  8
_0-d_断熱__ハッチ
  6
CONTINUOUS
 62
    4
 10
925.09222092481309
 20
827.61355709625946
 11
958.89222092481191
 21
793.81355709626064
  0
LINE
  8
_0-d_断熱__ハッチ
  6
CONTINUOUS
 62
    4
 10
953.3764921722701
 20
827.61355709625946
 11
987.17649217227176
 21
793.81355709625836
  0
LINE
  8
_0-d_断熱__ハッチ
  6
CONTINUOUS
 62
    4
 10
981.66076341973735
 20
827.61355709625889
 11
1015.4607634197384
 21
793.81355709625836
  0
LINE
  8
_0-d_断熱__ハッチ
  6
CONTINUOUS
 62
    4
 10
1009.9450346671944
 20
827.61355709626002
 11
1043.745034667196
 21
793.81355709625836
  0
LINE
  8
_0-2_線色２__白__
  6
CONTINUOUS
 62
    7
 10
865.283175619453
 20
827.61355709625889
 11
865.283175619453
 21
793.8135570962578
  0
TEXT
  8
_0-a_文字
 62
    7
 10
682.71140418649679
 20
760.11355709625889
 40
15.000000000000213
 41
0.9999999999999876
 50
0
  1
プルーフシーラー
  0
LINE
  8
_0-a_文字
  6
CONTINUOUS
 62
    7
 10
827.71140418649566
 20
767.61355709625889
 11
807.71140418649566
 21
767.61355709625889
  0
LINE
  8
_0-a_文字
  6
CONTINUOUS
 62
    7
 10
851.26785828828247
 20
726.81258174579966
 11
827.71140418649566
 21
767.61355709625889
  0
LINE
  8
_f-0_
  6
CONTINUOUS
 62
  136
 10
1714.9999999999989
 20
1192.5
 11
385
 21
1192.5
  0
LINE
  8
_f-0_
  6
CONTINUOUS
 62
  136
 10
385
 20
277.50000000000341
 11
1714.9999999999989
 21
277.50000000000341
  0
LINE
  8
_f-0_
  6
CONTINUOUS
 62
  136
 10
385
 20
1192.5
 11
385
 21
277.50000000000341
  0
LINE
  8
_f-0_
  6
CONTINUOUS
 62
  136
 10
1714.9999999999989
 20
1192.5
 11
1714.9999999999989
 21
277.50000000000341
  0
LINE
  8
_f-0_
  6
CONTINUOUS
 62
    6
 10
1714.9999999999989
 20
1152.5
 11
385
 21
1152.5
  0
LINE
  8
_f-f_
  6
CONTINUOUS
 62
    9
 10
310
 20
217.5
 11
310
 21
1267.5
  0
LINE
  8
_f-f_
  6
CONTINUOUS
 62
    9
 10
1790
 20
217.5
 11
310
 21
217.5
  0
LINE
  8
_f-f_
  6
CONTINUOUS
 62
    9
 10
1790
 20
1267.5
 11
310
 21
1267.5
  0
LINE
  8
_f-f_
  6
CONTINUOUS
 62
    9
 10
1790
 20
1267.5
 11
1790
 21
217.5
  0
LINE
  8
ADD_LINE
  6
DOT
 62
  136
 10
1764.9999999999989
 20
1242.5
 11
335
 21
1242.5
  0
LINE
  8
ADD_LINE
  6
DOT
 62
  136
 10
335
 20
242.50000000000227
 11
335
 21
1242.5
  0
LINE
  8
ADD_LINE
  6
DOT
 62
  136
 10
1765
 20
1242.5
 11
1765
 21
242.5
  0
LINE
  8
ADD_LINE
  6
DOT
 62
  136
 10
1765
 20
242.5
 11
335.00000000000114
 21
242.5
  0
LINE
  8
_0-d_断熱__ハッチ
  6
CONTINUOUS
 62
    4
 10
1277.9851789980114
 20
792.61355709625946
 11
1287.8450215972327
 21
802.47339969548136
  0
LINE
  8
_0-d_断熱__ハッチ
  6
CONTINUOUS
 62
    4
 10
1249.7009077505493
 20
792.61355709626002
 11
1284.7009077505504
 21
827.61355709626059
  0
LINE
  8
_0-d_断熱__ハッチ
  6
CONTINUOUS
 62
    4
 10
1221.4166365030871
 20
792.61355709626002
 11
1256.416636503086
 21
827.61355709625832
  0
LINE
  8
_0-d_断熱__ハッチ
  6
CONTINUOUS
 62
    4
 10
1193.1323652556302
 20
792.61355709626059
 11
1228.1323652556318
 21
827.61355709626173
  0
LINE
  8
_0-d_断熱__ハッチ
  6
CONTINUOUS
 62
    4
 10
1164.8480940081629
 20
792.61355709626002
 11
1199.8480940081618
 21
827.61355709625832
  0
LINE
  8
_0-d_断熱__ハッチ
  6
CONTINUOUS
 62
    4
 10
1136.5638227607042
 20
792.61355709625832
 11
1171.5638227607076
 21
827.61355709626173
  0
LINE
  8
_0-d_断熱__ハッチ
  6
CONTINUOUS
 62
    4
 10
1108.2795515132364
 20
792.61355709625718
 11
1143.2795515132375
 21
827.61355709625889
  0
LINE
  8
_0-d_断熱__ハッチ
  6
CONTINUOUS
 62
    4
 10
1079.9952802657795
 20
792.61355709625832
 11
1114.995280265781
 21
827.61355709625946
  0
LINE
  8
_0-d_断熱__ハッチ
  6
CONTINUOUS
 62
    4
 10
1038.2293059146639
 20
827.61355709625718
 11
1073.2293059146616
 21
792.61355709625946
  0
LINE
  8
_0-d_断熱__ハッチ
  6
CONTINUOUS
 62
    4
 10
1066.5135771621208
 20
827.61355709625775
 11
1101.5135771621185
 21
792.61355709626002
  0
LINE
  8
_0-d_断熱__ハッチ
  6
CONTINUOUS
 62
    4
 10
1094.7978484095881
 20
827.61355709625718
 11
1129.7978484095865
 21
792.61355709625889
  0
LINE
  8
_0-d_断熱__ハッチ
  6
CONTINUOUS
 62
    4
 10
1123.0821196570446
 20
827.61355709625832
 11
1158.0821196570428
 21
792.61355709626002
  0
LINE
  8
_0-d_断熱__ハッチ
  6
CONTINUOUS
 62
    4
 10
1151.3663909045117
 20
827.61355709625775
 11
1186.3663909045113
 21
792.61355709625832
  0
LINE
  8
_0-d_断熱__ハッチ
  6
CONTINUOUS
 62
    4
 10
1179.6506621519688
 20
827.61355709625832
 11
1214.6506621519666
 21
792.61355709626059
  0
LINE
  8
_0-d_断熱__ハッチ
  6
CONTINUOUS
 62
    4
 10
1207.9349333994355
 20
827.61355709625832
 11
1242.934933399436
 21
792.61355709625775
  0
LINE
  8
_0-d_断熱__ハッチ
  6
CONTINUOUS
 62
    4
 10
1236.2192046468931
 20
827.61355709625832
 11
1271.2192046468913
 21
792.61355709626002
  0
LINE
  8
_0-d_断熱__ハッチ
  6
CONTINUOUS
 62
    4
 10
1264.5034758943598
 20
827.61355709625832
 11
1287.8450215972321
 21
804.27201139338592
  0
TEXT
  8
_f-0_
 62
    7
 10
405.30228976001922
 20
1163.75
 40
17.5
 41
1
 50
0
  1
軒先
  0
LINE
  8
_0-2_線色２__白__
  6
CONTINUOUS
 62
    7
 10
860.283175619453
 20
832.61355709625889
 11
1287.8450215972339
 21
832.61355709625889
  0
LINE
  8
_0-2_線色２__白__
  6
CONTINUOUS
 62
    7
 10
865.283175619453
 20
827.61355709625889
 11
1287.8450215972339
 21
827.61355709625889
  0
LINE
  8
_0-d_断熱__ハッチ
  6
CONTINUOUS
 62
    4
 10
865.283175619453
 20
804.17562242962845
 11
888.72111028608231
 21
827.61355709625775
  0
ARC
  8
_0-1_線色１__水色__
  6
CONTINUOUS
 62
    4
 10
1156.8405687506674
 20
831.07189043535584
 40
1.2083333333333581
 50
307.52351320333912
 51
232.47648680464988
  0
ARC
  8
_0-1_線色１__水色__
  6
CONTINUOUS
 62
    4
 10
1158.3125288951419
 20
829.15522376875572
 40
1.2083333333333179
 50
127.52351320610693
 51
52.47648680188081
  0
ARC
  8
_0-1_線色１__水色__
  6
CONTINUOUS
 62
    4
 10
1153.8966484619846
 20
831.0718904351512
 40
1.2083333333333581
 50
307.52351320333912
 51
232.47648680464988
  0
ARC
  8
_0-1_線色１__水色__
  6
CONTINUOUS
 62
    4
 10
1155.368608606459
 20
829.15522376855108
 40
1.2083333333333179
 50
127.52351320610693
 51
52.47648680188081
  0
ARC
  8
_0-1_線色１__水色__
  6
CONTINUOUS
 62
    4
 10
1150.9527281733017
 20
831.07189043494657
 40
1.2083333333333581
 50
307.52351320333912
 51
232.47648680464988
  0
ARC
  8
_0-1_線色１__水色__
  6
CONTINUOUS
 62
    4
 10
1152.4246883177761
 20
829.15522376834645
 40
1.2083333333333179
 50
127.52351320610693
 51
52.47648680188081
  0
ARC
  8
_0-1_線色１__水色__
  6
CONTINUOUS
 62
    4
 10
1148.0088078846165
 20
831.07189043474193
 40
1.2083333333333581
 50
307.52351320333912
 51
232.47648680464988
  0
ARC
  8
_0-1_線色１__水色__
  6
CONTINUOUS
 62
    4
 10
1149.4807680290933
 20
829.15522376814181
 40
1.2083333333333179
 50
127.52351320610693
 51
52.47648680188081
  0
ARC
  8
_0-1_線色１__水色__
  6
CONTINUOUS
 62
    4
 10
1145.0648875959337
 20
831.07189043453502
 40
1.2083333333333581
 50
307.52351320333912
 51
232.47648680464988
  0
ARC
  8
_0-1_線色１__水色__
  6
CONTINUOUS
 62
    4
 10
1146.5368477404081
 20
829.15522376793717
 40
1.2083333333333179
 50
127.52351320610693
 51
52.47648680188081
  0
ARC
  8
_0-1_線色１__水色__
  6
CONTINUOUS
 62
    4
 10
1142.1209673072508
 20
831.07189043433038
 40
1.2083333333333581
 50
307.52351320333912
 51
232.47648680464988
  0
ARC
  8
_0-1_線色１__水色__
  6
CONTINUOUS
 62
    4
 10
1143.5929274517252
 20
829.15522376773026
 40
1.2083333333333179
 50
127.52351320610693
 51
52.47648680188081
  0
ARC
  8
_0-1_線色１__水色__
  6
CONTINUOUS
 62
    4
 10
1136.233126729885
 20
831.07189043392111
 40
1.2083333333333581
 50
307.52351320333912
 51
232.47648680464988
  0
ARC
  8
_0-1_線色１__水色__
  6
CONTINUOUS
 62
    4
 10
1139.1770470185679
 20
831.07189043412575
 40
1.2083333333333581
 50
307.52351320333912
 51
232.47648680464988
  0
ARC
  8
_0-1_線色１__水色__
  6
CONTINUOUS
 62
    4
 10
1137.7050868743595
 20
829.15522376732099
 40
1.2083333333333179
 50
127.52351320610693
 51
52.47648680188081
  0
ARC
  8
_0-1_線色１__水色__
  6
CONTINUOUS
 62
    4
 10
1140.6490071630424
 20
829.15522376752563
 40
1.2083333333333179
 50
127.52351320610693
 51
52.47648680188081
  0
ARC
  8
_0-1_線色１__水色__
  6
CONTINUOUS
 62
    4
 10
1134.7611665856766
 20
829.15522376711635
 40
1.2083333333333179
 50
127.52351320610693
 51
52.47648680188081
  0
ARC
  8
_0-1_線色１__水色__
  6
CONTINUOUS
 62
    4
 10
1133.2892064411999
 20
831.0718904337142
 40
1.2083333333333581
 50
307.52351320333912
 51
232.47648680464988
  0
ARC
  8
_0-1_線色１__水色__
  6
CONTINUOUS
 62
    4
 10
1183.3358513488179
 20
831.07189043535584
 40
1.2083333333333581
 50
307.52351320333912
 51
232.47648680464988
  0
ARC
  8
_0-1_線色１__水色__
  6
CONTINUOUS
 62
    4
 10
1184.8078114932923
 20
829.15522376875572
 40
1.2083333333333179
 50
127.52351320610693
 51
52.47648680188081
  0
ARC
  8
_0-1_線色１__水色__
  6
CONTINUOUS
 62
    4
 10
1180.391931060135
 20
831.0718904351512
 40
1.2083333333333581
 50
307.52351320333912
 51
232.47648680464988
  0
ARC
  8
_0-1_線色１__水色__
  6
CONTINUOUS
 62
    4
 10
1181.8638912046094
 20
829.15522376855108
 40
1.2083333333333179
 50
127.52351320610693
 51
52.47648680188081
  0
ARC
  8
_0-1_線色１__水色__
  6
CONTINUOUS
 62
    4
 10
1177.4480107714498
 20
831.07189043494657
 40
1.2083333333333581
 50
307.52351320333912
 51
232.47648680464988
  0
ARC
  8
_0-1_線色１__水色__
  6
CONTINUOUS
 62
    4
 10
1178.9199709159266
 20
829.15522376834645
 40
1.2083333333333179
 50
127.52351320610693
 51
52.47648680188081
  0
ARC
  8
_0-1_線色１__水色__
  6
CONTINUOUS
 62
    4
 10
1174.504090482767
 20
831.07189043474193
 40
1.2083333333333581
 50
307.52351320333912
 51
232.47648680464988
  0
ARC
  8
_0-1_線色１__水色__
  6
CONTINUOUS
 62
    4
 10
1175.9760506272437
 20
829.15522376814181
 40
1.2083333333333179
 50
127.52351320610693
 51
52.47648680188081
  0
ARC
  8
_0-1_線色１__水色__
  6
CONTINUOUS
 62
    4
 10
1171.5601701940841
 20
831.07189043453502
 40
1.2083333333333581
 50
307.52351320333912
 51
232.47648680464988
  0
ARC
  8
_0-1_線色１__水色__
  6
CONTINUOUS
 62
    4
 10
1173.0321303385608
 20
829.15522376793717
 40
1.2083333333333179
 50
127.52351320610693
 51
52.47648680188081
  0
ARC
  8
_0-1_線色１__水色__
  6
CONTINUOUS
 62
    4
 10
1168.6162499054012
 20
831.07189043433038
 40
1.2083333333333581
 50
307.52351320333912
 51
232.47648680464988
  0
ARC
  8
_0-1_線色１__水色__
  6
CONTINUOUS
 62
    4
 10
1170.0882100498757
 20
829.15522376773026
 40
1.2083333333333179
 50
127.52351320610693
 51
52.47648680188081
  0
ARC
  8
_0-1_線色１__水色__
  6
CONTINUOUS
 62
    4
 10
1162.7284093280332
 20
831.07189043392111
 40
1.2083333333333581
 50
307.52351320333912
 51
232.47648680464988
  0
ARC
  8
_0-1_線色１__水色__
  6
CONTINUOUS
 62
    4
 10
1165.6723296167183
 20
831.07189043412575
 40
1.2083333333333581
 50
307.52351320333912
 51
232.47648680464988
  0
ARC
  8
_0-1_線色１__水色__
  6
CONTINUOUS
 62
    4
 10
1164.2003694725099
 20
829.15522376732099
 40
1.2083333333333179
 50
127.52351320610693
 51
52.47648680188081
  0
ARC
  8
_0-1_線色１__水色__
  6
CONTINUOUS
 62
    4
 10
1167.1442897611928
 20
829.15522376752563
 40
1.2083333333333179
 50
127.52351320610693
 51
52.47648680188081
  0
ARC
  8
_0-1_線色１__水色__
  6
CONTINUOUS
 62
    4
 10
1161.256449183827
 20
829.15522376711635
 40
1.2083333333333179
 50
127.52351320610693
 51
52.47648680188081
  0
ARC
  8
_0-1_線色１__水色__
  6
CONTINUOUS
 62
    4
 10
1159.7844890393503
 20
831.0718904337142
 40
1.2083333333333581
 50
307.52351320333912
 51
232.47648680464988
  0
ARC
  8
_0-1_線色１__水色__
  6
CONTINUOUS
 62
    4
 10
1209.8311339469683
 20
831.07189043535584
 40
1.2083333333333581
 50
307.52351320333912
 51
232.47648680464988
  0
ARC
  8
_0-1_線色１__水色__
  6
CONTINUOUS
 62
    4
 10
1211.3030940914427
 20
829.15522376875572
 40
1.2083333333333179
 50
127.52351320610693
 51
52.47648680188081
  0
ARC
  8
_0-1_線色１__水色__
  6
CONTINUOUS
 62
    4
 10
1206.8872136582854
 20
831.0718904351512
 40
1.2083333333333581
 50
307.52351320333912
 51
232.47648680464988
  0
ARC
  8
_0-1_線色１__水色__
  6
CONTINUOUS
 62
    4
 10
1208.3591738027599
 20
829.15522376855108
 40
1.2083333333333179
 50
127.52351320610693
 51
52.47648680188081
  0
ARC
  8
_0-1_線色１__水色__
  6
CONTINUOUS
 62
    4
 10
1203.9432933696025
 20
831.07189043494657
 40
1.2083333333333581
 50
307.52351320333912
 51
232.47648680464988
  0
ARC
  8
_0-1_線色１__水色__
  6
CONTINUOUS
 62
    4
 10
1205.415253514077
 20
829.15522376834645
 40
1.2083333333333179
 50
127.52351320610693
 51
52.47648680188081
  0
ARC
  8
_0-1_線色１__水色__
  6
CONTINUOUS
 62
    4
 10
1200.9993730809174
 20
831.07189043474193
 40
1.2083333333333581
 50
307.52351320333912
 51
232.47648680464988
  0
ARC
  8
_0-1_線色１__水色__
  6
CONTINUOUS
 62
    4
 10
1202.4713332253941
 20
829.15522376814181
 40
1.2083333333333179
 50
127.52351320610693
 51
52.47648680188081
  0
ARC
  8
_0-1_線色１__水色__
  6
CONTINUOUS
 62
    4
 10
1198.0554527922345
 20
831.07189043453502
 40
1.2083333333333581
 50
307.52351320333912
 51
232.47648680464988
  0
ARC
  8
_0-1_線色１__水色__
  6
CONTINUOUS
 62
    4
 10
1199.527412936709
 20
829.15522376793717
 40
1.2083333333333179
 50
127.52351320610693
 51
52.47648680188081
  0
ARC
  8
_0-1_線色１__水色__
  6
CONTINUOUS
 62
    4
 10
1195.1115325035516
 20
831.07189043433038
 40
1.2083333333333581
 50
307.52351320333912
 51
232.47648680464988
  0
ARC
  8
_0-1_線色１__水色__
  6
CONTINUOUS
 62
    4
 10
1196.5834926480261
 20
829.15522376773026
 40
1.2083333333333179
 50
127.52351320610693
 51
52.47648680188081
  0
ARC
  8
_0-1_線色１__水色__
  6
CONTINUOUS
 62
    4
 10
1189.2236919261836
 20
831.07189043392111
 40
1.2083333333333581
 50
307.52351320333912
 51
232.47648680464988
  0
ARC
  8
_0-1_線色１__水色__
  6
CONTINUOUS
 62
    4
 10
1192.1676122148688
 20
831.07189043412575
 40
1.2083333333333581
 50
307.52351320333912
 51
232.47648680464988
  0
ARC
  8
_0-1_線色１__水色__
  6
CONTINUOUS
 62
    4
 10
1190.6956520706603
 20
829.15522376732099
 40
1.2083333333333179
 50
127.52351320610693
 51
52.47648680188081
  0
ARC
  8
_0-1_線色１__水色__
  6
CONTINUOUS
 62
    4
 10
1193.6395723593432
 20
829.15522376752563
 40
1.2083333333333179
 50
127.52351320610693
 51
52.47648680188081
  0
ARC
  8
_0-1_線色１__水色__
  6
CONTINUOUS
 62
    4
 10
1187.7517317819775
 20
829.15522376711635
 40
1.2083333333333179
 50
127.52351320610693
 51
52.47648680188081
  0
ARC
  8
_0-1_線色１__水色__
  6
CONTINUOUS
 62
    4
 10
1186.2797716375007
 20
831.0718904337142
 40
1.2083333333333581
 50
307.52351320333912
 51
232.47648680464988
  0
ARC
  8
_0-1_線色１__水色__
  6
CONTINUOUS
 62
    4
 10
1227.4946556790678
 20
831.07189043535584
 40
1.2083333333333581
 50
307.52351320333912
 51
232.47648680464988
  0
ARC
  8
_0-1_線色１__水色__
  6
CONTINUOUS
 62
    4
 10
1228.9666158235423
 20
829.15522376875572
 40
1.2083333333333179
 50
127.52351320610693
 51
52.47648680188081
  0
ARC
  8
_0-1_線色１__水色__
  6
CONTINUOUS
 62
    4
 10
1224.5507353903849
 20
831.0718904351512
 40
1.2083333333333581
 50
307.52351320333912
 51
232.47648680464988
  0
ARC
  8
_0-1_線色１__水色__
  6
CONTINUOUS
 62
    4
 10
1226.0226955348594
 20
829.15522376855108
 40
1.2083333333333179
 50
127.52351320610693
 51
52.47648680188081
  0
ARC
  8
_0-1_線色１__水色__
  6
CONTINUOUS
 62
    4
 10
1221.6068151017021
 20
831.07189043494657
 40
1.2083333333333581
 50
307.52351320333912
 51
232.47648680464988
  0
ARC
  8
_0-1_線色１__水色__
  6
CONTINUOUS
 62
    4
 10
1223.0787752461765
 20
829.15522376834645
 40
1.2083333333333179
 50
127.52351320610693
 51
52.47648680188081
  0
ARC
  8
_0-1_線色１__水色__
  6
CONTINUOUS
 62
    4
 10
1218.6628948130192
 20
831.07189043474193
 40
1.2083333333333581
 50
307.52351320333912
 51
232.47648680464988
  0
ARC
  8
_0-1_線色１__水色__
  6
CONTINUOUS
 62
    4
 10
1220.1348549574936
 20
829.15522376814181
 40
1.2083333333333179
 50
127.52351320610693
 51
52.47648680188081
  0
ARC
  8
_0-1_線色１__水色__
  6
CONTINUOUS
 62
    4
 10
1215.718974524334
 20
831.07189043453502
 40
1.2083333333333581
 50
307.52351320333912
 51
232.47648680464988
  0
ARC
  8
_0-1_線色１__水色__
  6
CONTINUOUS
 62
    4
 10
1217.1909346688108
 20
829.15522376793717
 40
1.2083333333333179
 50
127.52351320610693
 51
52.47648680188081
  0
ARC
  8
_0-1_線色１__水色__
  6
CONTINUOUS
 62
    4
 10
1212.7750542356512
 20
831.07189043433038
 40
1.2083333333333581
 50
307.52351320333912
 51
232.47648680464988
  0
ARC
  8
_0-1_線色１__水色__
  6
CONTINUOUS
 62
    4
 10
1214.2470143801256
 20
829.15522376773026
 40
1.2083333333333179
 50
127.52351320610693
 51
52.47648680188081
  0
ARC
  8
_0-1_線色１__水色__
  6
CONTINUOUS
 62
    4
 10
1253.9899382772182
 20
831.07189043535584
 40
1.2083333333333581
 50
307.52351320333912
 51
232.47648680464988
  0
ARC
  8
_0-1_線色１__水色__
  6
CONTINUOUS
 62
    4
 10
1255.4618984216927
 20
829.15522376875572
 40
1.2083333333333179
 50
127.52351320610693
 51
52.47648680188081
  0
ARC
  8
_0-1_線色１__水色__
  6
CONTINUOUS
 62
    4
 10
1251.0460179885354
 20
831.0718904351512
 40
1.2083333333333581
 50
307.52351320333912
 51
232.47648680464988
  0
ARC
  8
_0-1_線色１__水色__
  6
CONTINUOUS
 62
    4
 10
1252.5179781330098
 20
829.15522376855108
 40
1.2083333333333179
 50
127.52351320610693
 51
52.47648680188081
  0
ARC
  8
_0-1_線色１__水色__
  6
CONTINUOUS
 62
    4
 10
1248.1020976998525
 20
831.07189043494657
 40
1.2083333333333581
 50
307.52351320333912
 51
232.47648680464988
  0
ARC
  8
_0-1_線色１__水色__
  6
CONTINUOUS
 62
    4
 10
1249.5740578443269
 20
829.15522376834645
 40
1.2083333333333179
 50
127.52351320610693
 51
52.47648680188081
  0
ARC
  8
_0-1_線色１__水色__
  6
CONTINUOUS
 62
    4
 10
1245.1581774111673
 20
831.07189043474193
 40
1.2083333333333581
 50
307.52351320333912
 51
232.47648680464988
  0
ARC
  8
_0-1_線色１__水色__
  6
CONTINUOUS
 62
    4
 10
1246.6301375556441
 20
829.15522376814181
 40
1.2083333333333179
 50
127.52351320610693
 51
52.47648680188081
  0
ARC
  8
_0-1_線色１__水色__
  6
CONTINUOUS
 62
    4
 10
1242.2142571224845
 20
831.07189043453502
 40
1.2083333333333581
 50
307.52351320333912
 51
232.47648680464988
  0
ARC
  8
_0-1_線色１__水色__
  6
CONTINUOUS
 62
    4
 10
1243.6862172669589
 20
829.15522376793717
 40
1.2083333333333179
 50
127.52351320610693
 51
52.47648680188081
  0
ARC
  8
_0-1_線色１__水色__
  6
CONTINUOUS
 62
    4
 10
1239.2703368338016
 20
831.07189043433038
 40
1.2083333333333581
 50
307.52351320333912
 51
232.47648680464988
  0
ARC
  8
_0-1_線色１__水色__
  6
CONTINUOUS
 62
    4
 10
1240.742296978276
 20
829.15522376773026
 40
1.2083333333333179
 50
127.52351320610693
 51
52.47648680188081
  0
ARC
  8
_0-1_線色１__水色__
  6
CONTINUOUS
 62
    4
 10
1233.3824962564358
 20
831.07189043392111
 40
1.2083333333333581
 50
307.52351320333912
 51
232.47648680464988
  0
ARC
  8
_0-1_線色１__水色__
  6
CONTINUOUS
 62
    4
 10
1236.3264165451187
 20
831.07189043412575
 40
1.2083333333333581
 50
307.52351320333912
 51
232.47648680464988
  0
ARC
  8
_0-1_線色１__水色__
  6
CONTINUOUS
 62
    4
 10
1234.8544564009103
 20
829.15522376732099
 40
1.2083333333333179
 50
127.52351320610693
 51
52.47648680188081
  0
ARC
  8
_0-1_線色１__水色__
  6
CONTINUOUS
 62
    4
 10
1237.7983766895932
 20
829.15522376752563
 40
1.2083333333333179
 50
127.52351320610693
 51
52.47648680188081
  0
ARC
  8
_0-1_線色１__水色__
  6
CONTINUOUS
 62
    4
 10
1231.9105361122274
 20
829.15522376711635
 40
1.2083333333333179
 50
127.52351320610693
 51
52.47648680188081
  0
ARC
  8
_0-1_線色１__水色__
  6
CONTINUOUS
 62
    4
 10
1230.4385759677507
 20
831.0718904337142
 40
1.2083333333333581
 50
307.52351320333912
 51
232.47648680464988
  0
ARC
  8
_0-1_線色１__水色__
  6
CONTINUOUS
 62
    4
 10
1280.4852208753687
 20
831.07189043535584
 40
1.2083333333333581
 50
307.52351320333912
 51
232.47648680464988
  0
ARC
  8
_0-1_線色１__水色__
  6
CONTINUOUS
 62
    4
 10
1281.9571810198431
 20
829.15522376875572
 40
1.2083333333333179
 50
127.52351320610693
 51
52.47648680188081
  0
ARC
  8
_0-1_線色１__水色__
  6
CONTINUOUS
 62
    4
 10
1277.5413005866858
 20
831.0718904351512
 40
1.2083333333333581
 50
307.52351320333912
 51
232.47648680464988
  0
ARC
  8
_0-1_線色１__水色__
  6
CONTINUOUS
 62
    4
 10
1279.0132607311602
 20
829.15522376855108
 40
1.2083333333333179
 50
127.52351320610693
 51
52.47648680188081
  0
ARC
  8
_0-1_線色１__水色__
  6
CONTINUOUS
 62
    4
 10
1274.5973802980006
 20
831.07189043494657
 40
1.2083333333333581
 50
307.52351320333912
 51
232.47648680464988
  0
ARC
  8
_0-1_線色１__水色__
  6
CONTINUOUS
 62
    4
 10
1276.0693404424774
 20
829.15522376834645
 40
1.2083333333333179
 50
127.52351320610693
 51
52.47648680188081
  0
ARC
  8
_0-1_線色１__水色__
  6
CONTINUOUS
 62
    4
 10
1271.6534600093178
 20
831.07189043474193
 40
1.2083333333333581
 50
307.52351320333912
 51
232.47648680464988
  0
ARC
  8
_0-1_線色１__水色__
  6
CONTINUOUS
 62
    4
 10
1273.1254201537945
 20
829.15522376814181
 40
1.2083333333333179
 50
127.52351320610693
 51
52.47648680188081
  0
ARC
  8
_0-1_線色１__水色__
  6
CONTINUOUS
 62
    4
 10
1268.7095397206349
 20
831.07189043453502
 40
1.2083333333333581
 50
307.52351320333912
 51
232.47648680464988
  0
ARC
  8
_0-1_線色１__水色__
  6
CONTINUOUS
 62
    4
 10
1270.1814998651093
 20
829.15522376793717
 40
1.2083333333333179
 50
127.52351320610693
 51
52.47648680188081
  0
ARC
  8
_0-1_線色１__水色__
  6
CONTINUOUS
 62
    4
 10
1265.765619431952
 20
831.07189043433038
 40
1.2083333333333581
 50
307.52351320333912
 51
232.47648680464988
  0
ARC
  8
_0-1_線色１__水色__
  6
CONTINUOUS
 62
    4
 10
1267.2375795764265
 20
829.15522376773026
 40
1.2083333333333179
 50
127.52351320610693
 51
52.47648680188081
  0
ARC
  8
_0-1_線色１__水色__
  6
CONTINUOUS
 62
    4
 10
1259.877778854584
 20
831.07189043392111
 40
1.2083333333333581
 50
307.52351320333912
 51
232.47648680464988
  0
ARC
  8
_0-1_線色１__水色__
  6
CONTINUOUS
 62
    4
 10
1262.8216991432691
 20
831.07189043412575
 40
1.2083333333333581
 50
307.52351320333912
 51
232.47648680464988
  0
ARC
  8
_0-1_線色１__水色__
  6
CONTINUOUS
 62
    4
 10
1261.3497389990607
 20
829.15522376732099
 40
1.2083333333333179
 50
127.52351320610693
 51
52.47648680188081
  0
ARC
  8
_0-1_線色１__水色__
  6
CONTINUOUS
 62
    4
 10
1264.2936592877436
 20
829.15522376752563
 40
1.2083333333333179
 50
127.52351320610693
 51
52.47648680188081
  0
ARC
  8
_0-1_線色１__水色__
  6
CONTINUOUS
 62
    4
 10
1258.4058187103756
 20
829.15522376711635
 40
1.2083333333333179
 50
127.52351320610693
 51
52.47648680188081
  0
ARC
  8
_0-1_線色１__水色__
  6
CONTINUOUS
 62
    4
 10
1256.9338585659011
 20
831.0718904337142
 40
1.2083333333333581
 50
307.52351320333912
 51
232.47648680464988
  0
ARC
  8
_0-1_線色１__水色__
  6
CONTINUOUS
 62
    4
 10
1284.901101308526
 20
829.15522376834645
 40
1.2083333333333179
 50
127.52351320610693
 51
52.47648680188081
  0
ARC
  8
_0-1_線色１__水色__
  6
CONTINUOUS
 62
    4
 10
1283.4291411640515
 20
831.07189043494657
 40
1.2083333333333581
 50
307.52351320333912
 51
232.47648680464988
  0
ARC
  8
_0-1_線色１__水色__
  6
CONTINUOUS
 62
    4
 10
1042.0276774920399
 20
831.07189043410756
 40
1.2083333333333581
 50
307.52351320333912
 51
232.47648680464988
  0
ARC
  8
_0-1_線色１__水色__
  6
CONTINUOUS
 62
    4
 10
1043.4996376365143
 20
829.15522376750744
 40
1.2083333333333179
 50
127.52351320610693
 51
52.47648680188081
  0
ARC
  8
_0-1_線色１__水色__
  6
CONTINUOUS
 62
    4
 10
1039.083757203357
 20
831.07189043390292
 40
1.2083333333333581
 50
307.52351320333912
 51
232.47648680464988
  0
ARC
  8
_0-1_線色１__水色__
  6
CONTINUOUS
 62
    4
 10
1040.5557173478314
 20
829.1552237673028
 40
1.2083333333333179
 50
127.52351320610693
 51
52.47648680188081
  0
ARC
  8
_0-1_線色１__水色__
  6
CONTINUOUS
 62
    4
 10
1036.1398369146741
 20
831.07189043369829
 40
1.2083333333333581
 50
307.52351320333912
 51
232.47648680464988
  0
ARC
  8
_0-1_線色１__水色__
  6
CONTINUOUS
 62
    4
 10
1037.6117970591486
 20
829.15522376709816
 40
1.2083333333333179
 50
127.52351320610693
 51
52.47648680188081
  0
ARC
  8
_0-1_線色１__水色__
  6
CONTINUOUS
 62
    4
 10
1033.195916625989
 20
831.07189043349138
 40
1.2083333333333581
 50
307.52351320333912
 51
232.47648680464988
  0
ARC
  8
_0-1_線色１__水色__
  6
CONTINUOUS
 62
    4
 10
1034.6678767704657
 20
829.15522376689125
 40
1.2083333333333179
 50
127.52351320610693
 51
52.47648680188081
  0
ARC
  8
_0-1_線色１__水色__
  6
CONTINUOUS
 62
    4
 10
1030.2519963373061
 20
831.07189043328674
 40
1.2083333333333581
 50
307.52351320333912
 51
232.47648680464988
  0
ARC
  8
_0-1_線色１__水色__
  6
CONTINUOUS
 62
    4
 10
1031.7239564817828
 20
829.15522376668662
 40
1.2083333333333179
 50
127.52351320610693
 51
52.47648680188081
  0
ARC
  8
_0-1_線色１__水色__
  6
CONTINUOUS
 62
    4
 10
1027.3080760486232
 20
831.0718904330821
 40
1.2083333333333581
 50
307.52351320333912
 51
232.47648680464988
  0
ARC
  8
_0-1_線色１__水色__
  6
CONTINUOUS
 62
    4
 10
1028.7800361930977
 20
829.15522376648198
 40
1.2083333333333179
 50
127.52351320610693
 51
52.47648680188081
  0
ARC
  8
_0-1_線色１__水色__
  6
CONTINUOUS
 62
    4
 10
1021.4202354712552
 20
831.07189043267056
 40
1.2083333333333581
 50
307.52351320333912
 51
232.47648680464988
  0
ARC
  8
_0-1_線色１__水色__
  6
CONTINUOUS
 62
    4
 10
1024.3641557599403
 20
831.07189043287747
 40
1.2083333333333581
 50
307.52351320333912
 51
232.47648680464988
  0
ARC
  8
_0-1_線色１__水色__
  6
CONTINUOUS
 62
    4
 10
1022.8921956157319
 20
829.15522376607043
 40
1.2083333333333179
 50
127.52351320610693
 51
52.47648680188081
  0
ARC
  8
_0-1_線色１__水色__
  6
CONTINUOUS
 62
    4
 10
1025.8361159044148
 20
829.15522376627735
 40
1.2083333333333179
 50
127.52351320610693
 51
52.47648680188081
  0
ARC
  8
_0-1_線色１__水色__
  6
CONTINUOUS
 62
    4
 10
1019.948275327049
 20
829.1552237658658
 40
1.2083333333333179
 50
127.52351320610693
 51
52.47648680188081
  0
ARC
  8
_0-1_線色１__水色__
  6
CONTINUOUS
 62
    4
 10
1018.4763151825723
 20
831.07189043246592
 40
1.2083333333333581
 50
307.52351320333912
 51
232.47648680464988
  0
ARC
  8
_0-1_線色１__水色__
  6
CONTINUOUS
 62
    4
 10
1068.5229600901903
 20
831.07189043410756
 40
1.2083333333333581
 50
307.52351320333912
 51
232.47648680464988
  0
ARC
  8
_0-1_線色１__水色__
  6
CONTINUOUS
 62
    4
 10
1069.9949202346647
 20
829.15522376750744
 40
1.2083333333333179
 50
127.52351320610693
 51
52.47648680188081
  0
ARC
  8
_0-1_線色１__水色__
  6
CONTINUOUS
 62
    4
 10
1065.5790398015074
 20
831.07189043390292
 40
1.2083333333333581
 50
307.52351320333912
 51
232.47648680464988
  0
ARC
  8
_0-1_線色１__水色__
  6
CONTINUOUS
 62
    4
 10
1067.0509999459819
 20
829.1552237673028
 40
1.2083333333333179
 50
127.52351320610693
 51
52.47648680188081
  0
ARC
  8
_0-1_線色１__水色__
  6
CONTINUOUS
 62
    4
 10
1062.6351195128245
 20
831.07189043369829
 40
1.2083333333333581
 50
307.52351320333912
 51
232.47648680464988
  0
ARC
  8
_0-1_線色１__水色__
  6
CONTINUOUS
 62
    4
 10
1064.107079657299
 20
829.15522376709816
 40
1.2083333333333179
 50
127.52351320610693
 51
52.47648680188081
  0
ARC
  8
_0-1_線色１__水色__
  6
CONTINUOUS
 62
    4
 10
1059.6911992241394
 20
831.07189043349138
 40
1.2083333333333581
 50
307.52351320333912
 51
232.47648680464988
  0
ARC
  8
_0-1_線色１__水色__
  6
CONTINUOUS
 62
    4
 10
1061.1631593686161
 20
829.15522376689125
 40
1.2083333333333179
 50
127.52351320610693
 51
52.47648680188081
  0
ARC
  8
_0-1_線色１__水色__
  6
CONTINUOUS
 62
    4
 10
1056.7472789354565
 20
831.07189043328674
 40
1.2083333333333581
 50
307.52351320333912
 51
232.47648680464988
  0
ARC
  8
_0-1_線色１__水色__
  6
CONTINUOUS
 62
    4
 10
1058.219239079931
 20
829.15522376668662
 40
1.2083333333333179
 50
127.52351320610693
 51
52.47648680188081
  0
ARC
  8
_0-1_線色１__水色__
  6
CONTINUOUS
 62
    4
 10
1053.8033586467736
 20
831.0718904330821
 40
1.2083333333333581
 50
307.52351320333912
 51
232.47648680464988
  0
ARC
  8
_0-1_線色１__水色__
  6
CONTINUOUS
 62
    4
 10
1055.2753187912481
 20
829.15522376648198
 40
1.2083333333333179
 50
127.52351320610693
 51
52.47648680188081
  0
ARC
  8
_0-1_線色１__水色__
  6
CONTINUOUS
 62
    4
 10
1047.9155180694079
 20
831.07189043267056
 40
1.2083333333333581
 50
307.52351320333912
 51
232.47648680464988
  0
ARC
  8
_0-1_線色１__水色__
  6
CONTINUOUS
 62
    4
 10
1050.8594383580908
 20
831.07189043287747
 40
1.2083333333333581
 50
307.52351320333912
 51
232.47648680464988
  0
ARC
  8
_0-1_線色１__水色__
  6
CONTINUOUS
 62
    4
 10
1049.3874782138823
 20
829.15522376607043
 40
1.2083333333333179
 50
127.52351320610693
 51
52.47648680188081
  0
ARC
  8
_0-1_線色１__水色__
  6
CONTINUOUS
 62
    4
 10
1052.3313985025652
 20
829.15522376627735
 40
1.2083333333333179
 50
127.52351320610693
 51
52.47648680188081
  0
ARC
  8
_0-1_線色１__水色__
  6
CONTINUOUS
 62
    4
 10
1046.4435579251995
 20
829.1552237658658
 40
1.2083333333333179
 50
127.52351320610693
 51
52.47648680188081
  0
ARC
  8
_0-1_線色１__水色__
  6
CONTINUOUS
 62
    4
 10
1044.9715977807227
 20
831.07189043246592
 40
1.2083333333333581
 50
307.52351320333912
 51
232.47648680464988
  0
ARC
  8
_0-1_線色１__水色__
  6
CONTINUOUS
 62
    4
 10
1095.0182426883407
 20
831.07189043410756
 40
1.2083333333333581
 50
307.52351320333912
 51
232.47648680464988
  0
ARC
  8
_0-1_線色１__水色__
  6
CONTINUOUS
 62
    4
 10
1096.4902028328152
 20
829.15522376750744
 40
1.2083333333333179
 50
127.52351320610693
 51
52.47648680188081
  0
ARC
  8
_0-1_線色１__水色__
  6
CONTINUOUS
 62
    4
 10
1092.0743223996578
 20
831.07189043390292
 40
1.2083333333333581
 50
307.52351320333912
 51
232.47648680464988
  0
ARC
  8
_0-1_線色１__水色__
  6
CONTINUOUS
 62
    4
 10
1093.5462825441323
 20
829.1552237673028
 40
1.2083333333333179
 50
127.52351320610693
 51
52.47648680188081
  0
ARC
  8
_0-1_線色１__水色__
  6
CONTINUOUS
 62
    4
 10
1089.1304021109727
 20
831.07189043369829
 40
1.2083333333333581
 50
307.52351320333912
 51
232.47648680464988
  0
ARC
  8
_0-1_線色１__水色__
  6
CONTINUOUS
 62
    4
 10
1090.6023622554494
 20
829.15522376709816
 40
1.2083333333333179
 50
127.52351320610693
 51
52.47648680188081
  0
ARC
  8
_0-1_線色１__水色__
  6
CONTINUOUS
 62
    4
 10
1086.1864818222898
 20
831.07189043349138
 40
1.2083333333333581
 50
307.52351320333912
 51
232.47648680464988
  0
ARC
  8
_0-1_線色１__水色__
  6
CONTINUOUS
 62
    4
 10
1087.6584419667665
 20
829.15522376689125
 40
1.2083333333333179
 50
127.52351320610693
 51
52.47648680188081
  0
ARC
  8
_0-1_線色１__水色__
  6
CONTINUOUS
 62
    4
 10
1083.2425615336069
 20
831.07189043328674
 40
1.2083333333333581
 50
307.52351320333912
 51
232.47648680464988
  0
ARC
  8
_0-1_線色１__水色__
  6
CONTINUOUS
 62
    4
 10
1084.7145216780814
 20
829.15522376668662
 40
1.2083333333333179
 50
127.52351320610693
 51
52.47648680188081
  0
ARC
  8
_0-1_線色１__水色__
  6
CONTINUOUS
 62
    4
 10
1080.2986412449241
 20
831.0718904330821
 40
1.2083333333333581
 50
307.52351320333912
 51
232.47648680464988
  0
ARC
  8
_0-1_線色１__水色__
  6
CONTINUOUS
 62
    4
 10
1081.7706013893985
 20
829.15522376648198
 40
1.2083333333333179
 50
127.52351320610693
 51
52.47648680188081
  0
ARC
  8
_0-1_線色１__水色__
  6
CONTINUOUS
 62
    4
 10
1074.410800667556
 20
831.07189043267056
 40
1.2083333333333581
 50
307.52351320333912
 51
232.47648680464988
  0
ARC
  8
_0-1_線色１__水色__
  6
CONTINUOUS
 62
    4
 10
1077.3547209562412
 20
831.07189043287747
 40
1.2083333333333581
 50
307.52351320333912
 51
232.47648680464988
  0
ARC
  8
_0-1_線色１__水色__
  6
CONTINUOUS
 62
    4
 10
1075.8827608120328
 20
829.15522376607043
 40
1.2083333333333179
 50
127.52351320610693
 51
52.47648680188081
  0
ARC
  8
_0-1_線色１__水色__
  6
CONTINUOUS
 62
    4
 10
1078.8266811007156
 20
829.15522376627735
 40
1.2083333333333179
 50
127.52351320610693
 51
52.47648680188081
  0
ARC
  8
_0-1_線色１__水色__
  6
CONTINUOUS
 62
    4
 10
1072.9388405233476
 20
829.1552237658658
 40
1.2083333333333179
 50
127.52351320610693
 51
52.47648680188081
  0
ARC
  8
_0-1_線色１__水色__
  6
CONTINUOUS
 62
    4
 10
1071.4668803788732
 20
831.07189043246592
 40
1.2083333333333581
 50
307.52351320333912
 51
232.47648680464988
  0
ARC
  8
_0-1_線色１__水色__
  6
CONTINUOUS
 62
    4
 10
1112.6817644204402
 20
831.07189043410756
 40
1.2083333333333581
 50
307.52351320333912
 51
232.47648680464988
  0
ARC
  8
_0-1_線色１__水色__
  6
CONTINUOUS
 62
    4
 10
1114.153724564917
 20
829.15522376750744
 40
1.2083333333333179
 50
127.52351320610693
 51
52.47648680188081
  0
ARC
  8
_0-1_線色１__水色__
  6
CONTINUOUS
 62
    4
 10
1109.7378441317574
 20
831.07189043390292
 40
1.2083333333333581
 50
307.52351320333912
 51
232.47648680464988
  0
ARC
  8
_0-1_線色１__水色__
  6
CONTINUOUS
 62
    4
 10
1111.2098042762318
 20
829.1552237673028
 40
1.2083333333333179
 50
127.52351320610693
 51
52.47648680188081
  0
ARC
  8
_0-1_線色１__水色__
  6
CONTINUOUS
 62
    4
 10
1106.7939238430745
 20
831.07189043369829
 40
1.2083333333333581
 50
307.52351320333912
 51
232.47648680464988
  0
ARC
  8
_0-1_線色１__水色__
  6
CONTINUOUS
 62
    4
 10
1108.2658839875489
 20
829.15522376709816
 40
1.2083333333333179
 50
127.52351320610693
 51
52.47648680188081
  0
ARC
  8
_0-1_線色１__水色__
  6
CONTINUOUS
 62
    4
 10
1103.8500035543893
 20
831.07189043349138
 40
1.2083333333333581
 50
307.52351320333912
 51
232.47648680464988
  0
ARC
  8
_0-1_線色１__水色__
  6
CONTINUOUS
 62
    4
 10
1105.3219636988661
 20
829.15522376689125
 40
1.2083333333333179
 50
127.52351320610693
 51
52.47648680188081
  0
ARC
  8
_0-1_線色１__水色__
  6
CONTINUOUS
 62
    4
 10
1100.9060832657065
 20
831.07189043328674
 40
1.2083333333333581
 50
307.52351320333912
 51
232.47648680464988
  0
ARC
  8
_0-1_線色１__水色__
  6
CONTINUOUS
 62
    4
 10
1102.3780434101809
 20
829.15522376668662
 40
1.2083333333333179
 50
127.52351320610693
 51
52.47648680188081
  0
ARC
  8
_0-1_線色１__水色__
  6
CONTINUOUS
 62
    4
 10
1097.9621629770236
 20
831.0718904330821
 40
1.2083333333333581
 50
307.52351320333912
 51
232.47648680464988
  0
ARC
  8
_0-1_線色１__水色__
  6
CONTINUOUS
 62
    4
 10
1099.434123121498
 20
829.15522376648198
 40
1.2083333333333179
 50
127.52351320610693
 51
52.47648680188081
  0
ARC
  8
_0-1_線色１__水色__
  6
CONTINUOUS
 62
    4
 10
1130.3452861525398
 20
831.07189043349138
 40
1.2083333333333581
 50
307.52351320333912
 51
232.47648680464988
  0
ARC
  8
_0-1_線色１__水色__
  6
CONTINUOUS
 62
    4
 10
1131.8172462970165
 20
829.15522376689125
 40
1.2083333333333179
 50
127.52351320610693
 51
52.47648680188081
  0
ARC
  8
_0-1_線色１__水色__
  6
CONTINUOUS
 62
    4
 10
1127.4013658638569
 20
831.07189043328674
 40
1.2083333333333581
 50
307.52351320333912
 51
232.47648680464988
  0
ARC
  8
_0-1_線色１__水色__
  6
CONTINUOUS
 62
    4
 10
1128.8733260083336
 20
829.15522376668662
 40
1.2083333333333179
 50
127.52351320610693
 51
52.47648680188081
  0
ARC
  8
_0-1_線色１__水色__
  6
CONTINUOUS
 62
    4
 10
1124.457445575174
 20
831.0718904330821
 40
1.2083333333333581
 50
307.52351320333912
 51
232.47648680464988
  0
ARC
  8
_0-1_線色１__水色__
  6
CONTINUOUS
 62
    4
 10
1125.9294057196485
 20
829.15522376648198
 40
1.2083333333333179
 50
127.52351320610693
 51
52.47648680188081
  0
ARC
  8
_0-1_線色１__水色__
  6
CONTINUOUS
 62
    4
 10
1118.569604997806
 20
831.07189043267056
 40
1.2083333333333581
 50
307.52351320333912
 51
232.47648680464988
  0
ARC
  8
_0-1_線色１__水色__
  6
CONTINUOUS
 62
    4
 10
1121.5135252864911
 20
831.07189043287747
 40
1.2083333333333581
 50
307.52351320333912
 51
232.47648680464988
  0
ARC
  8
_0-1_線色１__水色__
  6
CONTINUOUS
 62
    4
 10
1120.0415651422827
 20
829.15522376607043
 40
1.2083333333333179
 50
127.52351320610693
 51
52.47648680188081
  0
ARC
  8
_0-1_線色１__水色__
  6
CONTINUOUS
 62
    4
 10
1122.9854854309656
 20
829.15522376627735
 40
1.2083333333333179
 50
127.52351320610693
 51
52.47648680188081
  0
ARC
  8
_0-1_線色１__水色__
  6
CONTINUOUS
 62
    4
 10
1117.0976448535998
 20
829.1552237658658
 40
1.2083333333333179
 50
127.52351320610693
 51
52.47648680188081
  0
ARC
  8
_0-1_線色１__水色__
  6
CONTINUOUS
 62
    4
 10
1115.6256847091231
 20
831.07189043246592
 40
1.2083333333333581
 50
307.52351320333912
 51
232.47648680464988
  0
ARC
  8
_0-1_線色１__水色__
  6
CONTINUOUS
 62
    4
 10
927.21478623341227
 20
831.07189043285928
 40
1.2083333333333581
 50
307.52351320333912
 51
232.47648680464988
  0
ARC
  8
_0-1_線色１__水色__
  6
CONTINUOUS
 62
    4
 10
928.68674637788672
 20
829.15522376625916
 40
1.2083333333333179
 50
127.52351320610693
 51
52.47648680188081
  0
ARC
  8
_0-1_線色１__水色__
  6
CONTINUOUS
 62
    4
 10
924.27086594472939
 20
831.07189043265237
 40
1.2083333333333581
 50
307.52351320333912
 51
232.47648680464988
  0
ARC
  8
_0-1_線色１__水色__
  6
CONTINUOUS
 62
    4
 10
925.74282608920385
 20
829.15522376605452
 40
1.2083333333333179
 50
127.52351320610693
 51
52.47648680188081
  0
ARC
  8
_0-1_線色１__水色__
  6
CONTINUOUS
 62
    4
 10
921.32694565604652
 20
831.07189043244773
 40
1.2083333333333581
 50
307.52351320333912
 51
232.47648680464988
  0
ARC
  8
_0-1_線色１__水色__
  6
CONTINUOUS
 62
    4
 10
922.79890580052097
 20
829.15522376584761
 40
1.2083333333333179
 50
127.52351320610693
 51
52.47648680188081
  0
ARC
  8
_0-1_線色１__水色__
  6
CONTINUOUS
 62
    4
 10
918.38302536736137
 20
831.07189043224309
 40
1.2083333333333581
 50
307.52351320333912
 51
232.47648680464988
  0
ARC
  8
_0-1_線色１__水色__
  6
CONTINUOUS
 62
    4
 10
919.85498551183809
 20
829.15522376564297
 40
1.2083333333333179
 50
127.52351320610693
 51
52.47648680188081
  0
ARC
  8
_0-1_線色１__水色__
  6
CONTINUOUS
 62
    4
 10
915.43910507867849
 20
831.07189043203846
 40
1.2083333333333581
 50
307.52351320333912
 51
232.47648680464988
  0
ARC
  8
_0-1_線色１__水色__
  6
CONTINUOUS
 62
    4
 10
916.91106522315295
 20
829.15522376543834
 40
1.2083333333333179
 50
127.52351320610693
 51
52.47648680188081
  0
ARC
  8
_0-1_線色１__水色__
  6
CONTINUOUS
 62
    4
 10
912.49518478999562
 20
831.07189043183155
 40
1.2083333333333581
 50
307.52351320333912
 51
232.47648680464988
  0
ARC
  8
_0-1_線色１__水色__
  6
CONTINUOUS
 62
    4
 10
913.96714493447007
 20
829.1552237652337
 40
1.2083333333333179
 50
127.52351320610693
 51
52.47648680188081
  0
ARC
  8
_0-1_線色１__水色__
  6
CONTINUOUS
 62
    4
 10
906.60734421262987
 20
831.07189043142228
 40
1.2083333333333581
 50
307.52351320333912
 51
232.47648680464988
  0
ARC
  8
_0-1_線色１__水色__
  6
CONTINUOUS
 62
    4
 10
909.55126450131274
 20
831.07189043162691
 40
1.2083333333333581
 50
307.52351320333912
 51
232.47648680464988
  0
ARC
  8
_0-1_線色１__水色__
  6
CONTINUOUS
 62
    4
 10
908.07930435710432
 20
829.15522376482215
 40
1.2083333333333179
 50
127.52351320610693
 51
52.47648680188081
  0
ARC
  8
_0-1_線色１__水色__
  6
CONTINUOUS
 62
    4
 10
911.0232246457872
 20
829.15522376502679
 40
1.2083333333333179
 50
127.52351320610693
 51
52.47648680188081
  0
ARC
  8
_0-1_線色１__水色__
  6
CONTINUOUS
 62
    4
 10
905.13538406842144
 20
829.15522376461752
 40
1.2083333333333179
 50
127.52351320610693
 51
52.47648680188081
  0
ARC
  8
_0-1_線色１__水色__
  6
CONTINUOUS
 62
    4
 10
903.66342392394472
 20
831.07189043121764
 40
1.2083333333333581
 50
307.52351320333912
 51
232.47648680464988
  0
ARC
  8
_0-1_線色１__水色__
  6
CONTINUOUS
 62
    4
 10
953.71006883156269
 20
831.07189043285928
 40
1.2083333333333581
 50
307.52351320333912
 51
232.47648680464988
  0
ARC
  8
_0-1_線色１__水色__
  6
CONTINUOUS
 62
    4
 10
955.18202897603715
 20
829.15522376625916
 40
1.2083333333333179
 50
127.52351320610693
 51
52.47648680188081
  0
ARC
  8
_0-1_線色１__水色__
  6
CONTINUOUS
 62
    4
 10
950.76614854287982
 20
831.07189043265237
 40
1.2083333333333581
 50
307.52351320333912
 51
232.47648680464988
  0
ARC
  8
_0-1_線色１__水色__
  6
CONTINUOUS
 62
    4
 10
952.23810868735427
 20
829.15522376605452
 40
1.2083333333333179
 50
127.52351320610693
 51
52.47648680188081
  0
ARC
  8
_0-1_線色１__水色__
  6
CONTINUOUS
 62
    4
 10
947.82222825419467
 20
831.07189043244773
 40
1.2083333333333581
 50
307.52351320333912
 51
232.47648680464988
  0
ARC
  8
_0-1_線色１__水色__
  6
CONTINUOUS
 62
    4
 10
949.29418839867139
 20
829.15522376584761
 40
1.2083333333333179
 50
127.52351320610693
 51
52.47648680188081
  0
ARC
  8
_0-1_線色１__水色__
  6
CONTINUOUS
 62
    4
 10
944.87830796551179
 20
831.07189043224309
 40
1.2083333333333581
 50
307.52351320333912
 51
232.47648680464988
  0
ARC
  8
_0-1_線色１__水色__
  6
CONTINUOUS
 62
    4
 10
946.35026810998852
 20
829.15522376564297
 40
1.2083333333333179
 50
127.52351320610693
 51
52.47648680188081
  0
ARC
  8
_0-1_線色１__水色__
  6
CONTINUOUS
 62
    4
 10
941.93438767682892
 20
831.07189043203846
 40
1.2083333333333581
 50
307.52351320333912
 51
232.47648680464988
  0
ARC
  8
_0-1_線色１__水色__
  6
CONTINUOUS
 62
    4
 10
943.40634782130564
 20
829.15522376543834
 40
1.2083333333333179
 50
127.52351320610693
 51
52.47648680188081
  0
ARC
  8
_0-1_線色１__水色__
  6
CONTINUOUS
 62
    4
 10
938.99046738814604
 20
831.07189043183155
 40
1.2083333333333581
 50
307.52351320333912
 51
232.47648680464988
  0
ARC
  8
_0-1_線色１__水色__
  6
CONTINUOUS
 62
    4
 10
940.4624275326205
 20
829.1552237652337
 40
1.2083333333333179
 50
127.52351320610693
 51
52.47648680188081
  0
ARC
  8
_0-1_線色１__水色__
  6
CONTINUOUS
 62
    4
 10
933.10262681077802
 20
831.07189043142228
 40
1.2083333333333581
 50
307.52351320333912
 51
232.47648680464988
  0
ARC
  8
_0-1_線色１__水色__
  6
CONTINUOUS
 62
    4
 10
936.04654709946317
 20
831.07189043162691
 40
1.2083333333333581
 50
307.52351320333912
 51
232.47648680464988
  0
ARC
  8
_0-1_線色１__水色__
  6
CONTINUOUS
 62
    4
 10
934.57458695525474
 20
829.15522376482215
 40
1.2083333333333179
 50
127.52351320610693
 51
52.47648680188081
  0
ARC
  8
_0-1_線色１__水色__
  6
CONTINUOUS
 62
    4
 10
937.51850724393762
 20
829.15522376502679
 40
1.2083333333333179
 50
127.52351320610693
 51
52.47648680188081
  0
ARC
  8
_0-1_線色１__水色__
  6
CONTINUOUS
 62
    4
 10
931.63066666657187
 20
829.15522376461752
 40
1.2083333333333179
 50
127.52351320610693
 51
52.47648680188081
  0
ARC
  8
_0-1_線色１__水色__
  6
CONTINUOUS
 62
    4
 10
930.15870652209514
 20
831.07189043121764
 40
1.2083333333333581
 50
307.52351320333912
 51
232.47648680464988
  0
ARC
  8
_0-1_線色１__水色__
  6
CONTINUOUS
 62
    4
 10
980.20535142971312
 20
831.07189043285928
 40
1.2083333333333581
 50
307.52351320333912
 51
232.47648680464988
  0
ARC
  8
_0-1_線色１__水色__
  6
CONTINUOUS
 62
    4
 10
981.67731157418757
 20
829.15522376625916
 40
1.2083333333333179
 50
127.52351320610693
 51
52.47648680188081
  0
ARC
  8
_0-1_線色１__水色__
  6
CONTINUOUS
 62
    4
 10
977.26143114103024
 20
831.07189043265237
 40
1.2083333333333581
 50
307.52351320333912
 51
232.47648680464988
  0
ARC
  8
_0-1_線色１__水色__
  6
CONTINUOUS
 62
    4
 10
978.73339128550469
 20
829.15522376605452
 40
1.2083333333333179
 50
127.52351320610693
 51
52.47648680188081
  0
ARC
  8
_0-1_線色１__水色__
  6
CONTINUOUS
 62
    4
 10
974.31751085234737
 20
831.07189043244773
 40
1.2083333333333581
 50
307.52351320333912
 51
232.47648680464988
  0
ARC
  8
_0-1_線色１__水色__
  6
CONTINUOUS
 62
    4
 10
975.78947099682182
 20
829.15522376584761
 40
1.2083333333333179
 50
127.52351320610693
 51
52.47648680188081
  0
ARC
  8
_0-1_線色１__水色__
  6
CONTINUOUS
 62
    4
 10
971.37359056366222
 20
831.07189043224309
 40
1.2083333333333581
 50
307.52351320333912
 51
232.47648680464988
  0
ARC
  8
_0-1_線色１__水色__
  6
CONTINUOUS
 62
    4
 10
972.84555070813894
 20
829.15522376564297
 40
1.2083333333333179
 50
127.52351320610693
 51
52.47648680188081
  0
ARC
  8
_0-1_線色１__水色__
  6
CONTINUOUS
 62
    4
 10
968.42967027497934
 20
831.07189043203846
 40
1.2083333333333581
 50
307.52351320333912
 51
232.47648680464988
  0
ARC
  8
_0-1_線色１__水色__
  6
CONTINUOUS
 62
    4
 10
969.9016304194538
 20
829.15522376543834
 40
1.2083333333333179
 50
127.52351320610693
 51
52.47648680188081
  0
ARC
  8
_0-1_線色１__水色__
  6
CONTINUOUS
 62
    4
 10
965.48574998629647
 20
831.07189043183155
 40
1.2083333333333581
 50
307.52351320333912
 51
232.47648680464988
  0
ARC
  8
_0-1_線色１__水色__
  6
CONTINUOUS
 62
    4
 10
966.95771013077092
 20
829.1552237652337
 40
1.2083333333333179
 50
127.52351320610693
 51
52.47648680188081
  0
ARC
  8
_0-1_線色１__水色__
  6
CONTINUOUS
 62
    4
 10
959.59790940892844
 20
831.07189043142228
 40
1.2083333333333581
 50
307.52351320333912
 51
232.47648680464988
  0
ARC
  8
_0-1_線色１__水色__
  6
CONTINUOUS
 62
    4
 10
962.54182969761359
 20
831.07189043162691
 40
1.2083333333333581
 50
307.52351320333912
 51
232.47648680464988
  0
ARC
  8
_0-1_線色１__水色__
  6
CONTINUOUS
 62
    4
 10
961.06986955340517
 20
829.15522376482215
 40
1.2083333333333179
 50
127.52351320610693
 51
52.47648680188081
  0
ARC
  8
_0-1_線色１__水色__
  6
CONTINUOUS
 62
    4
 10
964.01378984208804
 20
829.15522376502679
 40
1.2083333333333179
 50
127.52351320610693
 51
52.47648680188081
  0
ARC
  8
_0-1_線色１__水色__
  6
CONTINUOUS
 62
    4
 10
958.12594926472229
 20
829.15522376461752
 40
1.2083333333333179
 50
127.52351320610693
 51
52.47648680188081
  0
ARC
  8
_0-1_線色１__水色__
  6
CONTINUOUS
 62
    4
 10
956.65398912024557
 20
831.07189043121764
 40
1.2083333333333581
 50
307.52351320333912
 51
232.47648680464988
  0
ARC
  8
_0-1_線色１__水色__
  6
CONTINUOUS
 62
    4
 10
997.86887316181264
 20
831.07189043285928
 40
1.2083333333333581
 50
307.52351320333912
 51
232.47648680464988
  0
ARC
  8
_0-1_線色１__水色__
  6
CONTINUOUS
 62
    4
 10
999.3408333062871
 20
829.15522376625916
 40
1.2083333333333179
 50
127.52351320610693
 51
52.47648680188081
  0
ARC
  8
_0-1_線色１__水色__
  6
CONTINUOUS
 62
    4
 10
994.92495287312977
 20
831.07189043265237
 40
1.2083333333333581
 50
307.52351320333912
 51
232.47648680464988
  0
ARC
  8
_0-1_線色１__水色__
  6
CONTINUOUS
 62
    4
 10
996.39691301760422
 20
829.15522376605452
 40
1.2083333333333179
 50
127.52351320610693
 51
52.47648680188081
  0
ARC
  8
_0-1_線色１__水色__
  6
CONTINUOUS
 62
    4
 10
991.98103258444689
 20
831.07189043244773
 40
1.2083333333333581
 50
307.52351320333912
 51
232.47648680464988
  0
ARC
  8
_0-1_線色１__水色__
  6
CONTINUOUS
 62
    4
 10
993.45299272892134
 20
829.15522376584761
 40
1.2083333333333179
 50
127.52351320610693
 51
52.47648680188081
  0
ARC
  8
_0-1_線色１__水色__
  6
CONTINUOUS
 62
    4
 10
989.03711229576402
 20
831.07189043224309
 40
1.2083333333333581
 50
307.52351320333912
 51
232.47648680464988
  0
ARC
  8
_0-1_線色１__水色__
  6
CONTINUOUS
 62
    4
 10
990.50907244023847
 20
829.15522376564297
 40
1.2083333333333179
 50
127.52351320610693
 51
52.47648680188081
  0
ARC
  8
_0-1_線色１__水色__
  6
CONTINUOUS
 62
    4
 10
986.09319200707887
 20
831.07189043203846
 40
1.2083333333333581
 50
307.52351320333912
 51
232.47648680464988
  0
ARC
  8
_0-1_線色１__水色__
  6
CONTINUOUS
 62
    4
 10
987.56515215155559
 20
829.15522376543834
 40
1.2083333333333179
 50
127.52351320610693
 51
52.47648680188081
  0
ARC
  8
_0-1_線色１__水色__
  6
CONTINUOUS
 62
    4
 10
983.14927171839599
 20
831.07189043183155
 40
1.2083333333333581
 50
307.52351320333912
 51
232.47648680464988
  0
ARC
  8
_0-1_線色１__水色__
  6
CONTINUOUS
 62
    4
 10
984.62123186287045
 20
829.1552237652337
 40
1.2083333333333179
 50
127.52351320610693
 51
52.47648680188081
  0
ARC
  8
_0-1_線色１__水色__
  6
CONTINUOUS
 62
    4
 10
1015.5323948939122
 20
831.07189043224309
 40
1.2083333333333581
 50
307.52351320333912
 51
232.47648680464988
  0
ARC
  8
_0-1_線色１__水色__
  6
CONTINUOUS
 62
    4
 10
1017.0043550383889
 20
829.15522376564297
 40
1.2083333333333179
 50
127.52351320610693
 51
52.47648680188081
  0
ARC
  8
_0-1_線色１__水色__
  6
CONTINUOUS
 62
    4
 10
1012.5884746052293
 20
831.07189043203846
 40
1.2083333333333581
 50
307.52351320333912
 51
232.47648680464988
  0
ARC
  8
_0-1_線色１__水色__
  6
CONTINUOUS
 62
    4
 10
1014.0604347497037
 20
829.15522376543834
 40
1.2083333333333179
 50
127.52351320610693
 51
52.47648680188081
  0
ARC
  8
_0-1_線色１__水色__
  6
CONTINUOUS
 62
    4
 10
1009.6445543165464
 20
831.07189043183155
 40
1.2083333333333581
 50
307.52351320333912
 51
232.47648680464988
  0
ARC
  8
_0-1_線色１__水色__
  6
CONTINUOUS
 62
    4
 10
1011.1165144610209
 20
829.1552237652337
 40
1.2083333333333179
 50
127.52351320610693
 51
52.47648680188081
  0
ARC
  8
_0-1_線色１__水色__
  6
CONTINUOUS
 62
    4
 10
1003.7567137391807
 20
831.07189043142228
 40
1.2083333333333581
 50
307.52351320333912
 51
232.47648680464988
  0
ARC
  8
_0-1_線色１__水色__
  6
CONTINUOUS
 62
    4
 10
1006.7006340278635
 20
831.07189043162691
 40
1.2083333333333581
 50
307.52351320333912
 51
232.47648680464988
  0
ARC
  8
_0-1_線色１__水色__
  6
CONTINUOUS
 62
    4
 10
1005.2286738836551
 20
829.15522376482215
 40
1.2083333333333179
 50
127.52351320610693
 51
52.47648680188081
  0
ARC
  8
_0-1_線色１__水色__
  6
CONTINUOUS
 62
    4
 10
1008.172594172338
 20
829.15522376502679
 40
1.2083333333333179
 50
127.52351320610693
 51
52.47648680188081
  0
ARC
  8
_0-1_線色１__水色__
  6
CONTINUOUS
 62
    4
 10
1002.2847535949722
 20
829.15522376461752
 40
1.2083333333333179
 50
127.52351320610693
 51
52.47648680188081
  0
ARC
  8
_0-1_線色１__水色__
  6
CONTINUOUS
 62
    4
 10
1000.8127934504955
 20
831.07189043121764
 40
1.2083333333333581
 50
307.52351320333912
 51
232.47648680464988
  0
ARC
  8
_0-1_線色１__水色__
  6
CONTINUOUS
 62
    4
 10
865.39246017108553
 20
831.07189043160872
 40
1.2083333333333581
 50
307.52351320333912
 51
232.47648680464988
  0
ARC
  8
_0-1_線色１__水色__
  6
CONTINUOUS
 62
    4
 10
866.86442031555998
 20
829.15522376501087
 40
1.2083333333333179
 50
127.52351320610693
 51
52.47648680188081
  0
ARC
  8
_0-1_線色１__水色__
  6
CONTINUOUS
 62
    4
 10
862.44853988240266
 20
831.07189043140409
 40
1.2083333333333581
 50
307.52351320333912
 51
232.47648680464988
  0
ARC
  8
_0-1_線色１__水色__
  6
CONTINUOUS
 62
    4
 10
863.92050002687711
 20
829.15522376480396
 40
1.2083333333333179
 50
127.52351320610693
 51
52.47648680188081
  0
ARC
  8
_0-1_線色１__水色__
  6
CONTINUOUS
 62
    4
 10
883.05598190318506
 20
831.07189043160872
 40
1.2083333333333581
 50
307.52351320333912
 51
232.47648680464988
  0
ARC
  8
_0-1_線色１__水色__
  6
CONTINUOUS
 62
    4
 10
884.52794204766178
 20
829.15522376501087
 40
1.2083333333333179
 50
127.52351320610693
 51
52.47648680188081
  0
ARC
  8
_0-1_線色１__水色__
  6
CONTINUOUS
 62
    4
 10
880.11206161450218
 20
831.07189043140409
 40
1.2083333333333581
 50
307.52351320333912
 51
232.47648680464988
  0
ARC
  8
_0-1_線色１__水色__
  6
CONTINUOUS
 62
    4
 10
881.58402175897663
 20
829.15522376480396
 40
1.2083333333333179
 50
127.52351320610693
 51
52.47648680188081
  0
ARC
  8
_0-1_線色１__水色__
  6
CONTINUOUS
 62
    4
 10
877.16814132581931
 20
831.07189043119945
 40
1.2083333333333581
 50
307.52351320333912
 51
232.47648680464988
  0
ARC
  8
_0-1_線色１__水色__
  6
CONTINUOUS
 62
    4
 10
878.64010147029376
 20
829.15522376459933
 40
1.2083333333333179
 50
127.52351320610693
 51
52.47648680188081
  0
ARC
  8
_0-1_線色１__水色__
  6
CONTINUOUS
 62
    4
 10
874.22422103713416
 20
831.07189043099481
 40
1.2083333333333581
 50
307.52351320333912
 51
232.47648680464988
  0
ARC
  8
_0-1_線色１__水色__
  6
CONTINUOUS
 62
    4
 10
875.69618118161088
 20
829.15522376439469
 40
1.2083333333333179
 50
127.52351320610693
 51
52.47648680188081
  0
ARC
  8
_0-1_線色１__水色__
  6
CONTINUOUS
 62
    4
 10
871.28030074845128
 20
831.0718904307879
 40
1.2083333333333581
 50
307.52351320333912
 51
232.47648680464988
  0
ARC
  8
_0-1_線色１__水色__
  6
CONTINUOUS
 62
    4
 10
872.75226089292573
 20
829.15522376419005
 40
1.2083333333333179
 50
127.52351320610693
 51
52.47648680188081
  0
ARC
  8
_0-1_線色１__水色__
  6
CONTINUOUS
 62
    4
 10
868.33638045976841
 20
831.07189043058327
 40
1.2083333333333581
 50
307.52351320333912
 51
232.47648680464988
  0
ARC
  8
_0-1_線色１__水色__
  6
CONTINUOUS
 62
    4
 10
869.80834060424286
 20
829.15522376398314
 40
1.2083333333333179
 50
127.52351320610693
 51
52.47648680188081
  0
ARC
  8
_0-1_線色１__水色__
  6
CONTINUOUS
 62
    4
 10
900.71950363528458
 20
831.07189043099481
 40
1.2083333333333581
 50
307.52351320333912
 51
232.47648680464988
  0
ARC
  8
_0-1_線色１__水色__
  6
CONTINUOUS
 62
    4
 10
902.19146377976131
 20
829.15522376439469
 40
1.2083333333333179
 50
127.52351320610693
 51
52.47648680188081
  0
ARC
  8
_0-1_線色１__水色__
  6
CONTINUOUS
 62
    4
 10
897.77558334660171
 20
831.0718904307879
 40
1.2083333333333581
 50
307.52351320333912
 51
232.47648680464988
  0
ARC
  8
_0-1_線色１__水色__
  6
CONTINUOUS
 62
    4
 10
899.24754349107843
 20
829.15522376419005
 40
1.2083333333333179
 50
127.52351320610693
 51
52.47648680188081
  0
ARC
  8
_0-1_線色１__水色__
  6
CONTINUOUS
 62
    4
 10
894.83166305791883
 20
831.07189043058327
 40
1.2083333333333581
 50
307.52351320333912
 51
232.47648680464988
  0
ARC
  8
_0-1_線色１__水色__
  6
CONTINUOUS
 62
    4
 10
896.30362320239328
 20
829.15522376398314
 40
1.2083333333333179
 50
127.52351320610693
 51
52.47648680188081
  0
ARC
  8
_0-1_線色１__水色__
  6
CONTINUOUS
 62
    4
 10
888.94382248055081
 20
831.07189043017399
 40
1.2083333333333581
 50
307.52351320333912
 51
232.47648680464988
  0
ARC
  8
_0-1_線色１__水色__
  6
CONTINUOUS
 62
    4
 10
891.88774276923596
 20
831.07189043037863
 40
1.2083333333333581
 50
307.52351320333912
 51
232.47648680464988
  0
ARC
  8
_0-1_線色１__水色__
  6
CONTINUOUS
 62
    4
 10
890.41578262502753
 20
829.15522376357387
 40
1.2083333333333179
 50
127.52351320610693
 51
52.47648680188081
  0
ARC
  8
_0-1_線色１__水色__
  6
CONTINUOUS
 62
    4
 10
893.35970291371041
 20
829.15522376377851
 40
1.2083333333333179
 50
127.52351320610693
 51
52.47648680188081
  0
ARC
  8
_0-1_線色１__水色__
  6
CONTINUOUS
 62
    4
 10
887.47186233634466
 20
829.15522376336924
 40
1.2083333333333179
 50
127.52351320610693
 51
52.47648680188081
  0
ARC
  8
_0-1_線色１__水色__
  6
CONTINUOUS
 62
    4
 10
885.99990219186793
 20
831.07189042996708
 40
1.2083333333333581
 50
307.52351320333912
 51
232.47648680464988
  0
ARC
  8
_0-1_線色１__水色__
  6
CONTINUOUS
 62
    4
 10
1286.3730614527572
 20
831.07189043513301
 40
1.2083333333333581
 50
307.52351320333912
 51
232.47648680464988
  0
ARC
  8
_0-1_線色１__水色__
  6
CONTINUOUS
 62
    4
 10
1287.8450215972339
 20
829.15522376853289
 40
1.2083333333333179
 50
127.52351320610693
 51
270
  0
ARC
  8
_0-1_線色１__水色__
  6
CONTINUOUS
 62
    4
 10
859.50461959374252
 20
831.07189043140409
 40
1.2083333333333581
 50
310.11487746991298
 51
49.885122530086988
  0
ARC
  8
_0-1_線色１__水色__
  6
CONTINUOUS
 62
    4
 10
860.97657973821697
 20
829.15522376480396
 40
1.2083333333333179
 50
234.9807454390741
 51
52.476486801880853
  0
ARC
  8
_0-1_線色１__水色__
  6
CONTINUOUS
 62
    4
 10
861.82484228035378
 20
824.66963680757601
 40
1.2083333333333581
 50
37.523513195350134
 51
322.47648679666082
  0
ARC
  8
_0-1_線色１__水色__
  6
CONTINUOUS
 62
    4
 10
863.7415089469539
 20
823.19767666310042
 40
1.2083333333333177
 50
217.52351319811916
 51
142.47648679389312
  0
ARC
  8
_0-1_線色１__水色__
  6
CONTINUOUS
 62
    4
 10
863.74150894715854
 20
826.14159695178387
 40
1.2083333333333177
 50
217.52351319811916
 51
142.47648679389312
  0
ARC
  8
_0-1_線色１__水色__
  6
CONTINUOUS
 62
    4
 10
861.82484228055955
 20
801.11827449810903
 40
1.2083333333333581
 50
37.523513195350134
 51
322.47648679666082
  0
ARC
  8
_0-1_線色１__水色__
  6
CONTINUOUS
 62
    4
 10
863.74150894715854
 20
799.64631435363344
 40
1.2083333333333177
 50
217.52351319811916
 51
142.47648679389312
  0
ARC
  8
_0-1_線色１__水色__
  6
CONTINUOUS
 62
    4
 10
861.82484228076419
 20
804.06219478679191
 40
1.2083333333333581
 50
37.523513195350134
 51
322.47648679666082
  0
ARC
  8
_0-1_線色１__水色__
  6
CONTINUOUS
 62
    4
 10
863.74150894736431
 20
802.59023464231689
 40
1.2083333333333177
 50
217.52351319811916
 51
142.47648679389312
  0
ARC
  8
_0-1_線色１__水色__
  6
CONTINUOUS
 62
    4
 10
861.82484228096996
 20
807.00611507547535
 40
1.2083333333333581
 50
37.523513195350134
 51
322.47648679666082
  0
ARC
  8
_0-1_線色１__水色__
  6
CONTINUOUS
 62
    4
 10
863.74150894756895
 20
805.53415493100033
 40
1.2083333333333177
 50
217.52351319811916
 51
142.47648679389312
  0
ARC
  8
_0-1_線色１__水色__
  6
CONTINUOUS
 62
    4
 10
861.8248422811746
 20
809.95003536415879
 40
1.2083333333333581
 50
37.523513195350134
 51
322.47648679666082
  0
ARC
  8
_0-1_線色１__水色__
  6
CONTINUOUS
 62
    4
 10
863.74150894777472
 20
808.47807521968377
 40
1.2083333333333177
 50
217.52351319811916
 51
142.47648679389312
  0
ARC
  8
_0-1_線色１__水色__
  6
CONTINUOUS
 62
    4
 10
861.82484228138037
 20
812.89395565284224
 40
1.2083333333333581
 50
37.523513195350134
 51
322.47648679666082
  0
ARC
  8
_0-1_線色１__水色__
  6
CONTINUOUS
 62
    4
 10
863.74150894797936
 20
811.42199550836722
 40
1.2083333333333177
 50
217.52351319811916
 51
142.47648679389312
  0
ARC
  8
_0-1_線色１__水色__
  6
CONTINUOUS
 62
    4
 10
861.82484228179078
 20
818.78179623020912
 40
1.2083333333333581
 50
37.523513195350134
 51
322.47648679666082
  0
ARC
  8
_0-1_線色１__水色__
  6
CONTINUOUS
 62
    4
 10
861.82484228158501
 20
815.83787594152568
 40
1.2083333333333581
 50
37.523513195350134
 51
322.47648679666082
  0
ARC
  8
_0-1_線色１__水色__
  6
CONTINUOUS
 62
    4
 10
863.74150894838976
 20
817.30983608573354
 40
1.2083333333333177
 50
217.52351319811916
 51
142.47648679389312
  0
ARC
  8
_0-1_線色１__水色__
  6
CONTINUOUS
 62
    4
 10
863.74150894818513
 20
814.36591579705009
 40
1.2083333333333177
 50
217.52351319811916
 51
142.47648679389312
  0
ARC
  8
_0-1_線色１__水色__
  6
CONTINUOUS
 62
    4
 10
863.74150894859554
 20
820.25375637441698
 40
1.2083333333333177
 50
217.52351319811916
 51
142.47648679389312
  0
ARC
  8
_0-1_線色１__水色__
  6
CONTINUOUS
 62
    4
 10
861.82484228199542
 20
821.72571651889257
 40
1.2083333333333581
 50
37.523513195350134
 51
322.47648679666082
  0
ARC
  8
_0-1_線色１__水色__
  6
CONTINUOUS
 62
    4
 10
861.82484228055955
 20
827.61355709625889
 40
1.2083333333333581
 50
180
 51
322.47648679666082
  0
LINE
  8
ADD_LINE
  6
DOT
 62
    4
 10
934.08317561945296
 20
752.94534122123252
 11
934.08317561945296
 21
842.56206096385029
  0
LINE
  8
_0-7_ビス
  6
CONTINUOUS
 62
    7
 10
940.08317561945319
 20
835.68009049856812
 11
940.08317561945319
 21
836.06470588318473
  0
LINE
  8
_0-7_ビス
  6
DASHED3
 62
    7
 10
935.55064373570758
 20
833.51533635235739
 11
936.63319145560195
 21
836.06470588318473
  0
LINE
  8
_0-7_ビス
  6
CONTINUOUS
 62
    7
 10
928.08317561945273
 20
835.68009049856812
 11
928.08317561945273
 21
836.06470588318473
  0
LINE
  8
_0-7_ビス
  6
DASHED3
 62
    7
 10
932.61570750319834
 20
833.51533635235739
 11
931.53315978330397
 21
836.06470588318473
  0
LINE
  8
_0-7_ビス
  6
CONTINUOUS
 62
    7
 10
940.08317561945319
 20
835.68009049856812
 11
928.08317561945273
 21
835.68009049856812
  0
LINE
  8
_0-7_ビス
  6
CONTINUOUS
 62
    7
 10
940.08317561945319
 20
836.06470588318473
 11
928.08317561945273
 21
836.06470588318473
  0
ARC
  8
_0-7_ビス
  6
DASHED3
 62
    7
 10
934.08317561945296
 20
834.62587945062353
 40
1.8403175392666382
 50
217.11750793457031
 51
322.88247680664062
  0
LINE
  8
_0-7_ビス
  6
CONTINUOUS
 62
    7
 10
938.16896205707963
 20
833.7658769361957
 11
940.08317561945205
 21
835.68009049856812
  0
ARC
  8
_0-7_ビス
  6
CONTINUOUS
 62
    7
 10
939.5831756194525
 20
832.35166337382282
 40
2
 50
135.00000000000153
 51
180.00000000000003
  0
LINE
  8
_0-7_ビス
  6
CONTINUOUS
 62
    7
 10
929.99738918182629
 20
833.7658769361957
 11
928.08317561945273
 21
835.68009049856812
  0
ARC
  8
_0-7_ビス
  6
CONTINUOUS
 62
    7
 10
928.58317561945228
 20
832.35166337382282
 40
2
 50
0
 51
44.999999999998501
  0
LINE
  8
_0-7_ビス
  6
CONTINUOUS
 62
    7
 10
937.58317561945205
 20
832.06470588318382
 11
930.58317561945273
 21
832.06470588318382
  0
LINE
  8
_0-7_ビス
  6
CONTINUOUS
 62
    7
 10
930.58317561945273
 20
763.0854318253472
 11
934.08317561945296
 21
761.06470588318473
  0
LINE
  8
_0-7_ビス
  6
CONTINUOUS
 62
    7
 10
930.58317561945273
 20
832.35166337382282
 11
930.58317561945273
 21
763.0854318253472
  0
LINE
  8
_0-7_ビス
  6
CONTINUOUS
 62
    7
 10
937.58317561945205
 20
766.56470588318427
 11
930.58317561945273
 21
766.56470588318427
  0
LINE
  8
_0-7_ビス
  6
CONTINUOUS
 62
    7
 10
937.58317561945205
 20
763.08543182534834
 11
934.08317561945296
 21
761.06470588318473
  0
LINE
  8
_0-7_ビス
  6
CONTINUOUS
 62
    7
 10
937.58317561945205
 20
832.35166337382282
 11
937.58317561945205
 21
763.08543182534834
  0
LINE
  8
_0-7_ビス
  6
CONTINUOUS
 62
    7
 10
937.58317561945205
 20
821.06470588318473
 11
930.58317561945273
 21
821.06470588318473
  0
LINE
  8
_0-7_ビス
  6
CONTINUOUS
 62
    4
 10
930.58317561945273
 20
819.86490252379042
 11
935.06075606139348
 21
821.06470588318473
  0
LINE
  8
_0-7_ビス
  6
CONTINUOUS
 62
    4
 10
930.58317561945273
 20
807.55868199441295
 11
937.58317561945205
 21
809.4343877745024
  0
LINE
  8
_0-7_ビス
  6
CONTINUOUS
 62
    4
 10
930.58317561945273
 20
809.5586819944134
 11
937.58317561945205
 21
811.43438777450172
  0
LINE
  8
_0-7_ビス
  6
CONTINUOUS
 62
    4
 10
930.58317561945273
 20
811.55868199441386
 11
937.58317561945205
 21
813.43438777450103
  0
LINE
  8
_0-7_ビス
  6
CONTINUOUS
 62
    4
 10
930.58317561945273
 20
813.55868199441318
 11
937.58317561945205
 21
815.43438777450149
  0
LINE
  8
_0-7_ビス
  6
CONTINUOUS
 62
    4
 10
930.58317561945273
 20
815.5586819944125
 11
937.58317561945205
 21
817.43438777450194
  0
LINE
  8
_0-7_ビス
  6
CONTINUOUS
 62
    4
 10
930.58317561945273
 20
817.55868199441295
 11
937.58317561945205
 21
819.4343877745024
  0
LINE
  8
_0-7_ビス
  6
CONTINUOUS
 62
    4
 10
930.58317561945273
 20
795.25246146503662
 11
937.58317561945205
 21
797.12816724512493
  0
LINE
  8
_0-7_ビス
  6
CONTINUOUS
 62
    4
 10
930.58317561945273
 20
797.25246146503707
 11
937.58317561945205
 21
799.12816724512425
  0
LINE
  8
_0-7_ビス
  6
CONTINUOUS
 62
    4
 10
930.58317561945273
 20
799.25246146503639
 11
937.58317561945205
 21
801.1281672451247
  0
LINE
  8
_0-7_ビス
  6
CONTINUOUS
 62
    4
 10
930.58317561945273
 20
801.25246146503571
 11
937.58317561945205
 21
803.12816724512516
  0
LINE
  8
_0-7_ビス
  6
CONTINUOUS
 62
    4
 10
930.58317561945273
 20
803.25246146503616
 11
937.58317561945205
 21
805.12816724512561
  0
LINE
  8
_0-7_ビス
  6
CONTINUOUS
 62
    4
 10
930.58317561945273
 20
805.25246146503662
 11
937.58317561945205
 21
807.12816724512606
  0
LINE
  8
_0-7_ビス
  6
CONTINUOUS
 62
    4
 10
930.58317561945273
 20
782.94624093566028
 11
937.58317561945205
 21
784.82194671574746
  0
LINE
  8
_0-7_ビス
  6
CONTINUOUS
 62
    4
 10
930.58317561945273
 20
784.9462409356596
 11
937.58317561945205
 21
786.82194671574791
  0
LINE
  8
_0-7_ビス
  6
CONTINUOUS
 62
    4
 10
930.58317561945273
 20
786.94624093565892
 11
937.58317561945205
 21
788.82194671574837
  0
LINE
  8
_0-7_ビス
  6
CONTINUOUS
 62
    4
 10
930.58317561945273
 20
788.94624093565938
 11
937.58317561945205
 21
790.82194671574882
  0
LINE
  8
_0-7_ビス
  6
CONTINUOUS
 62
    4
 10
930.58317561945273
 20
790.94624093565983
 11
937.58317561945205
 21
792.82194671574814
  0
LINE
  8
_0-7_ビス
  6
CONTINUOUS
 62
    4
 10
930.58317561945273
 20
792.94624093566028
 11
937.58317561945205
 21
794.8219467157486
  0
LINE
  8
_0-7_ビス
  6
CONTINUOUS
 62
    4
 10
930.58317561945273
 20
770.64002040628282
 11
937.58317561945205
 21
772.51572618637113
  0
LINE
  8
_0-7_ビス
  6
CONTINUOUS
 62
    4
 10
930.58317561945273
 20
772.64002040628213
 11
937.58317561945205
 21
774.51572618637158
  0
LINE
  8
_0-7_ビス
  6
CONTINUOUS
 62
    4
 10
930.58317561945273
 20
774.64002040628259
 11
937.58317561945205
 21
776.5157261863709
  0
LINE
  8
_0-7_ビス
  6
CONTINUOUS
 62
    4
 10
930.58317561945273
 20
776.64002040628304
 11
937.58317561945205
 21
778.51572618637135
  0
LINE
  8
_0-7_ビス
  6
CONTINUOUS
 62
    4
 10
930.58317561945273
 20
778.64002040628236
 11
937.58317561945205
 21
780.51572618637067
  0
LINE
  8
_0-7_ビス
  6
CONTINUOUS
 62
    4
 10
930.58317561945273
 20
780.64002040628282
 11
937.58317561945205
 21
782.51572618637113
  0
LINE
  8
_0-7_ビス
  6
CONTINUOUS
 62
    4
 10
930.58317561945273
 20
768.33379987690535
 11
937.58317561945205
 21
770.20950565699479
  0
LINE
  8
_0-7_ビス
  6
CONTINUOUS
 62
    4
 10
931.44490034254432
 20
766.56470588318427
 11
937.58317561945205
 21
768.20950565699434
  0
LINE
  8
_0-2_線色２__白__
  6
CONTINUOUS
 62
    7
 10
854.08317561945296
 20
732.80971381273218
 11
853.95227067277119
 21
732.79149502520909
  0
LINE
  8
_0-2_線色２__白__
  6
CONTINUOUS
 62
    7
 10
853.95227067277119
 20
732.79149502520909
 11
853.72719673775237
 21
732.75842824554843
  0
LINE
  8
_0-2_線色２__白__
  6
CONTINUOUS
 62
    7
 10
853.72719673775237
 20
732.75842824554843
 11
853.50385682749447
 21
732.72076402968196
  0
LINE
  8
_0-2_線色２__白__
  6
CONTINUOUS
 62
    7
 10
853.50385682749447
 20
732.72076402968196
 11
853.28334842602317
 21
732.67559260785845
  0
LINE
  8
_0-2_線色２__白__
  6
CONTINUOUS
 62
    7
 10
853.28334842602317
 20
732.67559260785845
 11
853.06676901736523
 21
732.62000421032781
  0
LINE
  8
_0-2_線色２__白__
  6
CONTINUOUS
 62
    7
 10
853.06676901736523
 20
732.62000421032781
 11
852.85521608554632
 21
732.55108906733881
  0
LINE
  8
_0-2_線色２__白__
  6
CONTINUOUS
 62
    7
 10
852.85521608554632
 20
732.55108906733881
 11
852.73525098255391
 21
732.50386536904614
  0
LINE
  8
_0-2_線色２__白__
  6
CONTINUOUS
 62
    7
 10
852.73525098255391
 20
732.50386536904614
 11
852.64313414296339
 21
732.46292430778283
  0
LINE
  8
_0-2_線色２__白__
  6
CONTINUOUS
 62
    7
 10
852.64313414296339
 20
732.46292430778283
 11
852.48741983995046
 21
732.38450913510121
  0
LINE
  8
_0-2_線色２__白__
  6
CONTINUOUS
 62
    7
 10
852.48741983995046
 20
732.38450913510121
 11
852.33541623706969
 21
732.29740212077388
  0
LINE
  8
_0-2_線色２__白__
  6
CONTINUOUS
 62
    7
 10
852.33541623706969
 20
732.29740212077388
 11
852.18686372126967
 21
732.20301713162598
  0
LINE
  8
_0-2_線色２__白__
  6
CONTINUOUS
 62
    7
 10
852.18686372126967
 20
732.20301713162598
 11
852.04150267949785
 21
732.10276803448153
  0
LINE
  8
_0-2_線色２__白__
  6
CONTINUOUS
 62
    7
 10
852.04150267949785
 20
732.10276803448153
 11
851.89907349870168
 21
731.99806869616566
  0
LINE
  8
_0-2_線色２__白__
  6
CONTINUOUS
 62
    7
 10
851.89907349870168
 20
731.99806869616566
 11
851.81770565149691
 21
731.93586111648699
  0
LINE
  8
_0-2_線色２__白__
  6
CONTINUOUS
 62
    7
 10
851.81770565149691
 20
731.93586111648699
 11
851.72302205869414
 21
731.86164484255073
  0
LINE
  8
_0-2_線色２__白__
  6
CONTINUOUS
 62
    7
 10
851.72302205869414
 20
731.86164484255073
 11
851.56230326483296
 21
731.73141990244687
  0
LINE
  8
_0-2_線色２__白__
  6
CONTINUOUS
 62
    7
 10
851.56230326483296
 20
731.73141990244687
 11
851.40443650244151
 21
731.59856808322559
  0
LINE
  8
_0-2_線色２__白__
  6
CONTINUOUS
 62
    7
 10
851.40443650244151
 20
731.59856808322559
 11
851.24901600897601
 21
731.46336994509795
  0
LINE
  8
_0-2_線色２__白__
  6
CONTINUOUS
 62
    7
 10
851.24901600897601
 20
731.46336994509795
 11
851.09563602188814
 21
731.32610604827448
  0
LINE
  8
_0-2_線色２__白__
  6
CONTINUOUS
 62
    7
 10
851.09563602188814
 20
731.32610604827448
 11
850.94389077863298
 21
731.18705695296569
  0
LINE
  8
_0-2_線色２__白__
  6
CONTINUOUS
 62
    7
 10
850.94389077863298
 20
731.18705695296569
 11
850.85646768562697
 21
731.1057010550536
  0
LINE
  8
_0-2_線色２__白__
  6
CONTINUOUS
 62
    7
 10
850.85646768562697
 20
731.1057010550536
 11
850.76539751122823
 21
731.02006598163939
  0
LINE
  8
_0-2_線色２__白__
  6
CONTINUOUS
 62
    7
 10
850.76539751122823
 20
731.02006598163939
 11
850.60969576239472
 21
730.87086862333138
  0
LINE
  8
_0-2_線色２__白__
  6
CONTINUOUS
 62
    7
 10
850.60969576239472
 20
730.87086862333138
 11
850.45634978399562
 21
730.71911840976156
  0
LINE
  8
_0-2_線色２__白__
  6
CONTINUOUS
 62
    7
 10
850.45634978399562
 20
730.71911840976156
 11
850.30616214507518
 21
730.56412933025854
  0
LINE
  8
_0-2_線色２__白__
  6
CONTINUOUS
 62
    7
 10
850.30616214507518
 20
730.56412933025854
 11
850.15993541467765
 21
730.40521537415145
  0
LINE
  8
_0-2_線色２__白__
  6
CONTINUOUS
 62
    7
 10
850.15993541467765
 20
730.40521537415145
 11
850.01847216184956
 21
730.2416905307706
  0
LINE
  8
_0-2_線色２__白__
  6
CONTINUOUS
 62
    7
 10
850.01847216184956
 20
730.2416905307706
 11
849.93892235456883
 21
730.14446308918366
  0
LINE
  8
_0-2_線色２__白__
  6
CONTINUOUS
 62
    7
 10
849.93892235456883
 20
730.14446308918366
 11
849.8701970020727
 21
730.05680938964133
  0
LINE
  8
_0-2_線色２__白__
  6
CONTINUOUS
 62
    7
 10
849.8701970020727
 20
730.05680938964133
 11
849.755984234273
 21
729.90219628972113
  0
LINE
  8
_0-2_線色２__白__
  6
CONTINUOUS
 62
    7
 10
849.755984234273
 20
729.90219628972113
 11
849.64801154534143
 21
729.74323114653146
  0
LINE
  8
_0-2_線色２__白__
  6
CONTINUOUS
 62
    7
 10
849.64801154534143
 20
729.74323114653146
 11
849.54723631391516
 21
729.57998448930482
  0
LINE
  8
_0-2_線色２__白__
  6
CONTINUOUS
 62
    7
 10
849.54723631391516
 20
729.57998448930482
 11
849.45461591862909
 21
729.41252684727374
  0
LINE
  8
_0-2_線色２__白__
  6
CONTINUOUS
 62
    7
 10
849.45461591862909
 20
729.41252684727374
 11
849.3711077381181
 21
729.24092874967016
  0
LINE
  8
_0-2_線色２__白__
  6
CONTINUOUS
 62
    7
 10
849.3711077381181
 20
729.24092874967016
 11
849.32722546719674
 21
729.13953248850191
  0
LINE
  8
_0-2_線色２__白__
  6
CONTINUOUS
 62
    7
 10
849.32722546719674
 20
729.13953248850191
 11
849.28269675393381
 21
729.02562699576208
  0
LINE
  8
_0-2_線色２__白__
  6
CONTINUOUS
 62
    7
 10
849.28269675393381
 20
729.02562699576208
 11
849.21538612552013
 21
728.82573853790745
  0
LINE
  8
_0-2_線色２__白__
  6
CONTINUOUS
 62
    7
 10
849.21538612552013
 20
728.82573853790745
 11
849.15878257402142
 21
728.62203643904934
  0
LINE
  8
_0-2_線色２__白__
  6
CONTINUOUS
 62
    7
 10
849.15878257402142
 20
728.62203643904934
 11
849.11140770029078
 21
728.41523736224019
  0
LINE
  8
_0-2_線色２__白__
  6
CONTINUOUS
 62
    7
 10
849.11140770029078
 20
728.41523736224019
 11
849.07178310518134
 21
728.2060579705319
  0
LINE
  8
_0-2_線色２__白__
  6
CONTINUOUS
 62
    7
 10
849.07178310518134
 20
728.2060579705319
 11
849.03843038954619
 21
727.99521492697579
  0
LINE
  8
_0-2_線色２__白__
  6
CONTINUOUS
 62
    7
 10
849.03843038954619
 20
727.99521492697579
 11
849.02137702351183
 21
727.87244607894593
  0
LINE
  8
_0-2_線色２__白__
  6
CONTINUOUS
 62
    7
 10
849.02137702351183
 20
727.87244607894593
 11
849.00266002424473
 21
727.72398910886238
  0
LINE
  8
_0-2_線色２__白__
  6
CONTINUOUS
 62
    7
 10
849.00266002424473
 20
727.72398910886238
 11
848.97575326315518
 21
727.46766884357783
  0
LINE
  8
_0-2_線色２__白__
  6
CONTINUOUS
 62
    7
 10
848.97575326315518
 20
727.46766884357783
 11
848.95689501585593
 21
727.21127351499661
  0
LINE
  8
_0-2_線色２__白__
  6
CONTINUOUS
 62
    7
 10
848.95689501585593
 20
727.21127351499661
 11
848.94754892466949
 21
726.95524567836571
  0
LINE
  8
_0-2_線色２__白__
  6
CONTINUOUS
 62
    7
 10
848.94754892466949
 20
726.95524567836571
 11
848.94917863191608
 21
726.70002788893157
  0
LINE
  8
_0-2_線色２__白__
  6
CONTINUOUS
 62
    7
 10
848.94917863191608
 20
726.70002788893157
 11
848.96324777991936
 21
726.44606270194004
  0
LINE
  8
_0-2_線色２__白__
  6
CONTINUOUS
 62
    7
 10
848.96324777991936
 20
726.44606270194004
 11
848.97768438869889
 21
726.2995112257039
  0
LINE
  8
_0-2_線色２__白__
  6
CONTINUOUS
 62
    7
 10
848.97768438869889
 20
726.2995112257039
 11
848.99137417478414
 21
726.1921670341377
  0
LINE
  8
_0-2_線色２__白__
  6
CONTINUOUS
 62
    7
 10
848.99137417478414
 20
726.1921670341377
 11
849.02033380602575
 21
726.00771697336825
  0
LINE
  8
_0-2_線色２__白__
  6
CONTINUOUS
 62
    7
 10
849.02033380602575
 20
726.00771697336825
 11
849.05464928756373
 21
725.82374611592741
  0
LINE
  8
_0-2_線色２__白__
  6
CONTINUOUS
 62
    7
 10
849.05464928756373
 20
725.82374611592741
 11
849.09266411359113
 21
725.63989008006956
  0
LINE
  8
_0-2_線色２__白__
  6
CONTINUOUS
 62
    7
 10
849.09266411359113
 20
725.63989008006956
 11
849.13272177829754
 21
725.4557844840491
  0
LINE
  8
_0-2_線色２__白__
  6
CONTINUOUS
 62
    7
 10
849.13272177829754
 20
725.4557844840491
 11
849.17316577587371
 21
725.27106494612099
  0
LINE
  8
_0-2_線色２__白__
  6
CONTINUOUS
 62
    7
 10
849.17316577587371
 20
725.27106494612099
 11
849.19614756276019
 21
725.16350272058503
  0
LINE
  8
_0-2_線色２__白__
  6
CONTINUOUS
 62
    7
 10
849.19614756276019
 20
725.16350272058503
 11
849.22142128425889
 21
725.04139148925674
  0
LINE
  8
_0-2_線色２__白__
  6
CONTINUOUS
 62
    7
 10
849.22142128425889
 20
725.04139148925674
 11
849.26477080049381
 21
724.83059346569291
  0
LINE
  8
_0-2_線色２__白__
  6
CONTINUOUS
 62
    7
 10
849.26477080049381
 20
724.83059346569291
 11
849.31090395864203
 21
724.62088824185571
  0
LINE
  8
_0-2_線色２__白__
  6
CONTINUOUS
 62
    7
 10
849.31090395864203
 20
724.62088824185571
 11
849.36339000034536
 21
724.41393129258813
  0
LINE
  8
_0-2_線色２__白__
  6
CONTINUOUS
 62
    7
 10
849.36339000034536
 20
724.41393129258813
 11
849.42579816724447
 21
724.21137809273318
  0
LINE
  8
_0-2_線色２__白__
  6
CONTINUOUS
 62
    7
 10
849.42579816724447
 20
724.21137809273318
 11
849.50169770097887
 21
724.01488411713387
  0
LINE
  8
_0-2_線色２__白__
  6
CONTINUOUS
 62
    7
 10
849.50169770097887
 20
724.01488411713387
 11
849.55330764163477
 21
723.90434629101321
  0
LINE
  8
_0-2_線色２__白__
  6
CONTINUOUS
 62
    7
 10
849.55330764163477
 20
723.90434629101321
 11
849.60639311355862
 21
723.80502405983407
  0
LINE
  8
_0-2_線色２__白__
  6
CONTINUOUS
 62
    7
 10
849.60639311355862
 20
723.80502405983407
 11
849.70967939465822
 21
723.6396001446434
  0
LINE
  8
_0-2_線色２__白__
  6
CONTINUOUS
 62
    7
 10
849.70967939465822
 20
723.6396001446434
 11
849.82622902638923
 21
723.48154857328439
  0
LINE
  8
_0-2_線色２__白__
  6
CONTINUOUS
 62
    7
 10
849.82622902638923
 20
723.48154857328439
 11
849.95415569970419
 21
723.33087352686732
  0
LINE
  8
_0-2_線色２__白__
  6
CONTINUOUS
 62
    7
 10
849.95415569970419
 20
723.33087352686732
 11
850.09157310555111
 21
723.18757918650135
  0
LINE
  8
_0-2_線色２__白__
  6
CONTINUOUS
 62
    7
 10
850.09157310555111
 20
723.18757918650135
 11
850.23659493488026
 21
723.05166973329676
  0
LINE
  8
_0-2_線色２__白__
  6
CONTINUOUS
 62
    7
 10
850.23659493488026
 20
723.05166973329676
 11
850.32344863887829
 21
722.97622765331027
  0
LINE
  8
_0-2_線色２__白__
  6
CONTINUOUS
 62
    7
 10
850.32344863887829
 20
722.97622765331027
 11
850.42601602686887
 21
722.89193262893946
  0
LINE
  8
_0-2_線色２__白__
  6
CONTINUOUS
 62
    7
 10
850.42601602686887
 20
722.89193262893946
 11
850.60730103660489
 21
722.7537607696712
  0
LINE
  8
_0-2_線色２__白__
  6
CONTINUOUS
 62
    7
 10
850.60730103660489
 20
722.7537607696712
 11
850.79352571122513
 21
722.62365050265203
  0
LINE
  8
_0-2_線色２__白__
  6
CONTINUOUS
 62
    7
 10
850.79352571122513
 20
722.62365050265203
 11
850.98389177231525
 21
722.5004306006656
  0
LINE
  8
_0-2_線色２__白__
  6
CONTINUOUS
 62
    7
 10
850.98389177231525
 20
722.5004306006656
 11
851.17760094145865
 21
722.38292983649615
  0
LINE
  8
_0-2_線色２__白__
  6
CONTINUOUS
 62
    7
 10
851.17760094145865
 20
722.38292983649615
 11
851.37385494024102
 21
722.26997698292791
  0
LINE
  8
_0-2_線色２__白__
  6
CONTINUOUS
 62
    7
 10
851.37385494024102
 20
722.26997698292791
 11
851.48853373726979
 21
722.2060866560679
  0
LINE
  8
_0-2_線色２__白__
  6
CONTINUOUS
 62
    7
 10
851.48853373726979
 20
722.2060866560679
 11
851.61160032940643
 21
722.1388192885621
  0
LINE
  8
_0-2_線色２__白__
  6
CONTINUOUS
 62
    7
 10
851.61160032940643
 20
722.1388192885621
 11
851.82480708577486
 21
722.02483804735323
  0
LINE
  8
_0-2_線色２__白__
  6
CONTINUOUS
 62
    7
 10
851.82480708577486
 20
722.02483804735323
 11
852.03910408531101
 21
721.91272349898952
  0
LINE
  8
_0-2_線色２__白__
  6
CONTINUOUS
 62
    7
 10
852.03910408531101
 20
721.91272349898952
 11
852.25425334638544
 21
721.80170688974215
  0
LINE
  8
_0-2_線色２__白__
  6
CONTINUOUS
 62
    7
 10
852.25425334638544
 20
721.80170688974215
 11
852.47001688736646
 21
721.69101946588341
  0
LINE
  8
_0-2_線色２__白__
  6
CONTINUOUS
 62
    7
 10
852.47001688736646
 20
721.69101946588341
 11
852.68615672662236
 21
721.57989247368675
  0
LINE
  8
_0-2_線色２__白__
  6
CONTINUOUS
 62
    7
 10
852.68615672662236
 20
721.57989247368675
 11
852.81159647612299
 21
721.51493447905523
  0
LINE
  8
_0-2_線色２__白__
  6
CONTINUOUS
 62
    7
 10
852.81159647612299
 20
721.51493447905523
 11
852.98042465912886
 21
721.42652102487943
  0
LINE
  8
_0-2_線色２__白__
  6
CONTINUOUS
 62
    7
 10
852.98042465912886
 20
721.42652102487943
 11
853.26982042501641
 21
721.27001620894987
  0
LINE
  8
_0-2_線色２__白__
  6
CONTINUOUS
 62
    7
 10
853.26982042501641
 20
721.27001620894987
 11
853.55452860126775
 21
721.10579461572229
  0
LINE
  8
_0-2_線色２__白__
  6
CONTINUOUS
 62
    7
 10
853.55452860126775
 20
721.10579461572229
 11
853.83158202928598
 21
720.93087062833717
  0
LINE
  8
_0-2_線色２__白__
  6
CONTINUOUS
 62
    7
 10
853.83158202928598
 20
720.93087062833717
 11
854.09801355047193
 21
720.74225862993671
  0
LINE
  8
_0-2_線色２__白__
  6
CONTINUOUS
 62
    7
 10
854.09801355047193
 20
720.74225862993671
 11
854.35085600622983
 21
720.53697300366139
  0
LINE
  8
_0-2_線色２__白__
  6
CONTINUOUS
 62
    7
 10
854.35085600622983
 20
720.53697300366139
 11
854.49010890601016
 21
720.4090909958353
  0
LINE
  8
_0-2_線色２__白__
  6
CONTINUOUS
 62
    7
 10
854.49010890601016
 20
720.4090909958353
 11
854.53721391192062
 21
720.36287582353054
  0
LINE
  8
_0-2_線色２__白__
  6
CONTINUOUS
 62
    7
 10
854.53721391192062
 20
720.36287582353054
 11
854.61655900695632
 21
720.28117656199015
  0
LINE
  8
_0-2_線色２__白__
  6
CONTINUOUS
 62
    7
 10
854.61655900695632
 20
720.28117656199015
 11
854.69335911639746
 21
720.19697416966039
  0
LINE
  8
_0-2_線色２__白__
  6
CONTINUOUS
 62
    7
 10
854.69335911639746
 20
720.19697416966039
 11
854.76740801972369
 21
720.11032819416471
  0
LINE
  8
_0-2_線色２__白__
  6
CONTINUOUS
 62
    7
 10
854.76740801972369
 20
720.11032819416471
 11
854.83849949641353
 21
720.02129818312881
  0
LINE
  8
_0-2_線色２__白__
  6
CONTINUOUS
 62
    7
 10
854.83849949641353
 20
720.02129818312881
 11
854.90642732594324
 21
719.92994368417726
  0
LINE
  8
_0-2_線色２__白__
  6
CONTINUOUS
 62
    7
 10
854.90642732594324
 20
719.92994368417726
 11
854.9442946223337
 21
719.87591645928262
  0
LINE
  8
_0-2_線色２__白__
  6
CONTINUOUS
 62
    7
 10
854.9442946223337
 20
719.87591645928262
 11
855.00358731271149
 21
719.78631504819475
  0
LINE
  8
_0-2_線色２__白__
  6
CONTINUOUS
 62
    7
 10
855.00358731271149
 20
719.78631504819475
 11
855.10000057690604
 21
719.62812360402381
  0
LINE
  8
_0-2_線色２__白__
  6
CONTINUOUS
 62
    7
 10
855.10000057690604
 20
719.62812360402381
 11
855.19132898597718
 21
719.46671231699156
  0
LINE
  8
_0-2_線色２__白__
  6
CONTINUOUS
 62
    7
 10
855.19132898597718
 20
719.46671231699156
 11
855.28021969442761
 21
719.3037923686984
  0
LINE
  8
_0-2_線色２__白__
  6
CONTINUOUS
 62
    7
 10
855.28021969442761
 20
719.3037923686984
 11
855.36931985676347
 21
719.14107494074585
  0
LINE
  8
_0-2_線色２__白__
  6
CONTINUOUS
 62
    7
 10
855.36931985676347
 20
719.14107494074585
 11
855.46127662748972
 21
718.98027121473376
  0
LINE
  8
_0-2_線色２__白__
  6
CONTINUOUS
 62
    7
 10
855.46127662748972
 20
718.98027121473376
 11
855.51696356900038
 21
718.88855620640754
  0
LINE
  8
_0-2_線色２__白__
  6
CONTINUOUS
 62
    7
 10
855.51696356900038
 20
718.88855620640754
 11
855.57632833887283
 21
718.79614521400867
  0
LINE
  8
_0-2_線色２__白__
  6
CONTINUOUS
 62
    7
 10
855.57632833887283
 20
718.79614521400867
 11
855.68383010064053
 21
718.64020221185456
  0
LINE
  8
_0-2_線色２__白__
  6
CONTINUOUS
 62
    7
 10
855.68383010064053
 20
718.64020221185456
 11
855.79681329060918
 21
718.487879669633
  0
LINE
  8
_0-2_線色２__白__
  6
CONTINUOUS
 62
    7
 10
855.79681329060918
 20
718.487879669633
 11
855.9140733430047
 21
718.33840318089813
  0
LINE
  8
_0-2_線色２__白__
  6
CONTINUOUS
 62
    7
 10
855.9140733430047
 20
718.33840318089813
 11
856.03440569205304
 21
718.19099833920461
  0
LINE
  8
_0-2_線色２__白__
  6
CONTINUOUS
 62
    7
 10
856.03440569205304
 20
718.19099833920461
 11
856.15660577197787
 21
718.04489073810828
  0
LINE
  8
_0-2_線色２__白__
  6
CONTINUOUS
 62
    7
 10
856.15660577197787
 20
718.04489073810828
 11
856.22786295107062
 21
717.96043756870517
  0
LINE
  8
_0-2_線色２__白__
  6
CONTINUOUS
 62
    7
 10
856.22786295107062
 20
717.96043756870517
 11
856.31734353497109
 21
717.85459570508692
  0
LINE
  8
_0-2_線色２__白__
  6
CONTINUOUS
 62
    7
 10
856.31734353497109
 20
717.85459570508692
 11
856.47242658876621
 21
717.67302292677698
  0
LINE
  8
_0-2_線色２__白__
  6
CONTINUOUS
 62
    7
 10
856.47242658876621
 20
717.67302292677698
 11
856.62981575700769
 21
717.49384827415213
  0
LINE
  8
_0-2_線色２__白__
  6
CONTINUOUS
 62
    7
 10
856.62981575700769
 20
717.49384827415213
 11
856.79100595493423
 21
717.31851614792731
  0
LINE
  8
_0-2_線色２__白__
  6
CONTINUOUS
 62
    7
 10
856.79100595493423
 20
717.31851614792731
 11
856.95749209778342
 21
717.14847094881804
  0
LINE
  8
_0-2_線色２__白__
  6
CONTINUOUS
 62
    7
 10
856.95749209778342
 20
717.14847094881804
 11
857.1307691007928
 21
716.9851570775387
  0
LINE
  8
_0-2_線色２__白__
  6
CONTINUOUS
 62
    7
 10
857.1307691007928
 20
716.9851570775387
 11
857.23497040900384
 21
716.89408849559982
  0
LINE
  8
_0-2_線色２__白__
  6
CONTINUOUS
 62
    7
 10
857.23497040900384
 20
716.89408849559982
 11
857.29705768452618
 21
716.84242922296278
  0
LINE
  8
_0-2_線色２__白__
  6
CONTINUOUS
 62
    7
 10
857.29705768452618
 20
716.84242922296278
 11
857.40653042436406
 21
716.75610411265779
  0
LINE
  8
_0-2_線色２__白__
  6
CONTINUOUS
 62
    7
 10
857.40653042436406
 20
716.75610411265779
 11
857.5190316821238
 21
716.67374424052525
  0
LINE
  8
_0-2_線色２__白__
  6
CONTINUOUS
 62
    7
 10
857.5190316821238
 20
716.67374424052525
 11
857.6345126148351
 21
716.59592354978031
  0
LINE
  8
_0-2_線色２__白__
  6
CONTINUOUS
 62
    7
 10
857.6345126148351
 20
716.59592354978031
 11
857.75292437952771
 21
716.52321598363585
  0
LINE
  8
_0-2_線色２__白__
  6
CONTINUOUS
 62
    7
 10
857.75292437952771
 20
716.52321598363585
 11
857.87421813323135
 21
716.45619548530647
  0
LINE
  8
_0-2_線色２__白__
  6
CONTINUOUS
 62
    7
 10
857.87421813323135
 20
716.45619548530647
 11
857.94586979107294
 21
716.42015557421985
  0
LINE
  8
_0-2_線色２__白__
  6
CONTINUOUS
 62
    7
 10
857.94586979107294
 20
716.42015557421985
 11
858.04734568212325
 21
716.37350372086246
  0
LINE
  8
_0-2_線色２__白__
  6
CONTINUOUS
 62
    7
 10
858.04734568212325
 20
716.37350372086246
 11
858.22611006117427
 21
716.30201696251163
  0
LINE
  8
_0-2_線色２__白__
  6
CONTINUOUS
 62
    7
 10
858.22611006117427
 20
716.30201696251163
 11
858.40893047932241
 21
716.24006562388843
  0
LINE
  8
_0-2_線色２__白__
  6
CONTINUOUS
 62
    7
 10
858.40893047932241
 20
716.24006562388843
 11
858.5949213385129
 21
716.1855677356192
  0
LINE
  8
_0-2_線色２__白__
  6
CONTINUOUS
 62
    7
 10
858.5949213385129
 20
716.1855677356192
 11
858.78319704068758
 21
716.13644132833258
  0
LINE
  8
_0-2_線色２__白__
  6
CONTINUOUS
 62
    7
 10
858.78319704068758
 20
716.13644132833258
 11
858.97287198779168
 21
716.09060443265435
  0
LINE
  8
_0-2_線色２__白__
  6
CONTINUOUS
 62
    7
 10
858.97287198779168
 20
716.09060443265435
 11
859.08317561945296
 21
716.06470588318473
  0
LINE
  8
_0-4_線色４__黄__
  6
CONTINUOUS
 62
    2
 10
854.08317561945296
 20
726.81258174579966
 11
859.08317561945296
 21
726.81258174579966
  0
LINE
  8
_0-2_線色２__白__
  6
CONTINUOUS
 62
    7
 10
959.08317561945296
 20
833.47819775976859
 11
960.09818857226833
 21
832.61355709625889
  0
LINE
  8
_0-4_線色４__黄__
  6
CONTINUOUS
 62
    2
 10
857.0831756194525
 20
841.06470588318473
 11
957.88777384455898
 21
841.06470588318473
  0
LINE
  8
_0-4_線色４__黄__
  6
CONTINUOUS
 62
    2
 10
854.08317561945296
 20
838.06470588318462
 11
854.08317561945296
 21
726.81258174579966
  0
ARC
  8
_0-4_線色４__黄__
  6
CONTINUOUS
 62
    2
 10
857.0831756194525
 20
838.06470588318462
 40
3
 50
90
 51
180
  0
LINE
  8
_0-4_線色４__黄__
  6
CONTINUOUS
 62
    2
 10
957.88777384455898
 20
841.06470588318473
 11
961.9391224205151
 21
837.61355709625889
  0
LINE
  8
_0-4_線色４__黄__
  6
CONTINUOUS
 62
    2
 10
961.9391224205151
 20
837.61355709625889
 11
1287.8450215972339
 21
837.61355709625889
  0
LINE
  8
_0-a_文字
  6
CONTINUOUS
 62
    7
 10
923.67854205968342
 20
887.61355709625889
 11
943.67854205968342
 21
887.61355709625889
  0
TEXT
  8
_0-a_文字
 62
    7
 10
948.67854205968342
 20
880.11355709625889
 40
15.000000000000213
 41
0.9999999999999834
 50
0
  1
特注塩ビ鋼板
  0
LINE
  8
_0-a_文字
  6
CONTINUOUS
 62
    7
 10
1084.6946095620899
 20
647.61355709625889
 11
1104.6946095620899
 21
647.61355709625889
  0
TEXT
  8
_0-a_文字
 62
    7
 10
1109.6946095620899
 20
640.11355709625889
 40
15.000000000000036
 41
0.9999999999999981
 50
0
  1
亜鉛めっき鋼板 t=1.2以上
  0
TEXT
  8
_0-a_文字
 62
    7
 10
1109.6946095620899
 20
620.11355709625889
 40
15.000000000000036
 41
0.9999999999999981
 50
0
  1
（別途工事）
  0
LINE
  8
_0-a_文字
  6
CONTINUOUS
 62
    7
 10
1084.6946095620899
 20
692.61355709625889
 11
1104.6946095620899
 21
692.61355709625889
  0
TEXT
  8
_0-a_文字
 62
    7
 10
1109.6946095620876
 20
685.11355709625889
 40
15.000000000000036
 41
0.9999999999999956
 50
0
  1
耐火デッキプレート t=1.2以上
  0
TEXT
  8
_0-a_文字
 62
    7
 10
1109.6946095620876
 20
665.11355709625889
 40
15.000000000000036
 41
0.9999999999999956
 50
0
  1
（別途工事）
  0
LINE
  8
_0-a_文字
  6
CONTINUOUS
 62
    7
 10
1055.8270961026085
 20
742.61355709625889
 11
1084.6946095620899
 21
692.61355709625889
  0
LINE
  8
_0-a_文字
  6
CONTINUOUS
 62
    7
 10
1084.6946095620899
 20
912.61355709625889
 11
1104.6946095620899
 21
912.61355709625889
  0
LINE
  8
_0-a_文字
  6
CONTINUOUS
 62
    7
 10
1070.2608528323492
 20
887.61355709625889
 11
1104.6946095620899
 21
887.61355709625889
  0
LINE
  8
_0-a_文字
  6
CONTINUOUS
 62
    7
 10
1055.8270961026085
 20
862.61355709625889
 11
1104.6946095620899
 21
862.61355709625889
  0
TEXT
  8
_0-a_文字
 62
    7
 10
1109.6946095620899
 20
880.11355709625889
 40
15.000000000000213
 41
0.9999999999999856
 50
0
  1
ラジアルシートＬ６００
  0
TEXT
  8
_0-a_文字
 62
    7
 10
1109.6946095620899
 20
855.11355709625889
 40
15.000000000000213
 41
0.9999999999999871
 50
0
  1
断熱材
  0
TEXT
  8
_0-a_文字
 62
    7
 10
1109.6946095620899
 20
905.11355709625889
 40
15.000000000000213
 41
0.9999999999999863
 50
0
  1
塩ビシート機械的固定工法
  0
LINE
  8
_0-a_文字
  6
CONTINUOUS
 62
    7
 10
1026.6000281421259
 20
811.99079043243103
 11
1084.6946095620899
 21
912.61355709625889
  0
LINE
  8
_0-7_ビス
  6
CONTINUOUS
 62
    7
 10
859.46779100406843
 20
772.06470588318496
 11
859.08317561945296
 21
772.06470588318496
  0
LINE
  8
_0-7_ビス
  6
DASHED3
 62
    7
 10
861.63254515028029
 20
767.53217399943992
 11
859.08317561945296
 21
768.61472171933372
  0
LINE
  8
_0-7_ビス
  6
CONTINUOUS
 62
    7
 10
859.46779100406843
 20
760.06470588318507
 11
859.08317561945296
 21
760.06470588318507
  0
LINE
  8
_0-7_ビス
  6
DASHED3
 62
    7
 10
861.63254515028029
 20
764.59723776693011
 11
859.08317561945296
 21
763.51469004703631
  0
LINE
  8
_0-7_ビス
  6
CONTINUOUS
 62
    7
 10
859.46779100406843
 20
772.06470588318496
 11
859.46779100406843
 21
760.06470588318507
  0
LINE
  8
_0-7_ビス
  6
CONTINUOUS
 62
    7
 10
859.08317561945296
 20
772.06470588318496
 11
859.08317561945296
 21
760.06470588318507
  0
LINE
  8
ADD_LINE
  6
DOT
 62
    4
 10
892.20254028140403
 20
766.06470588318473
 11
852.58582053878683
 21
766.06470588318473
  0
ARC
  8
_0-7_ビス
  6
DASHED3
 62
    7
 10
860.52200205201416
 20
766.06470588318473
 40
1.8403175392666382
 50
307.11750793457031
 51
52.882476806640639
  0
LINE
  8
_0-7_ビス
  6
CONTINUOUS
 62
    7
 10
861.38200456644199
 20
770.1504923208114
 11
859.46779100406843
 21
772.06470588318496
  0
ARC
  8
_0-7_ビス
  6
CONTINUOUS
 62
    7
 10
862.79621812881487
 20
771.56470588318427
 40
2
 50
225.00000000000153
 51
270
  0
LINE
  8
_0-7_ビス
  6
CONTINUOUS
 62
    7
 10
861.38200456644199
 20
761.97891944555806
 11
859.46779100406843
 21
760.0647058831845
  0
ARC
  8
_0-7_ビス
  6
CONTINUOUS
 62
    7
 10
862.79621812881487
 20
760.56470588318518
 40
2
 50
90
 51
134.99999999999849
  0
LINE
  8
_0-7_ビス
  6
CONTINUOUS
 62
    7
 10
863.08317561945273
 20
769.56470588318496
 11
863.08317561945273
 21
762.5647058831845
  0
LINE
  8
_0-7_ビス
  6
CONTINUOUS
 62
    7
 10
878.92305904653085
 20
769.56470588318496
 11
878.92305904653085
 21
762.5647058831845
  0
LINE
  8
_0-7_ビス
  6
CONTINUOUS
 62
    7
 10
864.08317561945296
 20
769.56470588318496
 11
864.08317561945296
 21
762.5647058831845
  0
LINE
  8
_0-7_ビス
  6
CONTINUOUS
 62
    4
 10
878.92305904653085
 20
765.05069450749488
 11
877.71349372813518
 21
769.56470588318496
  0
LINE
  8
_0-7_ビス
  6
CONTINUOUS
 62
    4
 10
865.28297897884727
 20
762.5647058831845
 11
864.08317561945296
 21
767.04228632512525
  0
LINE
  8
_0-7_ビス
  6
CONTINUOUS
 62
    4
 10
877.5891995082236
 20
762.5647058831845
 11
875.71349372813529
 21
769.56470588318496
  0
LINE
  8
_0-7_ビス
  6
CONTINUOUS
 62
    4
 10
875.58919950822315
 20
762.5647058831845
 11
873.71349372813484
 21
769.56470588318496
  0
LINE
  8
_0-7_ビス
  6
CONTINUOUS
 62
    4
 10
873.58919950822383
 20
762.5647058831845
 11
871.71349372813552
 21
769.56470588318496
  0
LINE
  8
_0-7_ビス
  6
CONTINUOUS
 62
    4
 10
871.58919950822337
 20
762.5647058831845
 11
869.71349372813506
 21
769.56470588318496
  0
LINE
  8
_0-7_ビス
  6
CONTINUOUS
 62
    4
 10
869.58919950822406
 20
762.5647058831845
 11
867.71349372813518
 21
769.56470588318496
  0
LINE
  8
_0-7_ビス
  6
CONTINUOUS
 62
    4
 10
867.5891995082236
 20
762.5647058831845
 11
865.71349372813472
 21
769.56470588318496
  0
LINE
  8
_0-7_ビス
  6
CONTINUOUS
 62
    7
 10
862.79621812881487
 20
769.56470588318496
 11
882.40233310436679
 21
769.56470588318496
  0
LINE
  8
_0-7_ビス
  6
CONTINUOUS
 62
    7
 10
882.40233310436679
 20
769.56470588318496
 11
884.4230590465304
 21
766.06470588318473
  0
LINE
  8
_0-7_ビス
  6
CONTINUOUS
 62
    7
 10
862.79621812881487
 20
762.5647058831845
 11
882.40233310436679
 21
762.5647058831845
  0
LINE
  8
_0-7_ビス
  6
CONTINUOUS
 62
    7
 10
882.40233310436679
 20
762.5647058831845
 11
884.4230590465304
 21
766.06470588318473
  0
LINE
  8
_0-a_文字
  6
CONTINUOUS
 62
    7
 10
835.9880136354991
 20
792.61355709625889
 11
815.9880136354991
 21
792.61355709625889
  0
TEXT
  8
_0-a_文字
 62
    7
 10
675.98801363549853
 20
785.11355709625889
 40
15.000000000000036
 41
0.9999999999999977
 50
0
  1
ロンシーラントＴＢ
  0
LINE
  8
_0-a_文字
  6
CONTINUOUS
 62
    7
 10
1000.9788205295968
 20
792.61355709625889
 11
1084.6946095620899
 21
647.61355709625889
  0
LINE
  8
_0-a_文字
  6
CONTINUOUS
 62
    7
 10
861.40875001291533
 20
748.58355012476181
 11
835.9880136354991
 21
792.61355709625889
  0
LINE
  8
_0-a_文字
  6
CONTINUOUS
 62
    7
 10
893.91679893539958
 20
836.06470588318473
 11
923.67854205968342
 21
887.61355709625889
  0
LINE
  8
_0-5_金属
  6
DASHED1
 62
    7
 10
864.93432440637775
 20
779.61355709625877
 11
1287.8450215972339
 21
779.61355709625877
  0
LINE
  8
_0-5_金属
  6
DASHED1
 62
    7
 10
864.93432440637775
 20
755.61355709625843
 11
1287.8450215972339
 21
755.61355709625843
  0
LINE
  8
_0-5_金属
  6
CONTINUOUS
 62
    7
 10
864.93432440637775
 20
742.61355709625889
 11
864.93432440637775
 21
792.61355709625889
  0
LINE
  8
_0-5_金属
  6
CONTINUOUS
 62
    7
 10
1287.8450215972339
 20
742.61355709625889
 11
864.93432440637775
 21
742.61355709625889
  0
LINE
  8
_0-5_金属
  6
CONTINUOUS
 62
    7
 10
863.73432440637771
 20
792.61355709625889
 11
1287.8450215972339
 21
792.61355709625889
  0
LINE
  8
_0-5_金属
  6
CONTINUOUS
 62
    7
 10
863.73432440637771
 20
741.41355709625884
 11
863.73432440637771
 21
792.61355709625889
  0
LINE
  8
_0-2_線色２__白__
  6
CONTINUOUS
 62
    7
 10
860.283175619453
 20
741.41355709625884
 11
862.5343244063788
 21
741.41355709625884
  0
LINE
  8
_0-2_線色２__白__
  6
CONTINUOUS
 62
    7
 10
860.283175619453
 20
791.41355709625884
 11
862.5343244063788
 21
791.41355709625884
  0
LINE
  8
_0-d_断熱__ハッチ
  6
CONTINUOUS
 62
    4
 10
862.43995970098069
 20
768.96903291322076
 11
862.53432440637937
 21
769.06339761861943
  0
LINE
  8
_0-d_断熱__ハッチ
  6
CONTINUOUS
 62
    4
 10
860.90277104622714
 20
770.96737816440054
 11
862.5343244063788
 21
772.59893152455277
  0
LINE
  8
_0-d_断熱__ハッチ
  6
CONTINUOUS
 62
    4
 10
860.28317561945244
 20
773.88331664355974
 11
862.53432440638051
 21
776.13446543048781
  0
LINE
  8
_0-d_断熱__ハッチ
  6
CONTINUOUS
 62
    4
 10
860.28317561945244
 20
777.4188505494925
 11
862.53432440637994
 21
779.66999933642057
  0
LINE
  8
_0-d_断熱__ハッチ
  6
CONTINUOUS
 62
    4
 10
860.28317561945187
 20
780.95438445542584
 11
862.53432440637937
 21
783.20553324235334
  0
LINE
  8
_0-d_断熱__ハッチ
  6
CONTINUOUS
 62
    4
 10
860.2831756194513
 20
784.4899183613586
 11
862.5343244063788
 21
786.74106714828611
  0
LINE
  8
_0-d_断熱__ハッチ
  6
CONTINUOUS
 62
    4
 10
860.28317561945073
 20
788.02545226729137
 11
862.53432440637823
 21
790.27660105421887
  0
LINE
  8
_0-d_断熱__ハッチ
  6
CONTINUOUS
 62
    4
 10
860.28317561945016
 20
742.06351149016598
 11
862.5343244063771
 21
744.31466027709348
  0
LINE
  8
_0-d_断熱__ハッチ
  6
CONTINUOUS
 62
    4
 10
860.28317561945016
 20
745.59904539609931
 11
862.5343244063771
 21
747.85019418302625
  0
LINE
  8
_0-d_断熱__ハッチ
  6
CONTINUOUS
 62
    4
 10
860.283175619453
 20
749.13457930203549
 11
862.5343244063771
 21
751.38572808895958
  0
LINE
  8
_0-d_断熱__ハッチ
  6
CONTINUOUS
 62
    4
 10
860.283175619453
 20
752.67011320796939
 11
862.5343244063771
 21
754.92126199489292
  0
LINE
  8
_0-d_断熱__ハッチ
  6
CONTINUOUS
 62
    4
 10
860.283175619453
 20
756.20564711390273
 11
862.53432440637653
 21
758.45679590082625
  0
LINE
  8
_0-6_鋼板__アングル
  6
CONTINUOUS
 62
    2
 10
862.5343244063788
 20
793.8135570962578
 11
1062.5343244063788
 21
793.8135570962578
  0
LINE
  8
_0-6_鋼板__アングル
  6
CONTINUOUS
 62
    2
 10
1062.5343244063788
 20
793.8135570962578
 11
1062.5343244063788
 21
792.61355709625889
  0
LINE
  8
_0-6_鋼板__アングル
  6
CONTINUOUS
 62
    2
 10
863.73432440637771
 20
792.61355709625889
 11
1062.5343244063788
 21
792.61355709625889
  0
LINE
  8
_0-6_鋼板__アングル
  6
CONTINUOUS
 62
    2
 10
939.93616246545912
 20
835.56700345703575
 11
937.33317561945228
 21
833.56470588318473
  0
LINE
  8
_0-6_鋼板__アングル
  6
CONTINUOUS
 62
    2
 10
928.2301887734468
 20
835.56700345703575
 11
930.8331756194525
 21
833.56470588318473
  0
LINE
  8
_0-6_鋼板__アングル
  6
CONTINUOUS
 62
    4
 10
941.39946829149835
 20
836.06470588318473
 11
926.76688294740757
 21
836.06470588318473
  0
LINE
  8
_0-6_鋼板__アングル
  6
CONTINUOUS
 62
    4
 10
930.8331756194525
 20
833.56470588318473
 11
937.33317561945228
 21
833.56470588318473
  0
LINE
  8
_0-6_鋼板__アングル
  6
CONTINUOUS
 62
    2
 10
937.33317561945228
 20
833.56470588318473
 11
938.06482853247189
 21
832.61355709625889
  0
LINE
  8
_0-6_鋼板__アングル
  6
CONTINUOUS
 62
    2
 10
930.8331756194525
 20
833.56470588318473
 11
930.10152270643289
 21
832.61355709625889
  0
LINE
  8
_0-6_鋼板__アングル
  6
CONTINUOUS
 62
    4
 10
930.10152270643289
 20
832.61355709625889
 11
938.06482853247189
 21
832.61355709625889
  0
LINE
  8
_0-6_鋼板__アングル
  6
CONTINUOUS
 62
    2
 10
940.66781537847874
 20
834.61585467010991
 11
938.06482853247189
 21
832.61355709625889
  0
LINE
  8
_0-6_鋼板__アングル
  6
CONTINUOUS
 62
    2
 10
927.49853586042718
 20
834.61585467010991
 11
930.10152270643289
 21
832.61355709625889
  0
LINE
  8
ADD_LINE
  6
DOT
 62
    4
 10
934.08317561945296
 20
847.61749458403301
 11
934.08317561945296
 21
813.43313839396956
  0
ARC
  8
_0-6_鋼板__アングル
  6
CONTINUOUS
 62
    2
 10
941.39946829149835
 20
833.66470588318464
 40
1.2
 50
90
 51
127.56859202882507
  0
ARC
  8
_0-6_鋼板__アングル
  6
CONTINUOUS
 62
    2
 10
941.39946829149835
 20
833.66470588318464
 40
2.3999999999999999
 50
90
 51
127.56859202882603
  0
ARC
  8
_0-6_鋼板__アングル
  6
CONTINUOUS
 62
    2
 10
926.76688294740757
 20
833.66470588318464
 40
1.2
 50
52.431407971171978
 51
90
  0
ARC
  8
_0-6_鋼板__アングル
  6
CONTINUOUS
 62
    2
 10
926.76688294740757
 20
833.66470588318464
 40
2.3999999999999999
 50
52.431407971173961
 51
90
  0
LINE
  8
_0-6_鋼板__アングル
  6
CONTINUOUS
 62
    2
 10
956.02543540165925
 20
834.50657072891431
 11
958.30501587273375
 21
832.5647058831845
  0
ARC
  8
_0-6_鋼板__アングル
  6
CONTINUOUS
 62
    2
 10
955.0527357182591
 20
833.36470588318434
 40
2.7000000000000002
 50
49.573921259901446
 51
90
  0
ARC
  8
_0-6_鋼板__アングル
  6
CONTINUOUS
 62
    2
 10
955.0527357182591
 20
833.36470588318434
 40
1.5000000000000002
 50
49.573921259901446
 51
90
  0
LINE
  8
_0-6_鋼板__アングル
  6
CONTINUOUS
 62
    2
 10
956.80359514837846
 20
835.4200626054984
 11
959.08317561945296
 21
833.47819775976859
  0
LINE
  8
_0-6_鋼板__アングル
  6
CONTINUOUS
 62
    2
 10
959.08317561945296
 20
833.47819775976859
 11
958.30501587273375
 21
832.5647058831845
  0
LINE
  8
_0-6_鋼板__アングル
  6
CONTINUOUS
 62
    2
 10
941.39946829149835
 20
834.86470588317331
 11
955.0527357182591
 21
834.86470588317331
  0
LINE
  8
_0-6_鋼板__アングル
  6
CONTINUOUS
 62
    2
 10
941.39946829149835
 20
836.06470588318473
 11
955.0527357182591
 21
836.06470588318473
  0
LINE
  8
_0-6_鋼板__アングル
  6
CONTINUOUS
 62
    2
 10
859.08317561945296
 20
836.06470588318473
 11
926.76688294740757
 21
836.06470588318473
  0
LINE
  8
_0-6_鋼板__アングル
  6
CONTINUOUS
 62
    2
 10
860.283175619453
 20
834.86470588317331
 11
926.76688294740757
 21
834.86470588317331
  0
LINE
  8
_0-6_鋼板__アングル
  6
CONTINUOUS
 62
    2
 10
859.08317561945296
 20
716.06470588318473
 11
860.283175619453
 21
716.06470588318473
  0
LINE
  8
_0-6_鋼板__アングル
  6
CONTINUOUS
 62
    2
 10
860.283175619453
 20
716.06470588318473
 11
867.35424343131854
 21
723.13577369504969
  0
LINE
  8
_0-6_鋼板__アングル
  6
CONTINUOUS
 62
    2
 10
866.50571529389481
 20
723.98430183247399
 11
867.35424343131854
 21
723.13577369504969
  0
LINE
  8
_0-6_鋼板__アングル
  6
CONTINUOUS
 62
    2
 10
860.283175619453
 20
717.76176215803218
 11
866.50571529389481
 21
723.98430183247399
  0
LINE
  8
_0-6_鋼板__アングル
  6
CONTINUOUS
 62
    2
 10
859.5808780456025
 20
771.91769272919089
 11
861.58317561945296
 21
769.31470588318462
  0
LINE
  8
_0-6_鋼板__アングル
  6
CONTINUOUS
 62
    2
 10
859.58087804560137
 20
760.21171903717857
 11
861.58317561945296
 21
762.81470588318427
  0
LINE
  8
_0-6_鋼板__アングル
  6
CONTINUOUS
 62
    4
 10
859.08317561945296
 20
773.38099855523012
 11
859.08317561945296
 21
758.74841321113934
  0
LINE
  8
_0-6_鋼板__アングル
  6
CONTINUOUS
 62
    4
 10
861.58317561945296
 20
762.81470588318427
 11
861.58317561945296
 21
769.31470588318462
  0
LINE
  8
_0-6_鋼板__アングル
  6
CONTINUOUS
 62
    2
 10
861.58317561945296
 20
769.31470588318462
 11
862.5343244063788
 21
770.04635879620423
  0
LINE
  8
_0-6_鋼板__アングル
  6
CONTINUOUS
 62
    2
 10
861.58317561945296
 20
762.81470588318427
 11
862.5343244063788
 21
762.08305297016466
  0
LINE
  8
_0-6_鋼板__アングル
  6
CONTINUOUS
 62
    4
 10
862.5343244063788
 20
762.08305297016466
 11
862.5343244063788
 21
770.04635879620423
  0
LINE
  8
_0-6_鋼板__アングル
  6
CONTINUOUS
 62
    2
 10
860.53202683252721
 20
772.64934564221051
 11
862.5343244063788
 21
770.04635879620423
  0
LINE
  8
_0-6_鋼板__アングル
  6
CONTINUOUS
 62
    2
 10
860.53202683252721
 20
759.48006612415895
 11
862.5343244063788
 21
762.08305297016466
  0
LINE
  8
ADD_LINE
  6
DOT
 62
    4
 10
847.53038691860411
 20
766.06470588318473
 11
881.71474310866756
 21
766.06470588318473
  0
LINE
  8
_0-6_鋼板__アングル
  6
CONTINUOUS
 62
    2
 10
859.08317561945296
 20
836.06470588318473
 11
859.08317561945296
 21
773.38099855523012
  0
ARC
  8
_0-6_鋼板__アングル
  6
CONTINUOUS
 62
    2
 10
861.48317561945305
 20
773.38099855523012
 40
2.3999999999999999
 50
180
 51
217.56859202882603
  0
LINE
  8
_0-6_鋼板__アングル
  6
CONTINUOUS
 62
    2
 10
860.283175619453
 20
834.86470588317331
 11
860.283175619453
 21
773.38099855523012
  0
ARC
  8
_0-6_鋼板__アングル
  6
CONTINUOUS
 62
    2
 10
861.48317561945305
 20
773.38099855523012
 40
1.2
 50
180
 51
217.56859202882507
  0
ARC
  8
_0-6_鋼板__アングル
  6
CONTINUOUS
 62
    2
 10
861.48317561945305
 20
758.74841321113934
 40
1.2
 50
142.43140797117198
 51
180
  0
ARC
  8
_0-6_鋼板__アングル
  6
CONTINUOUS
 62
    2
 10
861.48317561945305
 20
758.74841321113934
 40
2.3999999999999999
 50
142.43140797117397
 51
180
  0
LINE
  8
_0-6_鋼板__アングル
  6
CONTINUOUS
 62
    2
 10
860.283175619453
 20
758.74841321113934
 11
860.283175619453
 21
717.76176215803218
  0
LINE
  8
_0-6_鋼板__アングル
  6
CONTINUOUS
 62
    2
 10
859.08317561945296
 20
758.74841321113934
 11
859.08317561945296
 21
716.06470588318473
  0
LINE
  8
_0-6_鋼板__アングル
  6
CONTINUOUS
 62
    2
 10
862.5343244063788
 20
793.8135570962578
 11
862.5343244063788
 21
741.41355709625884
  0
LINE
  8
_0-6_鋼板__アングル
  6
CONTINUOUS
 62
    2
 10
863.73432440637771
 20
792.61355709625889
 11
863.73432440637771
 21
741.41355709625884
  0
LINE
  8
_0-6_鋼板__アングル
  6
CONTINUOUS
 62
    2
 10
863.73432440637771
 20
741.41355709625884
 11
862.5343244063788
 21
741.41355709625884
  0
LINE
  8
_0-5_金属
  6
CONTINUOUS
 62
    7
 10
1012.6343244063776
 20
662.61355709625889
 11
1014.9343244063778
 21
662.61355709625889
  0
LINE
  8
_0-5_金属
  6
CONTINUOUS
 62
    7
 10
1012.6343244063776
 20
722.61355709625889
 11
1014.9343244063778
 21
722.61355709625889
  0
LINE
  8
_0-5_金属
  6
CONTINUOUS
 62
    7
 10
1012.6343244063776
 20
646.91355709625725
 11
1012.6343244063776
 21
662.61355709625889
  0
ARC
  8
_0-5_金属
  6
CONTINUOUS
 62
    7
 10
1010.6343244063794
 20
646.91355709625725
 40
2
 50
270
 51
0
  0
LINE
  8
_0-5_金属
  6
CONTINUOUS
 62
    7
 10
969.23432440637839
 20
644.91355709625907
 11
1010.6343244063794
 21
644.91355709625907
  0
ARC
  8
_0-5_金属
  6
CONTINUOUS
 62
    7
 10
969.23432440637839
 20
646.91355709625725
 40
2
 50
180
 51
270
  0
LINE
  8
_0-5_金属
  6
CONTINUOUS
 62
    7
 10
967.23432440637794
 20
738.31355709625825
 11
967.23432440637794
 21
646.91355709625725
  0
ARC
  8
_0-5_金属
  6
CONTINUOUS
 62
    7
 10
969.23432440637839
 20
738.31355709625825
 40
2
 50
90
 51
180
  0
LINE
  8
_0-5_金属
  6
CONTINUOUS
 62
    7
 10
1010.6343244063794
 20
740.31355709625871
 11
969.23432440637839
 21
740.31355709625871
  0
LINE
  8
_0-5_金属
  6
CONTINUOUS
 62
    7
 10
1012.6343244063776
 20
738.31355709625825
 11
1012.6343244063776
 21
722.61355709625889
  0
ARC
  8
_0-5_金属
  6
CONTINUOUS
 62
    7
 10
1010.6343244063794
 20
738.31355709625825
 40
2
 50
0
 51
90
  0
LINE
  8
_0-5_金属
  6
CONTINUOUS
 62
    7
 10
1014.9343244063778
 20
738.31355709625825
 11
1014.9343244063778
 21
722.61355709625889
  0
ARC
  8
_0-5_金属
  6
CONTINUOUS
 62
    7
 10
1010.6343244063794
 20
738.31355709625825
 40
4.2999999999999998
 50
0
 51
90
  0
ARC
  8
_0-5_金属
  6
CONTINUOUS
 62
    7
 10
969.23432440637839
 20
738.31355709625825
 40
4.2999999999999998
 50
90
 51
180
  0
ARC
  8
_0-5_金属
  6
CONTINUOUS
 62
    7
 10
969.23432440637839
 20
646.91355709625725
 40
4.2999999999999998
 50
180
 51
270
  0
LINE
  8
_0-5_金属
  6
CONTINUOUS
 62
    7
 10
1010.6343244063794
 20
642.61355709625889
 11
969.23432440637839
 21
642.61355709625889
  0
LINE
  8
_0-5_金属
  6
CONTINUOUS
 62
    7
 10
1014.9343244063778
 20
646.91355709625725
 11
1014.9343244063778
 21
662.61355709625889
  0
ARC
  8
_0-5_金属
  6
CONTINUOUS
 62
    7
 10
1010.6343244063794
 20
646.91355709625725
 40
4.2999999999999998
 50
270
 51
0
  0
LINE
  8
_0-5_金属
  6
CONTINUOUS
 62
    7
 10
964.93432440637775
 20
480.3851068848968
 11
964.93432440637775
 21
742.61355709625889
  0
LINE
  8
_0-5_金属
  6
CONTINUOUS
 62
    7
 10
944.93432440637775
 20
480.3851068848968
 11
944.93432440637775
 21
742.61355709625889
  0
LINE
  8
_0-5_金属
  6
CONTINUOUS
 62
    7
 10
943.73432440637771
 20
741.41355709625884
 11
863.73432440637771
 21
741.41355709625884
  0
LINE
  8
_0-5_金属
  6
CONTINUOUS
 62
    7
 10
943.73432440637771
 20
621.41355709625884
 11
943.73432440637771
 21
741.41355709625884
  0
LINE
  8
_0-5_金属
  6
CONTINUOUS
 62
    7
 10
943.73432440637771
 20
621.41355709625884
 11
944.93432440637775
 21
621.41355709625884
  0
LINE
  8
_0-5_金属
  6
CONTINUOUS
 62
    7
 10
1114.9343244063778
 20
548.61355709625911
 11
1264.9343244063778
 21
548.61355709625911
  0
LINE
  8
_0-5_金属
  6
CONTINUOUS
 62
    7
 10
1264.9343244063778
 20
557.61355709625889
 11
1200.9343244063775
 21
557.61355709625889
  0
LINE
  8
_0-5_金属
  6
CONTINUOUS
 62
    7
 10
1264.9343244063778
 20
548.61355709625911
 11
1264.9343244063778
 21
557.61355709625889
  0
LINE
  8
_0-5_金属
  6
CONTINUOUS
 62
    7
 10
1178.9343244063775
 20
557.61355709625889
 11
1114.9343244063778
 21
557.61355709625889
  0
LINE
  8
_0-5_金属
  6
CONTINUOUS
 62
    7
 10
1114.9343244063778
 20
557.61355709625889
 11
1114.9343244063778
 21
548.61355709625911
  0
LINE
  8
_0-5_金属
  6
CONTINUOUS
 62
    7
 10
1200.9343244063775
 20
733.61355709625911
 11
1264.9343244063778
 21
733.61355709625911
  0
LINE
  8
_0-5_金属
  6
CONTINUOUS
 62
    7
 10
1264.9343244063778
 20
733.61355709625911
 11
1264.9343244063778
 21
742.61355709625889
  0
LINE
  8
_0-5_金属
  6
CONTINUOUS
 62
    7
 10
1186.9343244063775
 20
725.613557096259
 11
1186.9343244063775
 21
565.613557096259
  0
LINE
  8
_0-5_金属
  6
CONTINUOUS
 62
    7
 10
1192.934324406378
 20
565.613557096259
 11
1192.934324406378
 21
725.613557096259
  0
LINE
  8
_0-5_金属
  6
CONTINUOUS
 62
    7
 10
1114.9343244063778
 20
733.61355709625911
 11
1178.9343244063775
 21
733.61355709625911
  0
LINE
  8
_0-5_金属
  6
CONTINUOUS
 62
    7
 10
1114.9343244063778
 20
742.61355709625889
 11
1114.9343244063778
 21
733.61355709625911
  0
ARC
  8
_0-5_金属
  6
CONTINUOUS
 62
    7
 10
1200.9343244063775
 20
565.613557096259
 40
8
 50
180
 51
270
  0
ARC
  8
_0-5_金属
  6
CONTINUOUS
 62
    7
 10
1178.9343244063775
 20
565.613557096259
 40
8
 50
270
 51
0
  0
ARC
  8
_0-5_金属
  6
CONTINUOUS
 62
    7
 10
1178.9343244063775
 20
725.613557096259
 40
8
 50
0
 51
90
  0
ARC
  8
_0-5_金属
  6
CONTINUOUS
 62
    7
 10
1200.9343244063775
 20
725.613557096259
 40
8
 50
90
 51
180
  0
LINE
  8
_0-8_笠木他
  6
CONTINUOUS
 62
    4
 10
902.43412440637712
 20
676.84434817766316
 11
909.63412440637967
 21
676.84434817766316
  0
LINE
  8
_0-8_笠木他
  6
CONTINUOUS
 62
    4
 10
911.0341244063784
 20
678.24434817766416
 11
911.0341244063784
 21
695.44434817766216
  0
LINE
  8
_0-8_笠木他
  6
CONTINUOUS
 62
    4
 10
909.63412440637967
 20
696.84434817766316
 11
902.43412440637712
 21
696.84434817766316
  0
LINE
  8
_0-8_笠木他
  6
CONTINUOUS
 62
    4
 10
901.0341244063784
 20
695.44434817766216
 11
901.0341244063784
 21
686.84434817766316
  0
LINE
  8
_0-8_笠木他
  6
CONTINUOUS
 62
    4
 10
901.0341244063784
 20
686.84434817766316
 11
900.43412440637894
 21
686.84434817766316
  0
LINE
  8
_0-8_笠木他
  6
CONTINUOUS
 62
    4
 10
900.43412440637894
 20
686.84434817766316
 11
900.43412440637894
 21
695.44434817766216
  0
LINE
  8
_0-8_笠木他
  6
CONTINUOUS
 62
    4
 10
902.43412440637712
 20
697.44434817766262
 11
909.63412440637967
 21
697.44434817766262
  0
LINE
  8
_0-8_笠木他
  6
CONTINUOUS
 62
    4
 10
911.63412440637785
 20
695.44434817766216
 11
911.63412440637785
 21
678.24434817766416
  0
LINE
  8
_0-8_笠木他
  6
CONTINUOUS
 62
    4
 10
913.23442440637791
 20
676.24434827766265
 11
902.43412440637712
 21
676.24434817766371
  0
LINE
  8
_0-8_笠木他
  6
CONTINUOUS
 62
    4
 10
900.43412440637894
 20
592.44434817766262
 11
900.43412440637894
 21
674.84424817766296
  0
LINE
  8
_0-8_笠木他
  6
CONTINUOUS
 62
    4
 10
901.0341244063784
 20
674.84424817766296
 11
901.0341244063784
 21
592.44434817766262
  0
LINE
  8
_0-8_笠木他
  6
CONTINUOUS
 62
    4
 10
767.83412440637676
 20
712.44434817766262
 11
755.63422440637851
 21
712.44434817766262
  0
LINE
  8
_0-8_笠木他
  6
CONTINUOUS
 62
    4
 10
769.83412440637949
 20
701.84434817766316
 11
769.83412440637949
 21
710.44444817766419
  0
LINE
  8
_0-8_笠木他
  6
CONTINUOUS
 62
    4
 10
769.23412440637776
 20
701.84434817766316
 11
769.83412440637949
 21
701.84434817766316
  0
LINE
  8
_0-8_笠木他
  6
CONTINUOUS
 62
    4
 10
769.23412440637776
 20
710.44444817766419
 11
769.23412440637776
 21
701.84434817766316
  0
LINE
  8
_0-8_笠木他
  6
CONTINUOUS
 62
    4
 10
755.63422440637851
 20
711.84434817766316
 11
767.83412440637676
 21
711.84434817766316
  0
LINE
  8
_0-8_笠木他
  6
CONTINUOUS
 62
    4
 10
754.23422440637751
 20
609.24442817766305
 11
754.23422440637751
 21
710.44444817766419
  0
LINE
  8
_0-8_笠木他
  6
CONTINUOUS
 62
    4
 10
753.63402440637856
 20
710.44444817766419
 11
753.63402440637856
 21
609.24442817766305
  0
LINE
  8
_0-8_笠木他
  6
CONTINUOUS
 62
    4
 10
755.63422440637851
 20
607.24445817766366
 11
769.63412440637967
 21
607.24445817766366
  0
LINE
  8
_0-8_笠木他
  6
CONTINUOUS
 62
    4
 10
769.63412440637967
 20
607.8443681776622
 11
755.63422440637851
 21
607.8443681776622
  0
LINE
  8
_0-8_笠木他
  6
CONTINUOUS
 62
    4
 10
773.03412440637658
 20
591.04436817766157
 11
899.03412440637794
 21
591.04436817766157
  0
LINE
  8
_0-8_笠木他
  6
CONTINUOUS
 62
    4
 10
771.63412440637785
 20
592.44434817766262
 11
771.63412440637785
 21
605.84439817766281
  0
LINE
  8
_0-8_笠木他
  6
CONTINUOUS
 62
    4
 10
771.0341244063784
 20
605.84439817766281
 11
771.0341244063784
 21
592.44434817766262
  0
LINE
  8
_0-8_笠木他
  6
CONTINUOUS
 62
    4
 10
773.03412440637658
 20
590.44437817766322
 11
899.03412440637794
 21
590.44437817766322
  0
ARC
  8
_0-8_笠木他
  6
CONTINUOUS
 62
    4
 10
902.43412440637712
 20
674.84424817766296
 40
1.3999999999999999
 50
90
 51
180
  0
ARC
  8
_0-8_笠木他
  6
CONTINUOUS
 62
    4
 10
902.43412440637712
 20
674.84424817766296
 40
1.9999999000000002
 50
90
 51
180
  0
ARC
  8
_0-8_笠木他
  6
CONTINUOUS
 62
    4
 10
909.63412440637967
 20
678.24434817766416
 40
1.3999999999999999
 50
270
 51
0
  0
ARC
  8
_0-8_笠木他
  6
CONTINUOUS
 62
    4
 10
909.63412440637967
 20
678.24434817766416
 40
1.9999999000000002
 50
270
 51
0
  0
ARC
  8
_0-8_笠木他
  6
CONTINUOUS
 62
    4
 10
909.63412440637967
 20
695.44434817766216
 40
1.3999999999999999
 50
0
 51
90
  0
ARC
  8
_0-8_笠木他
  6
CONTINUOUS
 62
    4
 10
909.63412440637967
 20
695.44434817766216
 40
1.9999999000000002
 50
0
 51
90
  0
ARC
  8
_0-8_笠木他
  6
CONTINUOUS
 62
    4
 10
902.43412440637712
 20
695.44434817766216
 40
1.3999999999999999
 50
90
 51
180
  0
ARC
  8
_0-8_笠木他
  6
CONTINUOUS
 62
    4
 10
902.43412440637712
 20
695.44434817766216
 40
1.9999999000000002
 50
90
 51
180
  0
ARC
  8
_0-8_笠木他
  6
CONTINUOUS
 62
    4
 10
899.03412440637794
 20
592.44434817766262
 40
1.3999999999999999
 50
270
 51
0
  0
ARC
  8
_0-8_笠木他
  6
CONTINUOUS
 62
    4
 10
899.03412440637794
 20
592.44434817766262
 40
1.9999999000000002
 50
270
 51
0
  0
ARC
  8
_0-8_笠木他
  6
CONTINUOUS
 62
    4
 10
755.63422440637851
 20
710.44444817766419
 40
1.9999999000000002
 50
90
 51
180
  0
ARC
  8
_0-8_笠木他
  6
CONTINUOUS
 62
    4
 10
767.83412440637676
 20
710.44444817766419
 40
1.9999999000000002
 50
0
 51
90
  0
ARC
  8
_0-8_笠木他
  6
CONTINUOUS
 62
    4
 10
767.83412440637676
 20
710.44444817766419
 40
1.3999999999999999
 50
0
 51
90
  0
ARC
  8
_0-8_笠木他
  6
CONTINUOUS
 62
    4
 10
755.63422440637851
 20
710.44444817766419
 40
1.3999999999999999
 50
90
 51
180
  0
ARC
  8
_0-8_笠木他
  6
CONTINUOUS
 62
    4
 10
755.63422440637851
 20
609.24442817766305
 40
1.3999999999999999
 50
180
 51
270
  0
ARC
  8
_0-8_笠木他
  6
CONTINUOUS
 62
    4
 10
755.63422440637851
 20
609.24442817766305
 40
1.9999999000000002
 50
180
 51
270
  0
ARC
  8
_0-8_笠木他
  6
CONTINUOUS
 62
    4
 10
773.03412440637658
 20
592.44434817766262
 40
1.9999999000000002
 50
180
 51
270
  0
ARC
  8
_0-8_笠木他
  6
CONTINUOUS
 62
    4
 10
773.03412440637658
 20
592.44434817766262
 40
1.3999999999999999
 50
180
 51
270
  0
ARC
  8
_0-8_笠木他
  6
CONTINUOUS
 62
    4
 10
769.63412440637967
 20
605.84439817766281
 40
1.9999999000000002
 50
0
 51
90
  0
ARC
  8
_0-8_笠木他
  6
CONTINUOUS
 62
    4
 10
769.63412440637967
 20
605.84439817766281
 40
1.3999999999999999
 50
0
 51
90
  0
LINE
  8
_0-8_笠木他
  6
CONTINUOUS
 62
    4
 10
851.73422440637751
 20
672.24434827766402
 11
840.73442440637791
 21
672.24434827766402
  0
LINE
  8
_0-8_笠木他
  6
CONTINUOUS
 62
    4
 10
836.23442440637746
 20
680.94424827766318
 11
836.23442440637746
 21
677.74424827766381
  0
LINE
  8
_0-8_笠木他
  6
CONTINUOUS
 62
    4
 10
836.23442440637746
 20
680.94424827766318
 11
855.89722440637843
 21
680.94424827766318
  0
LINE
  8
_0-8_笠木他
  6
CONTINUOUS
 62
    4
 10
864.84932440637749
 20
700.03234827766221
 11
860.7272244063779
 21
684.6503482776626
  0
LINE
  8
_0-8_笠木他
  6
CONTINUOUS
 62
    4
 10
866.71612440637773
 20
683.04534827766304
 11
870.83732440637959
 21
698.42734827766265
  0
LINE
  8
_0-8_笠木他
  6
CONTINUOUS
 62
    4
 10
846.23442440637746
 20
684.94424827766409
 11
850.73422440637842
 21
684.94424827766409
  0
LINE
  8
_0-8_笠木他
  6
CONTINUOUS
 62
    4
 10
858.73432440637771
 20
690.94424827766318
 11
856.73412440637776
 21
690.94424827766318
  0
LINE
  8
_0-8_笠木他
  6
CONTINUOUS
 62
    4
 10
850.73422440637842
 20
684.94424827766409
 11
851.25532440637926
 21
687.89834827766356
  0
LINE
  8
_0-8_笠木他
  6
CONTINUOUS
 62
    4
 10
833.73432440637771
 20
690.94424827766318
 11
833.73432440637771
 21
687.94434827766338
  0
LINE
  8
_0-8_笠木他
  6
CONTINUOUS
 62
    4
 10
846.23442440637746
 20
684.94424827766409
 11
841.73422440637751
 21
684.94424827766409
  0
LINE
  8
_0-8_笠木他
  6
CONTINUOUS
 62
    4
 10
833.73432440637771
 20
690.94424827766318
 11
835.73432440637816
 21
690.94424827766318
  0
LINE
  8
_0-8_笠木他
  6
CONTINUOUS
 62
    4
 10
841.73422440637751
 20
684.94424827766409
 11
841.21332440637843
 21
687.89834827766356
  0
LINE
  8
_0-8_笠木他
  6
CONTINUOUS
 62
    4
 10
843.23432440637816
 20
684.94424827766409
 11
843.23432440637816
 21
689.2443482776622
  0
LINE
  8
_0-8_笠木他
  6
CONTINUOUS
 62
    4
 10
849.23422440637751
 20
684.94424827766409
 11
849.23422440637751
 21
689.2443482776622
  0
LINE
  8
_0-8_笠木他
  6
CONTINUOUS
 62
    4
 10
858.73432440637771
 20
687.94434827766338
 11
858.73432440637771
 21
690.94424827766318
  0
LINE
  8
_0-8_笠木他
  6
CONTINUOUS
 62
    4
 10
849.23422440637751
 20
689.2443482776622
 11
843.23432440637816
 21
689.2443482776622
  0
LINE
  8
_0-8_笠木他
  6
CONTINUOUS
 62
    4
 10
874.57922440637958
 20
678.8563482776641
 11
879.49532440637768
 21
697.20324827766319
  0
LINE
  8
_0-8_笠木他
  6
CONTINUOUS
 62
    4
 10
883.84222440637814
 20
696.03824827766232
 11
878.62832440637703
 21
676.57924827766294
  0
ARC
  8
_0-8_笠木他
  6
CONTINUOUS
 62
    4
 10
840.73442440637791
 20
672.74434827766356
 40
0.4999999
 50
90
 51
270
  0
ARC
  8
_0-8_笠木他
  6
CONTINUOUS
 62
    4
 10
874.50832440637896
 20
697.44424827766409
 40
9.9999996000000007
 50
90
 51
165.00000000000003
  0
ARC
  8
_0-8_笠木他
  6
CONTINUOUS
 62
    4
 10
874.50832440637896
 20
697.44424827766409
 40
3.7999997000000008
 50
90
 51
165.00000000000099
  0
ARC
  8
_0-8_笠木他
  6
CONTINUOUS
 62
    4
 10
855.89722440637843
 20
685.94424827766318
 40
4.9999998000000101
 50
270
 51
345.00000000000199
  0
ARC
  8
_0-8_笠木他
  6
CONTINUOUS
 62
    4
 10
855.89722440637843
 20
685.94424827766318
 40
11.199999999999999
 50
312.929990000001
 51
345.00000000000199
  0
ARC
  8
_0-8_笠木他
  6
CONTINUOUS
 62
    4
 10
849.0903244063793
 20
690.58824827766387
 40
9.9999996000000007
 50
285.32997999999998
 51
344.66999000000101
  0
ARC
  8
_0-8_笠木他
  6
CONTINUOUS
 62
    4
 10
856.45032440637806
 20
684.89624827766249
 40
6.0000000000000231
 50
84.329986000000702
 51
149.96998000000099
  0
ARC
  8
_0-8_笠木他
  6
CONTINUOUS
 62
    4
 10
843.3783244063784
 20
690.58824827766387
 40
9.9999996000000007
 50
195.32998000000001
 51
254.66999000000101
  0
ARC
  8
_0-8_笠木他
  6
CONTINUOUS
 62
    4
 10
836.01832440637736
 20
684.89624827766249
 40
6.0000000000000231
 50
30.029998000000205
 51
95.669997999999893
  0
ARC
  8
_0-8_笠木他
  6
CONTINUOUS
 62
    4
 10
873.13022440637724
 20
679.2443482776622
 40
1.5000000000000002
 50
270
 51
344.99999999999801
  0
ARC
  8
_0-8_笠木他
  6
CONTINUOUS
 62
    4
 10
874.28122440637708
 20
677.74424827766381
 40
4.5
 50
270
 51
345
  0
LINE
  8
_0-8_笠木他
  6
CONTINUOUS
 62
    4
 10
897.73432440637862
 20
673.24434827766311
 11
874.28122440637708
 21
673.24434827766311
  0
LINE
  8
_0-8_笠木他
  6
CONTINUOUS
 62
    4
 10
855.2342244063766
 20
671.7443482776622
 11
897.73432440637862
 21
671.7443482776622
  0
LINE
  8
_0-8_笠木他
  6
CONTINUOUS
 62
    4
 10
901.73432440637953
 20
656.24434827766265
 11
903.23432440637816
 21
656.24434827766265
  0
LINE
  8
_0-8_笠木他
  6
CONTINUOUS
 62
    4
 10
903.23432440637816
 20
673.74434827766265
 11
903.23432440637816
 21
656.24434827766265
  0
LINE
  8
_0-8_笠木他
  6
CONTINUOUS
 62
    4
 10
901.73432440637953
 20
656.24434827766265
 11
901.73432440637953
 21
674.24424827766245
  0
LINE
  8
_0-8_笠木他
  6
CONTINUOUS
 62
    4
 10
872.2343244063768
 20
671.24434827766265
 11
872.2343244063768
 21
671.7443482776622
  0
LINE
  8
_0-8_笠木他
  6
CONTINUOUS
 62
    4
 10
866.23442440637746
 20
671.24434827766265
 11
866.23442440637746
 21
671.7443482776622
  0
LINE
  8
_0-8_笠木他
  6
CONTINUOUS
 62
    4
 10
872.2343244063768
 20
671.24434827766265
 11
866.23442440637746
 21
671.24434827766265
  0
LINE
  8
_0-8_笠木他
  6
CONTINUOUS
 62
    4
 10
855.2342244063766
 20
673.24434827766311
 11
855.2342244063766
 21
671.7443482776622
  0
ARC
  8
_0-8_笠木他
  6
CONTINUOUS
 62
    4
 10
851.73422440637751
 20
672.74434827766356
 40
0.4999999
 50
270
 51
90
  0
LINE
  8
_0-8_笠木他
  6
CONTINUOUS
 62
    4
 10
916.16332440637962
 20
707.44424827766409
 11
874.50832440637896
 21
707.44424827766409
  0
LINE
  8
_0-8_笠木他
  6
CONTINUOUS
 62
    4
 10
929.39022440637928
 20
709.83224827766264
 11
924.08342440637853
 21
704.52424827766265
  0
LINE
  8
_0-8_笠木他
  6
CONTINUOUS
 62
    4
 10
925.30522440637924
 20
714.51524827766264
 11
919.69832440637674
 21
708.90834827766241
  0
LINE
  8
_0-8_笠木他
  6
CONTINUOUS
 62
    4
 10
942.23422440637933
 20
666.94434827766429
 11
942.23422440637933
 21
701.94434827766429
  0
LINE
  8
_0-8_笠木他
  6
CONTINUOUS
 62
    4
 10
937.03412440637749
 20
706.83724827766412
 11
937.03412440637749
 21
701.94434827766429
  0
LINE
  8
_0-8_笠木他
  6
CONTINUOUS
 62
    4
 10
943.23422440637842
 20
707.44424827766409
 11
943.23422440637842
 21
701.94434827766429
  0
LINE
  8
_0-8_笠木他
  6
CONTINUOUS
 62
    4
 10
937.03412440637749
 20
648.44424827766318
 11
937.03412440637749
 21
666.94434827766429
  0
LINE
  8
_0-8_笠木他
  6
CONTINUOUS
 62
    4
 10
943.73432440637771
 20
666.94434827766429
 11
935.53432440637835
 21
666.94434827766429
  0
LINE
  8
_0-8_笠木他
  6
CONTINUOUS
 62
    4
 10
943.73432440637771
 20
666.94434827766429
 11
943.73432440637771
 21
701.94434827766429
  0
LINE
  8
_0-8_笠木他
  6
CONTINUOUS
 62
    4
 10
935.53432440637835
 20
701.94434827766429
 11
935.53432440637835
 21
666.94434827766429
  0
LINE
  8
_0-8_笠木他
  6
CONTINUOUS
 62
    4
 10
935.53432440637835
 20
701.94434827766429
 11
943.73432440637771
 21
701.94434827766429
  0
LINE
  8
_0-8_笠木他
  6
CONTINUOUS
 62
    4
 10
933.23442440637791
 20
717.44424827766409
 11
932.37632440637753
 21
717.44424827766409
  0
LINE
  8
_0-8_笠木他
  6
CONTINUOUS
 62
    4
 10
941.73422440637751
 20
646.44434827766247
 11
941.73422440637751
 21
634.44434827766429
  0
LINE
  8
_0-8_笠木他
  6
CONTINUOUS
 62
    4
 10
943.23422440637842
 20
646.44434827766247
 11
939.03432440637971
 21
646.44434827766247
  0
LINE
  8
_0-8_笠木他
  6
CONTINUOUS
 62
    4
 10
943.23422440637842
 20
634.44434827766429
 11
941.73422440637751
 21
634.44434827766429
  0
LINE
  8
_0-8_笠木他
  6
CONTINUOUS
 62
    4
 10
943.23422440637842
 20
634.44434827766429
 11
943.23422440637842
 21
666.94434827766429
  0
LINE
  8
_0-8_笠木他
  6
CONTINUOUS
 62
    4
 10
905.23432440637862
 20
679.74424827766427
 11
901.23442440637746
 21
679.74424827766427
  0
LINE
  8
_0-8_笠木他
  6
CONTINUOUS
 62
    4
 10
905.23432440637862
 20
678.24434827766311
 11
901.23442440637746
 21
678.24434827766311
  0
LINE
  8
_0-8_笠木他
  6
CONTINUOUS
 62
    4
 10
900.2342244063766
 20
677.24434827766402
 11
900.2342244063766
 21
674.24424827766245
  0
LINE
  8
_0-8_笠木他
  6
CONTINUOUS
 62
    4
 10
898.73432440637771
 20
677.24434827766402
 11
898.73432440637771
 21
674.24424827766245
  0
LINE
  8
_0-8_笠木他
  6
CONTINUOUS
 62
    4
 10
905.23432440637862
 20
679.74424827766427
 11
905.23432440637862
 21
678.24434827766311
  0
LINE
  8
_0-8_笠木他
  6
CONTINUOUS
 62
    4
 10
913.23442440637791
 20
701.24434827766265
 11
911.4773244063781
 21
701.24434827766265
  0
LINE
  8
_0-8_笠木他
  6
CONTINUOUS
 62
    4
 10
913.23442440637791
 20
702.74424827766381
 11
910.58822440637869
 21
702.74424827766381
  0
LINE
  8
_0-8_笠木他
  6
CONTINUOUS
 62
    4
 10
916.73422440637751
 20
676.74424827766245
 11
916.73422440637751
 21
699.2443482776622
  0
LINE
  8
_0-8_笠木他
  6
CONTINUOUS
 62
    4
 10
915.23432440637862
 20
676.74424827766245
 11
915.23432440637862
 21
699.2443482776622
  0
LINE
  8
_0-8_笠木他
  6
CONTINUOUS
 62
    4
 10
907.2343244063768
 20
704.2443482776622
 11
888.67132440637761
 21
704.2443482776622
  0
LINE
  8
_0-8_笠木他
  6
CONTINUOUS
 62
    4
 10
913.23442440637791
 20
699.74434827766402
 11
888.67132440637761
 21
699.74434827766402
  0
LINE
  8
_0-8_笠木他
  6
CONTINUOUS
 62
    4
 10
913.73432440637771
 20
676.74424827766245
 11
913.73432440637771
 21
699.2443482776622
  0
ARC
  8
_0-8_笠木他
  6
CONTINUOUS
 62
    4
 10
916.16332440637962
 20
712.44424827766409
 40
11.199999999999999
 50
270
 51
315.00000000000102
  0
ARC
  8
_0-8_笠木他
  6
CONTINUOUS
 62
    4
 10
932.62742440637794
 20
706.83724827766412
 40
4.4099997999999996
 50
0
 51
137.22549000000001
  0
ARC
  8
_0-8_笠木他
  6
CONTINUOUS
 62
    4
 10
916.16332440637962
 20
712.44424827766409
 40
4.9999998000000101
 50
270
 51
315.00000000000102
  0
ARC
  8
_0-8_笠木他
  6
CONTINUOUS
 62
    4
 10
932.37632440637753
 20
707.44424827766409
 40
9.9999996000000007
 50
90
 51
135
  0
ARC
  8
_0-8_笠木他
  6
CONTINUOUS
 62
    4
 10
933.23442440637791
 20
707.44424827766409
 40
9.9999996000000007
 50
0
 51
90
  0
ARC
  8
_0-8_笠木他
  6
CONTINUOUS
 62
    4
 10
939.03432440637971
 20
648.44424827766318
 40
1.9999999000000002
 50
180
 51
270
  0
ARC
  8
_0-8_笠木他
  6
CONTINUOUS
 62
    4
 10
901.23442440637746
 20
677.24434827766402
 40
2.4999999000000002
 50
90
 51
180
  0
ARC
  8
_0-8_笠木他
  6
CONTINUOUS
 62
    4
 10
901.23442440637746
 20
677.24434827766402
 40
0.9999999000000003
 50
90
 51
180
  0
ARC
  8
_0-8_笠木他
  6
CONTINUOUS
 62
    4
 10
903.73442440637746
 20
674.24424827766245
 40
1.9999999000000002
 50
90
 51
180
  0
ARC
  8
_0-8_笠木他
  6
CONTINUOUS
 62
    4
 10
888.67132440637761
 20
694.74434827766402
 40
9.4999995000000101
 50
90
 51
165.00000000000003
  0
ARC
  8
_0-8_笠木他
  6
CONTINUOUS
 62
    4
 10
888.67132440637761
 20
694.74434827766402
 40
4.9999998000000101
 50
90
 51
165.00000000000099
  0
ARC
  8
_0-8_笠木他
  6
CONTINUOUS
 62
    4
 10
913.23442440637791
 20
676.74424827766245
 40
3.4999997999999999
 50
270
 51
0
  0
ARC
  8
_0-8_笠木他
  6
CONTINUOUS
 62
    4
 10
913.23442440637791
 20
676.74424827766245
 40
1.9999999000000002
 50
270
 51
0
  0
ARC
  8
_0-8_笠木他
  6
CONTINUOUS
 62
    4
 10
913.23442440637791
 20
699.2443482776622
 40
3.4999997999999999
 50
0
 51
90
  0
ARC
  8
_0-8_笠木他
  6
CONTINUOUS
 62
    4
 10
913.23442440637791
 20
699.2443482776622
 40
1.9999999000000002
 50
0
 51
90
  0
ARC
  8
_0-8_笠木他
  6
CONTINUOUS
 62
    4
 10
913.23442440637791
 20
676.74424827766245
 40
0.4999999
 50
270
 51
0
  0
ARC
  8
_0-8_笠木他
  6
CONTINUOUS
 62
    4
 10
913.23442440637791
 20
699.2443482776622
 40
0.4999999
 50
0
 51
90
  0
ARC
  8
_0-8_笠木他
  6
CONTINUOUS
 62
    4
 10
907.2343244063768
 20
699.74434827766402
 40
4.5
 50
0
 51
90
  0
LINE
  8
_0-8_笠木他
  6
CONTINUOUS
 62
    4
 10
874.50832440637896
 20
701.24434827766265
 11
881.74322440637752
 21
701.24434827766265
  0
LINE
  8
_0-8_笠木他
  6
CONTINUOUS
 62
    4
 10
913.23442440637791
 20
673.24434827766311
 11
911.73432440637953
 21
673.24434827766311
  0
LINE
  8
_0-8_笠木他
  6
CONTINUOUS
 62
    4
 10
913.23442440637791
 20
674.74424827766427
 11
904.23422440637751
 21
674.74424827766427
  0
ARC
  8
_0-8_笠木他
  6
CONTINUOUS
 62
    4
 10
897.73432440637862
 20
674.24424827766245
 40
2.4999999000000002
 50
270
 51
0
  0
ARC
  8
_0-8_笠木他
  6
CONTINUOUS
 62
    4
 10
897.73432440637862
 20
674.24424827766245
 40
0.9999999000000003
 50
270
 51
0
  0
ARC
  8
_0-8_笠木他
  6
CONTINUOUS
 62
    4
 10
904.23422440637751
 20
673.74434827766265
 40
0.9999999000000003
 50
90
 51
180
  0
ARC
  8
_0-8_笠木他
  6
CONTINUOUS
 62
    4
 10
911.73432440637953
 20
674.74424827766427
 40
1.5000000000000002
 50
180
 51
270
  0
LINE
  8
_0-8_笠木他
  6
CONTINUOUS
 62
    4
 10
768.23432440637816
 20
711.7443482776622
 11
758.73432440637771
 21
711.7443482776622
  0
LINE
  8
_0-8_笠木他
  6
CONTINUOUS
 62
    4
 10
768.23432440637816
 20
710.24424827766381
 11
768.23432440637816
 21
711.7443482776622
  0
LINE
  8
_0-8_笠木他
  6
CONTINUOUS
 62
    4
 10
763.23432440637816
 20
710.24424827766381
 11
763.23432440637816
 21
711.7443482776622
  0
LINE
  8
_0-8_笠木他
  6
CONTINUOUS
 62
    4
 10
758.73432440637771
 20
707.24414827766225
 11
760.23432440637862
 21
707.24414827766225
  0
LINE
  8
_0-8_笠木他
  6
CONTINUOUS
 62
    4
 10
768.23432440637816
 20
710.24424827766381
 11
763.23432440637816
 21
710.24424827766381
  0
LINE
  8
_0-8_笠木他
  6
CONTINUOUS
 62
    4
 10
758.73432440637771
 20
707.24414827766225
 11
758.73432440637771
 21
679.74424827766427
  0
LINE
  8
_0-8_笠木他
  6
CONTINUOUS
 62
    4
 10
756.23442440637746
 20
666.74424827766245
 11
756.23442440637746
 21
615.24424827766154
  0
LINE
  8
_0-8_笠木他
  6
CONTINUOUS
 62
    4
 10
760.73432440637816
 20
615.24424827766154
 11
760.73432440637816
 21
666.74424827766245
  0
LINE
  8
_0-8_笠木他
  6
CONTINUOUS
 62
    4
 10
771.23442440637746
 20
608.7442482776629
 11
762.7342244063766
 21
608.7442482776629
  0
LINE
  8
_0-8_笠木他
  6
CONTINUOUS
 62
    4
 10
783.23442440637791
 20
668.7442482776629
 11
762.7342244063766
 21
668.7442482776629
  0
LINE
  8
_0-8_笠木他
  6
CONTINUOUS
 62
    4
 10
766.23442440637746
 20
613.24434827766311
 11
762.7342244063766
 21
613.24434827766311
  0
LINE
  8
_0-8_笠木他
  6
CONTINUOUS
 62
    4
 10
760.69825100897788
 20
673.24434827766311
 11
874.28122440637708
 21
673.24434827766311
  0
ARC
  8
_0-8_笠木他
  6
CONTINUOUS
 62
    4
 10
760.23432440637862
 20
710.24424827766381
 40
3.0000000000000004
 50
270
 51
0
  0
ARC
  8
_0-8_笠木他
  6
CONTINUOUS
 62
    4
 10
760.73432440637816
 20
679.74424827766427
 40
6.5000001000000029
 50
180
 51
270
  0
ARC
  8
_0-8_笠木他
  6
CONTINUOUS
 62
    4
 10
760.73432440637816
 20
679.74424827766427
 40
1.9999999000000002
 50
180
 51
270
  0
ARC
  8
_0-8_笠木他
  6
CONTINUOUS
 62
    4
 10
758.73432440637771
 20
707.24414827766225
 40
4.5
 50
90
 51
180
  0
ARC
  8
_0-8_笠木他
  6
CONTINUOUS
 62
    4
 10
766.23442440637746
 20
610.24424827766154
 40
3.0000000000000004
 50
0
 51
90
  0
ARC
  8
_0-8_笠木他
  6
CONTINUOUS
 62
    4
 10
762.7342244063766
 20
615.24424827766154
 40
6.5000001000000029
 50
180
 51
270
  0
ARC
  8
_0-8_笠木他
  6
CONTINUOUS
 62
    4
 10
762.7342244063766
 20
666.74424827766245
 40
6.5000001000000029
 50
90
 51
180
  0
ARC
  8
_0-8_笠木他
  6
CONTINUOUS
 62
    4
 10
762.7342244063766
 20
666.74424827766245
 40
1.9999999000000002
 50
90
 51
180
  0
ARC
  8
_0-8_笠木他
  6
CONTINUOUS
 62
    4
 10
762.7342244063766
 20
615.24424827766154
 40
1.9999999000000002
 50
180
 51
270
  0
LINE
  8
_0-8_笠木他
  6
CONTINUOUS
 62
    4
 10
873.13022440637724
 20
677.74424827766381
 11
760.73432440637816
 21
677.74424827766381
  0
LINE
  8
_0-8_笠木他
  6
CONTINUOUS
 62
    4
 10
774.23422440637751
 20
592.74424827766154
 11
774.23422440637751
 21
605.74424827766336
  0
LINE
  8
_0-8_笠木他
  6
CONTINUOUS
 62
    4
 10
775.73432440637816
 20
605.74424827766336
 11
775.73432440637816
 21
592.74424827766154
  0
LINE
  8
_0-8_笠木他
  6
CONTINUOUS
 62
    4
 10
775.73432440637816
 20
592.74424827766154
 11
774.23422440637751
 21
592.74424827766154
  0
ARC
  8
_0-8_笠木他
  6
CONTINUOUS
 62
    4
 10
771.23442440637746
 20
605.74424827766336
 40
3.0000000000000004
 50
0
 51
90
  0
ARC
  8
_0-8_笠木他
  6
CONTINUOUS
 62
    4
 10
771.23442440637746
 20
605.74424827766336
 40
4.5
 50
0
 51
90
  0
LINE
  8
_0-8_笠木他
  6
CONTINUOUS
 62
    4
 10
771.23442440637746
 20
610.24424827766154
 11
769.23422440637751
 21
610.24424827766154
  0
LINE
  8
_0-8_笠木他
  6
CONTINUOUS
 62
    4
 10
769.23422440637751
 20
610.24424827766154
 11
769.23422440637751
 21
608.7442482776629
  0
LINE
  8
_0-8_笠木他
  6
CONTINUOUS
 62
    4
 10
791.23432440637771
 20
671.74424827766245
 11
791.23432440637771
 21
673.24434827766311
  0
LINE
  8
_0-8_笠木他
  6
CONTINUOUS
 62
    4
 10
786.23432440637771
 20
671.74424827766245
 11
791.23432440637771
 21
671.74424827766245
  0
LINE
  8
_0-8_笠木他
  6
CONTINUOUS
 62
    4
 10
786.23432440637771
 20
671.74424827766245
 11
786.23432440637771
 21
673.24434827766311
  0
ARC
  8
_0-8_笠木他
  6
CONTINUOUS
 62
    4
 10
783.23442440637791
 20
671.74424827766245
 40
3.0000000000000004
 50
270
 51
0
  0
LINE
  8
_0-7_ビス
  6
CENTER1
 62
    4
 10
935.53432440637835
 20
696.94434827766429
 11
985.53432440637835
 21
696.94434827766429
  0
LINE
  8
_0-7_ビス
  6
CENTER1
 62
    4
 10
985.53432440637835
 20
671.94434827766429
 11
935.53432440637835
 21
671.94434827766429
  0
TEXT
  8
_0-a_文字
 62
    7
 10
1067.4999999999952
 20
327.50000000000341
 40
15.000000000000213
 41
0.9999999999999907
 50
0
  1
※ 断熱材の種類が硬質ウレタンフォームの場合、ラジアルシートＬ６００の敷設は不要
  0
TEXT
  8
_0-a_文字
 62
    7
 10
1067.4999999999952
 20
287.50000000000341
 40
15.000000000000213
 41
0.9999999999999905
 50
0
  1
※ 本図面は防水納まりの参考図であり、下地等の構造を保証するものではありません
  0
TEXT
  8
_0-a_文字
 62
    7
 10
1067.4999999999952
 20
307.50000000000341
 40
15.000000000000213
 41
0.9999999999999905
 50
0
  1
※ デッキ端部などの開口部には、必要に応じ遮炎性を満たす処理をお願いします（別途工事）
  0
ENDSEC
  0
EOF
