  0
SECTION
  2
HEADER
  9
$ACADVER
  1
AC1009
  9
$INSBASE
 10
0
 20
0
 30
0
  9
$EXTMIN
 10
0
 20
0
  9
$EXTMAX
 10
2100
 20
1485
  9
$LIMMIN
 10
0
 20
0
  9
$LIMMAX
 10
2100
 20
1485
  9
$LTSCALE
 40
5
  0
ENDSEC
  0
SECTION
  2
TABLES
  0
TABLE
  2
LTYPE
 70
     9
  0
LTYPE
  2
CONTINUOUS
 70
    64
  3
実線
 72
    65
 73
     0
 40
0.0
  0
LTYPE
  2
DASHED1
 70
    64
  3
--  --  --  --  --  --  --  --  
 72
    65
 73
     2
 40
2.5
 49
1.25
 49
-1.25
  0
LTYPE
  2
DASHED2
 70
    64
  3
----    ----    ----    ----    
 72
    65
 73
     2
 40
5.0
 49
2.5
 49
-2.5
  0
LTYPE
  2
DASHED3
 70
    64
  3
------  ------  ------  ------  
 72
    65
 73
     2
 40
5.0
 49
3.75
 49
-1.25
  0
LTYPE
  2
CENTER1
 70
    64
  3
----- - ----- - ----- - ----- - 
 72
    65
 73
     4
 40
10.0
 49
6.25
 49
-1.25
 49
1.25
 49
-1.25
  0
LTYPE
  2
CENTER2
 70
    64
  3
----------  --  ----------  --  
 72
    65
 73
     4
 40
20.0
 49
12.5
 49
-2.5
 49
2.5
 49
-2.5
  0
LTYPE
  2
PHANTOM1
 70
    64
  3
--- - - --- - - --- - - --- - - 
 72
    65
 73
     6
 40
10.0
 49
3.25
 49
-1.25
 49
1.25
 49
-1.25
 49
1.25
 49
-1.25
  0
LTYPE
  2
PHANTOM2
 70
    64
  3
--------  -  -  --------  -  -  
 72
    65
 73
     6
 40
20.0
 49
10.0
 49
-2.5
 49
1.25
 49
-2.5
 49
1.25
 49
-2.5
  0
LTYPE
  2
DOT
 70
    64
  3
-   -   -   -   -   -   -   -   
 72
    65
 73
     2
 40
2.5
 49
0.625
 49
-1.875
  0
LTYPE
  2
DUMMY
 70
    64
  3
ダミー
 72
    65
 73
     0
 40
0.0
  0
LTYPE
  2
RAND1
 70
    64
  3
ランダム線1
 72
    65
 73
     4
 40
10.0
 49
1.0
 49
-2.0
 49
3.0
 49
-4.0
  0
LTYPE
  2
RAND2
 70
    64
  3
ランダム線2
 72
    65
 73
     4
 40
14.0
 49
2.0
 49
-3.0
 49
4.0
 49
-5.0
  0
LTYPE
  2
RAND3
 70
    64
  3
ランダム線3
 72
    65
 73
     4
 40
18.0
 49
3.0
 49
-4.0
 49
5.0
 49
-6.0
  0
LTYPE
  2
RAND4
 70
    64
  3
ランダム線4
 72
    65
 73
     4
 40
22.0
 49
4.0
 49
-5.0
 49
6.0
 49
-7.0
  0
LTYPE
  2
RAND5
 70
    64
  3
ランダム線5
 72
    65
 73
     4
 40
26.0
 49
5.0
 49
-6.0
 49
7.0
 49
-8.0
  0
LTYPE
  2
LONG1
 70
    64
  3
----------  --  ----------  --  
 72
    65
 73
     4
 40
40.0
 49
32.5
 49
-2.5
 49
2.5
 49
-2.5
  0
LTYPE
  2
LONG2
 70
    64
  3
--------  -  -  --------  -  -  
 72
    65
 73
     6
 40
40.0
 49
30.0
 49
-2.5
 49
1.25
 49
-2.5
 49
1.25
 49
-2.5
  0
LTYPE
  2
LONG3
 70
    64
  3
+++++++++++++++..+++++++++++++++
 72
    65
 73
     2
 40
40.0
 49
37.5
 49
-2.5
  0
LTYPE
  2
LONG4
 70
    64
  3
+++++++++++++++..+++++++++++++++
 72
    65
 73
     2
 40
80.0
 49
75.0
 49
-5.0
  0
LTYPE
  2
LONG5
 70
    64
  3
----------  --  ----------  --  
 72
    65
 73
     4
 40
60.0
 49
37.5
 49
-7.5
 49
7.5
 49
-7.5
  0
LTYPE
  2
dashed
 70
   64
  3
-------   -------------   ------
 72
   65
 73
    2
 40
7.5
 49
6
 49
-1.5
  0
LTYPE
  2
dashed_spaced
 70
   64
  3
----        --------        ----
 72
   65
 73
    2
 40
12
 49
6
 49
-6
  0
LTYPE
  2
long_dashed_dotted
 70
   64
  3
------------- --- --------------
 72
   65
 73
    4
 40
15.25
 49
12
 49
-1.5
 49
0.25
 49
-1.5
  0
LTYPE
  2
long_dashed_double-dotted
 70
   64
  3
----------- --- --- ------------
 72
   65
 73
    6
 40
17
 49
12
 49
-1.5
 49
0.25
 49
-1.5
 49
0.25
 49
-1.5
  0
LTYPE
  2
long_dashed_triplicate-dotted
 70
   64
  3
--------- --- --- --- ----------
 72
   65
 73
    8
 40
18.75
 49
12
 49
-1.5
 49
0.25
 49
-1.5
 49
0.25
 49
-1.5
 49
0.25
 49
-1.5
  0
LTYPE
  2
dotted
 70
   64
  3
   -       -       -       -    
 72
   65
 73
    2
 40
1.75
 49
0.25
 49
-1.5
  0
LTYPE
  2
chain
 70
   64
  3
-------------- -- --------------
 72
   65
 73
    4
 40
18.5
 49
12
 49
-1.5
 49
3.5
 49
-1.5
  0
LTYPE
  2
chain_double_dash
 70
   64
  3
------------ -- -- -------------
 72
   65
 73
    6
 40
23.5
 49
12
 49
-1.5
 49
3.5
 49
-1.5
 49
3.5
 49
-1.5
  0
LTYPE
  2
dashed_dotted
 70
   64
  3
-----------     -     ----------
 72
   65
 73
    4
 40
9.25
 49
6
 49
-1.5
 49
0.25
 49
-1.5
  0
LTYPE
  2
double-dashed_dotted
 70
   64
  3
------   -----------   -   -----
 72
   65
 73
    6
 40
16.75
 49
6
 49
-1.5
 49
6
 49
-1.5
 49
0.25
 49
-1.5
  0
LTYPE
  2
dashed_double-dotted
 70
   64
  3
---------    -    -    ---------
 72
   65
 73
    6
 40
11
 49
6
 49
-1.5
 49
0.25
 49
-1.5
 49
0.25
 49
-1.5
  0
LTYPE
  2
double-dashed_double-dotted
 70
   64
  3
-----   ---------   -   -   ----
 72
   65
 73
    8
 40
18.5
 49
6
 49
-1.5
 49
6
 49
-1.5
 49
0.25
 49
-1.5
 49
0.25
 49
-1.5
  0
LTYPE
  2
dashed_triplicate-dotted
 70
   64
  3
-------    -    -    -    ------
 72
   65
 73
    8
 40
12.75
 49
6
 49
-1.5
 49
0.25
 49
-1.5
 49
0.25
 49
-1.5
 49
0.25
 49
-1.5
  0
LTYPE
  2
double-dashed_triplicate-dotted
 70
   64
  3
-----  ---------  -  -  -  -----
 72
   65
 73
   10
 40
20.25
 49
6
 49
-1.5
 49
6
 49
-1.5
 49
0.25
 49
-1.5
 49
0.25
 49
-1.5
 49
0.25
 49
-1.5
  0
LTYPE
  2
undefined
 70
   64
  3
--------------------------------
 72
   65
 73
    0
 40
0
  0
ENDTAB
  0
TABLE
  2
STYLE
  5
3
100
AcDbSymbolTable
 70
     1
  0
STYLE
  5
10
100
AcDbSymbolTableRecord
100
AcDbTextStyleTableRecord
  2
STANDARD
 70
     0
 40
0.0
 41
1.0
 50
0.0
 71
     0
 42
0.2
  3
txt
  4
bigfont.shx
  0
STYLE
  5
26
100
AcDbSymbolTableRecord
100
AcDbTextStyleTableRecord
  2
TATEGAKI
 70
    68
 40
0.0
 41
1.0
 50
0.0
 71
     0
 42
1.0
  3
txt
  4
bigfont.shx
  0
ENDTAB
  0
TABLE
  2
LAYER
 70
   15
  0
LAYER
  2
_2-2_in_line
 70
   64
 62
    7
  6
CONTINUOUS
  0
LAYER
  2
_2-3_
 70
   64
 62
    7
  6
CONTINUOUS
  0
LAYER
  2
_2-4_out_line
 70
   64
 62
    7
  6
CONTINUOUS
  0
LAYER
  2
_2-6_鋼板__アングル
 70
   64
 62
    7
  6
CONTINUOUS
  0
LAYER
  2
_2-7_ビス
 70
   64
 62
    7
  6
CONTINUOUS
  0
LAYER
  2
_2-a_moji
 70
   64
 62
    7
  6
CONTINUOUS
  0
LAYER
  2
_2-b_dim
 70
   64
 62
    7
  6
CONTINUOUS
  0
LAYER
  2
_2-d_ハッチ他
 70
   64
 62
    7
  6
CONTINUOUS
  0
LAYER
  2
_2-e_con他
 70
   64
 62
    7
  6
CONTINUOUS
  0
LAYER
  2
_f-2_
 70
   64
 62
    7
  6
CONTINUOUS
  0
LAYER
  2
_f-5_
 70
   64
 62
    7
  6
CONTINUOUS
  0
LAYER
  2
_f-7_
 70
   64
 62
    7
  6
CONTINUOUS
  0
LAYER
  2
_f-8_
 70
   64
 62
    7
  6
CONTINUOUS
  0
LAYER
  2
_f-a_
 70
   64
 62
    7
  6
CONTINUOUS
  0
LAYER
  2
ADD_LINE
 70
   64
 62
    7
  6
CONTINUOUS
  0
ENDTAB
  0
ENDSEC
  0
SECTION
  2
BLOCKS
  0
ENDSEC
  0
SECTION
  2
ENTITIES
  0
LINE
  8
ADD_LINE
  6
DOT
 62
  136
 10
1530.2801079879473
 20
1449.5651356325111
 11
1530.2801079879473
 21
19.565135632511073
  0
LINE
  8
ADD_LINE
  6
DOT
 62
  136
 10
530.28010798794617
 20
1449.5651356325111
 11
1530.2801079879473
 21
1449.5651356325111
  0
LINE
  8
ADD_LINE
  6
DOT
 62
  136
 10
530.28010798794617
 20
1449.5651356325111
 11
530.28010798794617
 21
19.565135632511073
  0
LINE
  8
_f-7_
  6
CONTINUOUS
 62
    1
 10
630.28010798794617
 20
1349.5651356325111
 11
1430.2801079879473
 21
1349.5651356325111
  0
LINE
  8
_f-7_
  6
CONTINUOUS
 62
    1
 10
630.28010798794617
 20
759.5651356325111
 11
1430.2801079879473
 21
759.5651356325111
  0
LINE
  8
ADD_LINE
  6
DOT
 62
  136
 10
630.28010798794617
 20
779.5651356325111
 11
1430.2801079879473
 21
779.5651356325111
  0
LINE
  8
_f-7_
  6
CONTINUOUS
 62
    1
 10
630.28010798794617
 20
709.5651356325111
 11
1430.2801079879473
 21
709.5651356325111
  0
LINE
  8
_f-5_
  6
CONTINUOUS
 62
    6
 10
630.28010798794617
 20
799.5651356325111
 11
1430.2801079879473
 21
799.5651356325111
  0
LINE
  8
_f-7_
  6
CONTINUOUS
 62
    1
 10
630.28010798794617
 20
119.56513563251107
 11
1430.2801079879473
 21
119.56513563251107
  0
LINE
  8
ADD_LINE
  6
DOT
 62
  136
 10
630.28010798794617
 20
139.56513563251107
 11
1430.2801079879473
 21
139.56513563251107
  0
LINE
  8
_f-5_
  6
CONTINUOUS
 62
    6
 10
630.28010798794617
 20
159.56513563251107
 11
1430.2801079879473
 21
159.56513563251107
  0
LINE
  8
ADD_LINE
  6
DOT
 62
  136
 10
1530.2801079879473
 20
19.565135632511073
 11
530.28010798794389
 21
19.565135632511073
  0
LINE
  8
_f-7_
  6
CONTINUOUS
 62
    1
 10
1430.2801079879473
 20
1349.5651356325111
 11
1430.2801079879473
 21
759.5651356325111
  0
LINE
  8
_f-7_
  6
CONTINUOUS
 62
    1
 10
630.28010798794617
 20
1349.5651356325111
 11
630.28010798794617
 21
759.5651356325111
  0
LINE
  8
_f-7_
  6
CONTINUOUS
 62
    1
 10
630.28010798794617
 20
709.5651356325111
 11
630.28010798794617
 21
119.56513563251107
  0
LINE
  8
_f-7_
  6
CONTINUOUS
 62
    1
 10
1430.2801079879473
 20
709.5651356325111
 11
1430.2801079879473
 21
119.56513563251107
  0
LINE
  8
ADD_LINE
  6
DOT
 62
  136
 10
1010.2801079879462
 20
159.56513563251107
 11
1010.2801079879462
 21
119.56513563251107
  0
LINE
  8
ADD_LINE
  6
DOT
 62
  136
 10
1010.2801079879462
 20
799.5651356325111
 11
1010.2801079879462
 21
759.5651356325111
  0
TEXT
  8
_f-a_
 62
    7
 10
1010.2801079879462
 20
769.5651356325111
 40
17.5
 41
1
 50
0
  1
部位：立上り角
  0
TEXT
  8
_f-a_
 62
    7
 10
1010.2801079879462
 20
129.56513563251107
 40
17.5
 41
1
 50
0
  1
部位：立上り角
  0
LINE
  8
ADD_LINE
  6
DOT
 62
  136
 10
1315.2801079879473
 20
799.5651356325111
 11
1315.2801079879473
 21
759.5651356325111
  0
LINE
  8
_f-2_
  6
CONTINUOUS
 62
    7
 10
1300.2801079879473
 20
799.5651356325111
 11
1300.2801079879473
 21
759.5651356325111
  0
LINE
  8
ADD_LINE
  6
DOT
 62
  136
 10
1210.2801079879473
 20
799.5651356325111
 11
1210.2801079879473
 21
759.5651356325111
  0
LINE
  8
_f-2_
  6
CONTINUOUS
 62
    7
 10
1195.2801079879473
 20
799.5651356325111
 11
1195.2801079879473
 21
759.5651356325111
  0
TEXT
  8
_f-a_
 62
    7
 10
1315.2801079879473
 20
769.5651356325111
 40
15
 41
1
 50
0
  1
図番
  0
LINE
  8
ADD_LINE
  6
DOT
 62
  136
 10
1315.2801079879473
 20
159.56513563251107
 11
1315.2801079879473
 21
119.56513563251107
  0
LINE
  8
_f-2_
  6
CONTINUOUS
 62
    7
 10
1300.2801079879473
 20
159.56513563251107
 11
1300.2801079879473
 21
119.56513563251107
  0
LINE
  8
ADD_LINE
  6
DOT
 62
  136
 10
1210.2801079879473
 20
159.56513563251107
 11
1210.2801079879473
 21
119.56513563251107
  0
LINE
  8
_f-2_
  6
CONTINUOUS
 62
    7
 10
1195.2801079879473
 20
159.56513563251107
 11
1195.2801079879473
 21
119.56513563251107
  0
TEXT
  8
_f-a_
 62
    7
 10
1315.2801079879473
 20
129.56513563251107
 40
15
 41
1
 50
0
  1
図番
  0
TEXT
  8
_f-a_
 62
    7
 10
1210.2801079879473
 20
769.5651356325111
 40
15
 41
1
 50
0
  1
Ｓ＝１：５
  0
TEXT
  8
_f-a_
 62
    7
 10
1210.2801079879473
 20
129.56513563251107
 40
15
 41
1
 50
0
  1
Ｓ＝１：５
  0
TEXT
  8
_f-a_
 62
    7
 10
1361.6977767120543
 20
769.5651356325111
 40
15
 41
1
 50
0
  1
５－３
  0
TEXT
  8
_f-a_
 62
    7
 10
1361.6977767120543
 20
129.56513563251107
 40
15
 41
1
 50
0
  1
５－４
  0
LINE
  8
_2-e_con他
  6
CONTINUOUS
 62
    4
 10
705.28010798794617
 20
1096.731661761858
 11
855.28010798794617
 21
1246.731661761858
  0
LINE
  8
_2-e_con他
  6
CONTINUOUS
 62
    4
 10
705.28010798794617
 20
1089.6605939499914
 11
855.28010798794617
 21
1239.6605939499914
  0
LINE
  8
_2-e_con他
  6
CONTINUOUS
 62
    4
 10
705.28010798794617
 20
1082.589526138127
 11
855.28010798794617
 21
1232.589526138127
  0
LINE
  8
_2-e_con他
  6
CONTINUOUS
 62
    4
 10
705.28010798794617
 20
882.58952613812698
 11
855.28010798794617
 21
1032.589526138127
  0
LINE
  8
_2-e_con他
  6
CONTINUOUS
 62
    4
 10
705.28010798794617
 20
896.73166176185805
 11
855.28010798794617
 21
1046.731661761858
  0
LINE
  8
_2-e_con他
  6
CONTINUOUS
 62
    4
 10
705.28010798794617
 20
889.66059394999138
 11
855.28010798794617
 21
1039.6605939499914
  0
LINE
  8
_2-e_con他
  6
CONTINUOUS
 62
    4
 10
1083.1135818585992
 20
874.5651356325111
 11
1233.1135818586004
 21
1024.5651356325111
  0
LINE
  8
_2-e_con他
  6
CONTINUOUS
 62
    4
 10
1097.2557174823303
 20
874.5651356325111
 11
1247.2557174823314
 21
1024.5651356325111
  0
LINE
  8
_2-e_con他
  6
CONTINUOUS
 62
    4
 10
1090.1846496704659
 20
874.5651356325111
 11
1240.184649670467
 21
1024.5651356325111
  0
LINE
  8
_2-e_con他
  6
CONTINUOUS
 62
    4
 10
1297.2557174823314
 20
874.5651356325111
 11
1355.2801079879473
 21
932.58952613812698
  0
LINE
  8
_2-e_con他
  6
CONTINUOUS
 62
    4
 10
1290.1846496704648
 20
874.5651356325111
 11
1355.2801079879473
 21
939.66059394999138
  0
LINE
  8
_2-e_con他
  6
CONTINUOUS
 62
    4
 10
1283.1135818585981
 20
874.5651356325111
 11
1355.2801079879473
 21
946.73166176185805
  0
LINE
  8
_2-e_con他
  6
CONTINUOUS
 62
    4
 10
992.9858054155668
 20
970.29522356574762
 11
1047.2557174823303
 21
1024.5651356325111
  0
LINE
  8
_2-e_con他
  6
CONTINUOUS
 62
    4
 10
978.84366979183801
 20
970.29522356574762
 11
1033.1135818585992
 21
1024.5651356325111
  0
LINE
  8
_2-e_con他
  6
CONTINUOUS
 62
    4
 10
985.91473760370241
 20
970.29522356574762
 11
1040.1846496704659
 21
1024.5651356325111
  0
ARC
  8
_2-d_ハッチ他
  6
CONTINUOUS
 62
    4
 10
889.4918535454824
 20
1058.0234689716103
 40
1.2083333333333581
 50
307.52351320333912
 51
232.47648680464988
  0
ARC
  8
_2-d_ハッチ他
  6
CONTINUOUS
 62
    4
 10
890.96381368995685
 20
1056.1068023050102
 40
1.2083333333333179
 50
127.52351320610693
 51
52.47648680188081
  0
ARC
  8
_2-d_ハッチ他
  6
CONTINUOUS
 62
    4
 10
886.54793325679952
 20
1058.0234689714034
 40
1.2083333333333581
 50
307.52351320333912
 51
232.47648680464988
  0
ARC
  8
_2-d_ハッチ他
  6
CONTINUOUS
 62
    4
 10
888.01989340127398
 20
1056.1068023048033
 40
1.2083333333333179
 50
127.52351320610693
 51
52.47648680188081
  0
ARC
  8
_2-d_ハッチ他
  6
CONTINUOUS
 62
    4
 10
885.0759731125911
 20
1056.1068023045987
 40
1.2083333333333179
 50
127.52351320610693
 51
52.47648680188081
  0
ARC
  8
_2-d_ハッチ他
  6
CONTINUOUS
 62
    4
 10
874.77225210206575
 20
1058.0234689705826
 40
1.2083333333333581
 50
307.52351320333912
 51
232.47648680464988
  0
ARC
  8
_2-d_ハッチ他
  6
CONTINUOUS
 62
    4
 10
868.88441152469773
 20
1058.0234689701733
 40
1.2083333333333581
 50
307.52351320333912
 51
232.47648680464988
  0
ARC
  8
_2-d_ハッチ他
  6
CONTINUOUS
 62
    4
 10
871.82833181338287
 20
1058.023468970378
 40
1.2083333333333581
 50
307.52351320333912
 51
232.47648680464988
  0
ARC
  8
_2-d_ハッチ他
  6
CONTINUOUS
 62
    4
 10
870.35637166917445
 20
1056.1068023035732
 40
1.2083333333333179
 50
127.52351320610693
 51
52.47648680188081
  0
ARC
  8
_2-d_ハッチ他
  6
CONTINUOUS
 62
    4
 10
873.30029195785733
 20
1056.1068023037778
 40
1.2083333333333179
 50
127.52351320610693
 51
52.47648680188081
  0
ARC
  8
_2-d_ハッチ他
  6
CONTINUOUS
 62
    4
 10
867.4124513804893
 20
1056.1068023033686
 40
1.2083333333333179
 50
127.52351320610693
 51
52.47648680188081
  0
ARC
  8
_2-d_ハッチ他
  6
CONTINUOUS
 62
    4
 10
865.94049123601712
 20
1058.0234689699687
 40
1.2083333333333581
 50
307.52351320333912
 51
232.47648680464988
  0
ARC
  8
_2-d_ハッチ他
  6
CONTINUOUS
 62
    4
 10
915.98713614363282
 20
1058.0234689716103
 40
1.2083333333333581
 50
307.52351320333912
 51
232.47648680464988
  0
ARC
  8
_2-d_ハッチ他
  6
CONTINUOUS
 62
    4
 10
917.45909628810955
 20
1056.1068023050102
 40
1.2083333333333179
 50
127.52351320610693
 51
52.47648680188081
  0
ARC
  8
_2-d_ハッチ他
  6
CONTINUOUS
 62
    4
 10
913.04321585494768
 20
1058.0234689714034
 40
1.2083333333333581
 50
307.52351320333912
 51
232.47648680464988
  0
ARC
  8
_2-d_ハッチ他
  6
CONTINUOUS
 62
    4
 10
914.5151759994244
 20
1056.1068023048033
 40
1.2083333333333179
 50
127.52351320610693
 51
52.47648680188081
  0
ARC
  8
_2-d_ハッチ他
  6
CONTINUOUS
 62
    4
 10
910.09929556626707
 20
1058.0234689711988
 40
1.2083333333333581
 50
307.52351320333912
 51
232.47648680464988
  0
ARC
  8
_2-d_ハッチ他
  6
CONTINUOUS
 62
    4
 10
911.57125571074153
 20
1056.1068023045987
 40
1.2083333333333179
 50
127.52351320610693
 51
52.47648680188081
  0
ARC
  8
_2-d_ハッチ他
  6
CONTINUOUS
 62
    4
 10
907.15537527758192
 20
1058.0234689709941
 40
1.2083333333333581
 50
307.52351320333912
 51
232.47648680464988
  0
ARC
  8
_2-d_ハッチ他
  6
CONTINUOUS
 62
    4
 10
908.62733542205865
 20
1056.106802304394
 40
1.2083333333333179
 50
127.52351320610693
 51
52.47648680188081
  0
ARC
  8
_2-d_ハッチ他
  6
CONTINUOUS
 62
    4
 10
904.21145498889905
 20
1058.0234689707895
 40
1.2083333333333581
 50
307.52351320333912
 51
232.47648680464988
  0
ARC
  8
_2-d_ハッチ他
  6
CONTINUOUS
 62
    4
 10
905.6834151333735
 20
1056.1068023041894
 40
1.2083333333333179
 50
127.52351320610693
 51
52.47648680188081
  0
ARC
  8
_2-d_ハッチ他
  6
CONTINUOUS
 62
    4
 10
901.26753470021617
 20
1058.0234689705826
 40
1.2083333333333581
 50
307.52351320333912
 51
232.47648680464988
  0
ARC
  8
_2-d_ハッチ他
  6
CONTINUOUS
 62
    4
 10
902.73949484469063
 20
1056.1068023039848
 40
1.2083333333333179
 50
127.52351320610693
 51
52.47648680188081
  0
ARC
  8
_2-d_ハッチ他
  6
CONTINUOUS
 62
    4
 10
895.37969412285042
 20
1058.0234689701733
 40
1.2083333333333581
 50
307.52351320333912
 51
232.47648680464988
  0
ARC
  8
_2-d_ハッチ他
  6
CONTINUOUS
 62
    4
 10
898.32361441153103
 20
1058.023468970378
 40
1.2083333333333581
 50
307.52351320333912
 51
232.47648680464988
  0
ARC
  8
_2-d_ハッチ他
  6
CONTINUOUS
 62
    4
 10
896.85165426732488
 20
1056.1068023035732
 40
1.2083333333333179
 50
127.52351320610693
 51
52.47648680188081
  0
ARC
  8
_2-d_ハッチ他
  6
CONTINUOUS
 62
    4
 10
899.79557455600775
 20
1056.1068023037778
 40
1.2083333333333179
 50
127.52351320610693
 51
52.47648680188081
  0
ARC
  8
_2-d_ハッチ他
  6
CONTINUOUS
 62
    4
 10
893.907733978642
 20
1056.1068023033686
 40
1.2083333333333179
 50
127.52351320610693
 51
52.47648680188081
  0
ARC
  8
_2-d_ハッチ他
  6
CONTINUOUS
 62
    4
 10
892.43577383416527
 20
1058.0234689699687
 40
1.2083333333333581
 50
307.52351320333912
 51
232.47648680464988
  0
ARC
  8
_2-d_ハッチ他
  6
CONTINUOUS
 62
    4
 10
933.65065787573235
 20
1058.0234689716103
 40
1.2083333333333581
 50
307.52351320333912
 51
232.47648680464988
  0
ARC
  8
_2-d_ハッチ他
  6
CONTINUOUS
 62
    4
 10
935.1226180202068
 20
1056.1068023050102
 40
1.2083333333333179
 50
127.52351320610693
 51
52.47648680188081
  0
ARC
  8
_2-d_ハッチ他
  6
CONTINUOUS
 62
    4
 10
930.70673758704947
 20
1058.0234689714034
 40
1.2083333333333581
 50
307.52351320333912
 51
232.47648680464988
  0
ARC
  8
_2-d_ハッチ他
  6
CONTINUOUS
 62
    4
 10
932.1786977315262
 20
1056.1068023048033
 40
1.2083333333333179
 50
127.52351320610693
 51
52.47648680188081
  0
ARC
  8
_2-d_ハッチ他
  6
CONTINUOUS
 62
    4
 10
927.7628172983666
 20
1058.0234689711988
 40
1.2083333333333581
 50
307.52351320333912
 51
232.47648680464988
  0
ARC
  8
_2-d_ハッチ他
  6
CONTINUOUS
 62
    4
 10
929.23477744284105
 20
1056.1068023045987
 40
1.2083333333333179
 50
127.52351320610693
 51
52.47648680188081
  0
ARC
  8
_2-d_ハッチ他
  6
CONTINUOUS
 62
    4
 10
924.81889700968372
 20
1058.0234689709941
 40
1.2083333333333581
 50
307.52351320333912
 51
232.47648680464988
  0
ARC
  8
_2-d_ハッチ他
  6
CONTINUOUS
 62
    4
 10
926.29085715415818
 20
1056.106802304394
 40
1.2083333333333179
 50
127.52351320610693
 51
52.47648680188081
  0
ARC
  8
_2-d_ハッチ他
  6
CONTINUOUS
 62
    4
 10
921.87497672099857
 20
1058.0234689707895
 40
1.2083333333333581
 50
307.52351320333912
 51
232.47648680464988
  0
ARC
  8
_2-d_ハッチ他
  6
CONTINUOUS
 62
    4
 10
923.3469368654753
 20
1056.1068023041894
 40
1.2083333333333179
 50
127.52351320610693
 51
52.47648680188081
  0
ARC
  8
_2-d_ハッチ他
  6
CONTINUOUS
 62
    4
 10
918.9310564323157
 20
1058.0234689705826
 40
1.2083333333333581
 50
307.52351320333912
 51
232.47648680464988
  0
ARC
  8
_2-d_ハッチ他
  6
CONTINUOUS
 62
    4
 10
920.40301657679015
 20
1056.1068023039848
 40
1.2083333333333179
 50
127.52351320610693
 51
52.47648680188081
  0
ARC
  8
_2-d_ハッチ他
  6
CONTINUOUS
 62
    4
 10
960.14594047388277
 20
1058.0234689716103
 40
1.2083333333333581
 50
307.52351320333912
 51
232.47648680464988
  0
ARC
  8
_2-d_ハッチ他
  6
CONTINUOUS
 62
    4
 10
961.6179006183595
 20
1056.1068023050102
 40
1.2083333333333179
 50
127.52351320610693
 51
52.47648680188081
  0
ARC
  8
_2-d_ハッチ他
  6
CONTINUOUS
 62
    4
 10
957.2020201851999
 20
1058.0234689714034
 40
1.2083333333333581
 50
307.52351320333912
 51
232.47648680464988
  0
ARC
  8
_2-d_ハッチ他
  6
CONTINUOUS
 62
    4
 10
958.67398032967435
 20
1056.1068023048033
 40
1.2083333333333179
 50
127.52351320610693
 51
52.47648680188081
  0
ARC
  8
_2-d_ハッチ他
  6
CONTINUOUS
 62
    4
 10
954.25809989651702
 20
1058.0234689711988
 40
1.2083333333333581
 50
307.52351320333912
 51
232.47648680464988
  0
ARC
  8
_2-d_ハッチ他
  6
CONTINUOUS
 62
    4
 10
955.73006004099148
 20
1056.1068023045987
 40
1.2083333333333179
 50
127.52351320610693
 51
52.47648680188081
  0
ARC
  8
_2-d_ハッチ他
  6
CONTINUOUS
 62
    4
 10
951.31417960783187
 20
1058.0234689709941
 40
1.2083333333333581
 50
307.52351320333912
 51
232.47648680464988
  0
ARC
  8
_2-d_ハッチ他
  6
CONTINUOUS
 62
    4
 10
952.7861397523086
 20
1056.106802304394
 40
1.2083333333333179
 50
127.52351320610693
 51
52.47648680188081
  0
ARC
  8
_2-d_ハッチ他
  6
CONTINUOUS
 62
    4
 10
948.370259319149
 20
1058.0234689707895
 40
1.2083333333333581
 50
307.52351320333912
 51
232.47648680464988
  0
ARC
  8
_2-d_ハッチ他
  6
CONTINUOUS
 62
    4
 10
949.84221946362345
 20
1056.1068023041894
 40
1.2083333333333179
 50
127.52351320610693
 51
52.47648680188081
  0
ARC
  8
_2-d_ハッチ他
  6
CONTINUOUS
 62
    4
 10
945.42633903046612
 20
1058.0234689705826
 40
1.2083333333333581
 50
307.52351320333912
 51
232.47648680464988
  0
ARC
  8
_2-d_ハッチ他
  6
CONTINUOUS
 62
    4
 10
946.89829917494285
 20
1056.1068023039848
 40
1.2083333333333179
 50
127.52351320610693
 51
52.47648680188081
  0
ARC
  8
_2-d_ハッチ他
  6
CONTINUOUS
 62
    4
 10
939.53849845310037
 20
1058.0234689701733
 40
1.2083333333333581
 50
307.52351320333912
 51
232.47648680464988
  0
ARC
  8
_2-d_ハッチ他
  6
CONTINUOUS
 62
    4
 10
942.48241874178325
 20
1058.023468970378
 40
1.2083333333333581
 50
307.52351320333912
 51
232.47648680464988
  0
ARC
  8
_2-d_ハッチ他
  6
CONTINUOUS
 62
    4
 10
941.01045859757483
 20
1056.1068023035732
 40
1.2083333333333179
 50
127.52351320610693
 51
52.47648680188081
  0
ARC
  8
_2-d_ハッチ他
  6
CONTINUOUS
 62
    4
 10
943.9543788862577
 20
1056.1068023037778
 40
1.2083333333333179
 50
127.52351320610693
 51
52.47648680188081
  0
ARC
  8
_2-d_ハッチ他
  6
CONTINUOUS
 62
    4
 10
938.06653830889195
 20
1056.1068023033686
 40
1.2083333333333179
 50
127.52351320610693
 51
52.47648680188081
  0
ARC
  8
_2-d_ハッチ他
  6
CONTINUOUS
 62
    4
 10
936.59457816441522
 20
1058.0234689699687
 40
1.2083333333333581
 50
307.52351320333912
 51
232.47648680464988
  0
ARC
  8
_2-d_ハッチ他
  6
CONTINUOUS
 62
    4
 10
986.6412230720332
 20
1058.0234689716103
 40
1.2083333333333581
 50
307.52351320333912
 51
232.47648680464988
  0
ARC
  8
_2-d_ハッチ他
  6
CONTINUOUS
 62
    4
 10
988.11318321650765
 20
1056.1068023050102
 40
1.2083333333333179
 50
127.52351320610693
 51
52.47648680188081
  0
ARC
  8
_2-d_ハッチ他
  6
CONTINUOUS
 62
    4
 10
983.69730278335032
 20
1058.0234689714034
 40
1.2083333333333581
 50
307.52351320333912
 51
232.47648680464988
  0
ARC
  8
_2-d_ハッチ他
  6
CONTINUOUS
 62
    4
 10
985.16926292782478
 20
1056.1068023048033
 40
1.2083333333333179
 50
127.52351320610693
 51
52.47648680188081
  0
ARC
  8
_2-d_ハッチ他
  6
CONTINUOUS
 62
    4
 10
980.75338249466517
 20
1058.0234689711988
 40
1.2083333333333581
 50
307.52351320333912
 51
232.47648680464988
  0
ARC
  8
_2-d_ハッチ他
  6
CONTINUOUS
 62
    4
 10
982.2253426391419
 20
1056.1068023045987
 40
1.2083333333333179
 50
127.52351320610693
 51
52.47648680188081
  0
ARC
  8
_2-d_ハッチ他
  6
CONTINUOUS
 62
    4
 10
977.80946220598457
 20
1058.0234689709941
 40
1.2083333333333581
 50
307.52351320333912
 51
232.47648680464988
  0
ARC
  8
_2-d_ハッチ他
  6
CONTINUOUS
 62
    4
 10
979.28142235045675
 20
1056.106802304394
 40
1.2083333333333179
 50
127.52351320610693
 51
52.47648680188081
  0
ARC
  8
_2-d_ハッチ他
  6
CONTINUOUS
 62
    4
 10
974.86554191729942
 20
1058.0234689707895
 40
1.2083333333333581
 50
307.52351320333912
 51
232.47648680464988
  0
ARC
  8
_2-d_ハッチ他
  6
CONTINUOUS
 62
    4
 10
976.33750206177615
 20
1056.1068023041894
 40
1.2083333333333179
 50
127.52351320610693
 51
52.47648680188081
  0
ARC
  8
_2-d_ハッチ他
  6
CONTINUOUS
 62
    4
 10
971.92162162861655
 20
1058.0234689705826
 40
1.2083333333333581
 50
307.52351320333912
 51
232.47648680464988
  0
ARC
  8
_2-d_ハッチ他
  6
CONTINUOUS
 62
    4
 10
973.393581773091
 20
1056.1068023039848
 40
1.2083333333333179
 50
127.52351320610693
 51
52.47648680188081
  0
ARC
  8
_2-d_ハッチ他
  6
CONTINUOUS
 62
    4
 10
966.03378105124852
 20
1058.0234689701733
 40
1.2083333333333581
 50
307.52351320333912
 51
232.47648680464988
  0
ARC
  8
_2-d_ハッチ他
  6
CONTINUOUS
 62
    4
 10
968.97770133993367
 20
1058.023468970378
 40
1.2083333333333581
 50
307.52351320333912
 51
232.47648680464988
  0
ARC
  8
_2-d_ハッチ他
  6
CONTINUOUS
 62
    4
 10
967.50574119572525
 20
1056.1068023035732
 40
1.2083333333333179
 50
127.52351320610693
 51
52.47648680188081
  0
ARC
  8
_2-d_ハッチ他
  6
CONTINUOUS
 62
    4
 10
970.44966148440813
 20
1056.1068023037778
 40
1.2083333333333179
 50
127.52351320610693
 51
52.47648680188081
  0
ARC
  8
_2-d_ハッチ他
  6
CONTINUOUS
 62
    4
 10
964.5618209070401
 20
1056.1068023033686
 40
1.2083333333333179
 50
127.52351320610693
 51
52.47648680188081
  0
ARC
  8
_2-d_ハッチ他
  6
CONTINUOUS
 62
    4
 10
963.08986076256565
 20
1058.0234689699687
 40
1.2083333333333581
 50
307.52351320333912
 51
232.47648680464988
  0
ARC
  8
_2-d_ハッチ他
  6
CONTINUOUS
 62
    4
 10
991.0571035051928
 20
1056.1068023045987
 40
1.2083333333333179
 50
127.52351320610693
 51
52.47648680188081
  0
ARC
  8
_2-d_ハッチ他
  6
CONTINUOUS
 62
    4
 10
989.58514336071607
 20
1058.0234689711988
 40
1.2083333333333581
 50
307.52351320333912
 51
232.47648680464988
  0
ARC
  8
_2-d_ハッチ他
  6
CONTINUOUS
 62
    4
 10
1016.0804259588665
 20
1058.0234689716103
 40
1.2083333333333581
 50
307.52351320333912
 51
232.47648680464988
  0
ARC
  8
_2-d_ハッチ他
  6
CONTINUOUS
 62
    4
 10
1017.552386103341
 20
1056.1068023050102
 40
1.2083333333333179
 50
127.52351320610693
 51
52.47648680188081
  0
ARC
  8
_2-d_ハッチ他
  6
CONTINUOUS
 62
    4
 10
1013.1365056701836
 20
1058.0234689714034
 40
1.2083333333333581
 50
307.52351320333912
 51
232.47648680464988
  0
ARC
  8
_2-d_ハッチ他
  6
CONTINUOUS
 62
    4
 10
1014.6084658146581
 20
1056.1068023048033
 40
1.2083333333333179
 50
127.52351320610693
 51
52.47648680188081
  0
ARC
  8
_2-d_ハッチ他
  6
CONTINUOUS
 62
    4
 10
1010.1925853814985
 20
1058.0234689711988
 40
1.2083333333333581
 50
307.52351320333912
 51
232.47648680464988
  0
ARC
  8
_2-d_ハッチ他
  6
CONTINUOUS
 62
    4
 10
1011.6645455259752
 20
1056.1068023045987
 40
1.2083333333333179
 50
127.52351320610693
 51
52.47648680188081
  0
ARC
  8
_2-d_ハッチ他
  6
CONTINUOUS
 62
    4
 10
1007.2486650928179
 20
1058.0234689709941
 40
1.2083333333333581
 50
307.52351320333912
 51
232.47648680464988
  0
ARC
  8
_2-d_ハッチ他
  6
CONTINUOUS
 62
    4
 10
1008.7206252372923
 20
1056.106802304394
 40
1.2083333333333179
 50
127.52351320610693
 51
52.47648680188081
  0
ARC
  8
_2-d_ハッチ他
  6
CONTINUOUS
 62
    4
 10
1004.3047448041327
 20
1058.0234689707895
 40
1.2083333333333581
 50
307.52351320333912
 51
232.47648680464988
  0
ARC
  8
_2-d_ハッチ他
  6
CONTINUOUS
 62
    4
 10
1005.7767049486094
 20
1056.1068023041894
 40
1.2083333333333179
 50
127.52351320610693
 51
52.47648680188081
  0
ARC
  8
_2-d_ハッチ他
  6
CONTINUOUS
 62
    4
 10
1001.3608245154498
 20
1058.0234689705826
 40
1.2083333333333581
 50
307.52351320333912
 51
232.47648680464988
  0
ARC
  8
_2-d_ハッチ他
  6
CONTINUOUS
 62
    4
 10
1002.8327846599243
 20
1056.1068023039848
 40
1.2083333333333179
 50
127.52351320610693
 51
52.47648680188081
  0
ARC
  8
_2-d_ハッチ他
  6
CONTINUOUS
 62
    4
 10
995.47298393808182
 20
1058.0234689701733
 40
1.2083333333333581
 50
307.52351320333912
 51
232.47648680464988
  0
ARC
  8
_2-d_ハッチ他
  6
CONTINUOUS
 62
    4
 10
998.41690422676697
 20
1058.023468970378
 40
1.2083333333333581
 50
307.52351320333912
 51
232.47648680464988
  0
ARC
  8
_2-d_ハッチ他
  6
CONTINUOUS
 62
    4
 10
996.94494408255855
 20
1056.1068023035732
 40
1.2083333333333179
 50
127.52351320610693
 51
52.47648680188081
  0
ARC
  8
_2-d_ハッチ他
  6
CONTINUOUS
 62
    4
 10
999.88886437124143
 20
1056.1068023037778
 40
1.2083333333333179
 50
127.52351320610693
 51
52.47648680188081
  0
ARC
  8
_2-d_ハッチ他
  6
CONTINUOUS
 62
    4
 10
994.00102379387567
 20
1056.1068023033686
 40
1.2083333333333179
 50
127.52351320610693
 51
52.47648680188081
  0
ARC
  8
_2-d_ハッチ他
  6
CONTINUOUS
 62
    4
 10
992.52906364940122
 20
1058.0234689699687
 40
1.2083333333333581
 50
307.52351320333912
 51
232.47648680464988
  0
ARC
  8
_2-d_ハッチ他
  6
CONTINUOUS
 62
    4
 10
1042.5757085570169
 20
1058.0234689716103
 40
1.2083333333333581
 50
307.52351320333912
 51
232.47648680464988
  0
ARC
  8
_2-d_ハッチ他
  6
CONTINUOUS
 62
    4
 10
1044.0476687014936
 20
1056.1068023050102
 40
1.2083333333333179
 50
127.52351320610693
 51
52.47648680188081
  0
ARC
  8
_2-d_ハッチ他
  6
CONTINUOUS
 62
    4
 10
1039.631788268334
 20
1058.0234689714034
 40
1.2083333333333581
 50
307.52351320333912
 51
232.47648680464988
  0
ARC
  8
_2-d_ハッチ他
  6
CONTINUOUS
 62
    4
 10
1041.1037484128085
 20
1056.1068023048033
 40
1.2083333333333179
 50
127.52351320610693
 51
52.47648680188081
  0
ARC
  8
_2-d_ハッチ他
  6
CONTINUOUS
 62
    4
 10
1036.6878679796512
 20
1058.0234689711988
 40
1.2083333333333581
 50
307.52351320333912
 51
232.47648680464988
  0
ARC
  8
_2-d_ハッチ他
  6
CONTINUOUS
 62
    4
 10
1038.1598281241256
 20
1056.1068023045987
 40
1.2083333333333179
 50
127.52351320610693
 51
52.47648680188081
  0
ARC
  8
_2-d_ハッチ他
  6
CONTINUOUS
 62
    4
 10
1033.743947690966
 20
1058.0234689709941
 40
1.2083333333333581
 50
307.52351320333912
 51
232.47648680464988
  0
ARC
  8
_2-d_ハッチ他
  6
CONTINUOUS
 62
    4
 10
1035.2159078354427
 20
1056.106802304394
 40
1.2083333333333179
 50
127.52351320610693
 51
52.47648680188081
  0
ARC
  8
_2-d_ハッチ他
  6
CONTINUOUS
 62
    4
 10
1030.8000274022831
 20
1058.0234689707895
 40
1.2083333333333581
 50
307.52351320333912
 51
232.47648680464988
  0
ARC
  8
_2-d_ハッチ他
  6
CONTINUOUS
 62
    4
 10
1032.2719875467576
 20
1056.1068023041894
 40
1.2083333333333179
 50
127.52351320610693
 51
52.47648680188081
  0
ARC
  8
_2-d_ハッチ他
  6
CONTINUOUS
 62
    4
 10
1027.8561071136003
 20
1058.0234689705826
 40
1.2083333333333581
 50
307.52351320333912
 51
232.47648680464988
  0
ARC
  8
_2-d_ハッチ他
  6
CONTINUOUS
 62
    4
 10
1029.328067258077
 20
1056.1068023039848
 40
1.2083333333333179
 50
127.52351320610693
 51
52.47648680188081
  0
ARC
  8
_2-d_ハッチ他
  6
CONTINUOUS
 62
    4
 10
1021.9682665362345
 20
1058.0234689701733
 40
1.2083333333333581
 50
307.52351320333912
 51
232.47648680464988
  0
ARC
  8
_2-d_ハッチ他
  6
CONTINUOUS
 62
    4
 10
1024.9121868249174
 20
1058.023468970378
 40
1.2083333333333581
 50
307.52351320333912
 51
232.47648680464988
  0
ARC
  8
_2-d_ハッチ他
  6
CONTINUOUS
 62
    4
 10
1023.440226680709
 20
1056.1068023035732
 40
1.2083333333333179
 50
127.52351320610693
 51
52.47648680188081
  0
ARC
  8
_2-d_ハッチ他
  6
CONTINUOUS
 62
    4
 10
1026.3841469693918
 20
1056.1068023037778
 40
1.2083333333333179
 50
127.52351320610693
 51
52.47648680188081
  0
ARC
  8
_2-d_ハッチ他
  6
CONTINUOUS
 62
    4
 10
1020.4963063920261
 20
1056.1068023033686
 40
1.2083333333333179
 50
127.52351320610693
 51
52.47648680188081
  0
ARC
  8
_2-d_ハッチ他
  6
CONTINUOUS
 62
    4
 10
1019.0243462475494
 20
1058.0234689699687
 40
1.2083333333333581
 50
307.52351320333912
 51
232.47648680464988
  0
ARC
  8
_2-d_ハッチ他
  6
CONTINUOUS
 62
    4
 10
1069.0709911551673
 20
1058.0234689716103
 40
1.2083333333333581
 50
307.52351320333912
 51
232.47648680464988
  0
ARC
  8
_2-d_ハッチ他
  6
CONTINUOUS
 62
    4
 10
1070.5429512996418
 20
1056.1068023050102
 40
1.2083333333333179
 50
127.52351320610693
 51
52.47648680188081
  0
ARC
  8
_2-d_ハッチ他
  6
CONTINUOUS
 62
    4
 10
1066.1270708664845
 20
1058.0234689714034
 40
1.2083333333333581
 50
307.52351320333912
 51
232.47648680464988
  0
ARC
  8
_2-d_ハッチ他
  6
CONTINUOUS
 62
    4
 10
1067.5990310109589
 20
1056.1068023048033
 40
1.2083333333333179
 50
127.52351320610693
 51
52.47648680188081
  0
ARC
  8
_2-d_ハッチ他
  6
CONTINUOUS
 62
    4
 10
1063.1831505777993
 20
1058.0234689711988
 40
1.2083333333333581
 50
307.52351320333912
 51
232.47648680464988
  0
ARC
  8
_2-d_ハッチ他
  6
CONTINUOUS
 62
    4
 10
1064.655110722276
 20
1056.1068023045987
 40
1.2083333333333179
 50
127.52351320610693
 51
52.47648680188081
  0
ARC
  8
_2-d_ハッチ他
  6
CONTINUOUS
 62
    4
 10
1060.2392302891187
 20
1058.0234689709941
 40
1.2083333333333581
 50
307.52351320333912
 51
232.47648680464988
  0
ARC
  8
_2-d_ハッチ他
  6
CONTINUOUS
 62
    4
 10
1061.7111904335909
 20
1056.106802304394
 40
1.2083333333333179
 50
127.52351320610693
 51
52.47648680188081
  0
ARC
  8
_2-d_ハッチ他
  6
CONTINUOUS
 62
    4
 10
1057.2953100004336
 20
1058.0234689707895
 40
1.2083333333333581
 50
307.52351320333912
 51
232.47648680464988
  0
ARC
  8
_2-d_ハッチ他
  6
CONTINUOUS
 62
    4
 10
1058.7672701449103
 20
1056.1068023041894
 40
1.2083333333333179
 50
127.52351320610693
 51
52.47648680188081
  0
ARC
  8
_2-d_ハッチ他
  6
CONTINUOUS
 62
    4
 10
1054.3513897117507
 20
1058.0234689705826
 40
1.2083333333333581
 50
307.52351320333912
 51
232.47648680464988
  0
ARC
  8
_2-d_ハッチ他
  6
CONTINUOUS
 62
    4
 10
1055.8233498562251
 20
1056.1068023039848
 40
1.2083333333333179
 50
127.52351320610693
 51
52.47648680188081
  0
ARC
  8
_2-d_ハッチ他
  6
CONTINUOUS
 62
    4
 10
1048.4635491343827
 20
1058.0234689701733
 40
1.2083333333333581
 50
307.52351320333912
 51
232.47648680464988
  0
ARC
  8
_2-d_ハッチ他
  6
CONTINUOUS
 62
    4
 10
1051.4074694230678
 20
1058.023468970378
 40
1.2083333333333581
 50
307.52351320333912
 51
232.47648680464988
  0
ARC
  8
_2-d_ハッチ他
  6
CONTINUOUS
 62
    4
 10
1049.9355092788594
 20
1056.1068023035732
 40
1.2083333333333179
 50
127.52351320610693
 51
52.47648680188081
  0
ARC
  8
_2-d_ハッチ他
  6
CONTINUOUS
 62
    4
 10
1052.8794295675423
 20
1056.1068023037778
 40
1.2083333333333179
 50
127.52351320610693
 51
52.47648680188081
  0
ARC
  8
_2-d_ハッチ他
  6
CONTINUOUS
 62
    4
 10
1046.9915889901743
 20
1056.1068023033686
 40
1.2083333333333179
 50
127.52351320610693
 51
52.47648680188081
  0
ARC
  8
_2-d_ハッチ他
  6
CONTINUOUS
 62
    4
 10
1045.5196288456998
 20
1058.0234689699687
 40
1.2083333333333581
 50
307.52351320333912
 51
232.47648680464988
  0
ARC
  8
_2-d_ハッチ他
  6
CONTINUOUS
 62
    4
 10
1086.7345128872669
 20
1058.0234689716103
 40
1.2083333333333581
 50
307.52351320333912
 51
232.47648680464988
  0
ARC
  8
_2-d_ハッチ他
  6
CONTINUOUS
 62
    4
 10
1088.2064730317436
 20
1056.1068023050102
 40
1.2083333333333179
 50
127.52351320610693
 51
52.47648680188081
  0
ARC
  8
_2-d_ハッチ他
  6
CONTINUOUS
 62
    4
 10
1083.790592598584
 20
1058.0234689714034
 40
1.2083333333333581
 50
307.52351320333912
 51
232.47648680464988
  0
ARC
  8
_2-d_ハッチ他
  6
CONTINUOUS
 62
    4
 10
1085.2625527430584
 20
1056.1068023048033
 40
1.2083333333333179
 50
127.52351320610693
 51
52.47648680188081
  0
ARC
  8
_2-d_ハッチ他
  6
CONTINUOUS
 62
    4
 10
1080.8466723099011
 20
1058.0234689711988
 40
1.2083333333333581
 50
307.52351320333912
 51
232.47648680464988
  0
ARC
  8
_2-d_ハッチ他
  6
CONTINUOUS
 62
    4
 10
1082.3186324543756
 20
1056.1068023045987
 40
1.2083333333333179
 50
127.52351320610693
 51
52.47648680188081
  0
ARC
  8
_2-d_ハッチ他
  6
CONTINUOUS
 62
    4
 10
1077.902752021216
 20
1058.0234689709941
 40
1.2083333333333581
 50
307.52351320333912
 51
232.47648680464988
  0
ARC
  8
_2-d_ハッチ他
  6
CONTINUOUS
 62
    4
 10
1079.3747121656927
 20
1056.106802304394
 40
1.2083333333333179
 50
127.52351320610693
 51
52.47648680188081
  0
ARC
  8
_2-d_ハッチ他
  6
CONTINUOUS
 62
    4
 10
1074.9588317325354
 20
1058.0234689707895
 40
1.2083333333333581
 50
307.52351320333912
 51
232.47648680464988
  0
ARC
  8
_2-d_ハッチ他
  6
CONTINUOUS
 62
    4
 10
1076.4307918770076
 20
1056.1068023041894
 40
1.2083333333333179
 50
127.52351320610693
 51
52.47648680188081
  0
ARC
  8
_2-d_ハッチ他
  6
CONTINUOUS
 62
    4
 10
1072.0149114438502
 20
1058.0234689705826
 40
1.2083333333333581
 50
307.52351320333912
 51
232.47648680464988
  0
ARC
  8
_2-d_ハッチ他
  6
CONTINUOUS
 62
    4
 10
1073.4868715883269
 20
1056.1068023039848
 40
1.2083333333333179
 50
127.52351320610693
 51
52.47648680188081
  0
ARC
  8
_2-d_ハッチ他
  6
CONTINUOUS
 62
    4
 10
1113.2297954854173
 20
1058.0234689716103
 40
1.2083333333333581
 50
307.52351320333912
 51
232.47648680464988
  0
ARC
  8
_2-d_ハッチ他
  6
CONTINUOUS
 62
    4
 10
1114.7017556298917
 20
1056.1068023050102
 40
1.2083333333333179
 50
127.52351320610693
 51
52.47648680188081
  0
ARC
  8
_2-d_ハッチ他
  6
CONTINUOUS
 62
    4
 10
1110.2858751967344
 20
1058.0234689714034
 40
1.2083333333333581
 50
307.52351320333912
 51
232.47648680464988
  0
ARC
  8
_2-d_ハッチ他
  6
CONTINUOUS
 62
    4
 10
1111.7578353412089
 20
1056.1068023048033
 40
1.2083333333333179
 50
127.52351320610693
 51
52.47648680188081
  0
ARC
  8
_2-d_ハッチ他
  6
CONTINUOUS
 62
    4
 10
1107.3419549080493
 20
1058.0234689711988
 40
1.2083333333333581
 50
307.52351320333912
 51
232.47648680464988
  0
ARC
  8
_2-d_ハッチ他
  6
CONTINUOUS
 62
    4
 10
1108.813915052526
 20
1056.1068023045987
 40
1.2083333333333179
 50
127.52351320610693
 51
52.47648680188081
  0
ARC
  8
_2-d_ハッチ他
  6
CONTINUOUS
 62
    4
 10
1104.3980346193687
 20
1058.0234689709941
 40
1.2083333333333581
 50
307.52351320333912
 51
232.47648680464988
  0
ARC
  8
_2-d_ハッチ他
  6
CONTINUOUS
 62
    4
 10
1105.8699947638431
 20
1056.106802304394
 40
1.2083333333333179
 50
127.52351320610693
 51
52.47648680188081
  0
ARC
  8
_2-d_ハッチ他
  6
CONTINUOUS
 62
    4
 10
1101.4541143306835
 20
1058.0234689707895
 40
1.2083333333333581
 50
307.52351320333912
 51
232.47648680464988
  0
ARC
  8
_2-d_ハッチ他
  6
CONTINUOUS
 62
    4
 10
1102.9260744751602
 20
1056.1068023041894
 40
1.2083333333333179
 50
127.52351320610693
 51
52.47648680188081
  0
ARC
  8
_2-d_ハッチ他
  6
CONTINUOUS
 62
    4
 10
1098.5101940420006
 20
1058.0234689705826
 40
1.2083333333333581
 50
307.52351320333912
 51
232.47648680464988
  0
ARC
  8
_2-d_ハッチ他
  6
CONTINUOUS
 62
    4
 10
1099.9821541864751
 20
1056.1068023039848
 40
1.2083333333333179
 50
127.52351320610693
 51
52.47648680188081
  0
ARC
  8
_2-d_ハッチ他
  6
CONTINUOUS
 62
    4
 10
1092.6223534646326
 20
1058.0234689701733
 40
1.2083333333333581
 50
307.52351320333912
 51
232.47648680464988
  0
ARC
  8
_2-d_ハッチ他
  6
CONTINUOUS
 62
    4
 10
1095.5662737533178
 20
1058.023468970378
 40
1.2083333333333581
 50
307.52351320333912
 51
232.47648680464988
  0
ARC
  8
_2-d_ハッチ他
  6
CONTINUOUS
 62
    4
 10
1094.0943136091093
 20
1056.1068023035732
 40
1.2083333333333179
 50
127.52351320610693
 51
52.47648680188081
  0
ARC
  8
_2-d_ハッチ他
  6
CONTINUOUS
 62
    4
 10
1097.0382338977922
 20
1056.1068023037778
 40
1.2083333333333179
 50
127.52351320610693
 51
52.47648680188081
  0
ARC
  8
_2-d_ハッチ他
  6
CONTINUOUS
 62
    4
 10
1091.1503933204242
 20
1056.1068023033686
 40
1.2083333333333179
 50
127.52351320610693
 51
52.47648680188081
  0
ARC
  8
_2-d_ハッチ他
  6
CONTINUOUS
 62
    4
 10
1089.678433175952
 20
1058.0234689699687
 40
1.2083333333333581
 50
307.52351320333912
 51
232.47648680464988
  0
ARC
  8
_2-d_ハッチ他
  6
CONTINUOUS
 62
    4
 10
1139.7250780835677
 20
1058.0234689716103
 40
1.2083333333333581
 50
307.52351320333912
 51
232.47648680464988
  0
ARC
  8
_2-d_ハッチ他
  6
CONTINUOUS
 62
    4
 10
1141.1970382280444
 20
1056.1068023050102
 40
1.2083333333333179
 50
127.52351320610693
 51
52.47648680188081
  0
ARC
  8
_2-d_ハッチ他
  6
CONTINUOUS
 62
    4
 10
1136.7811577948826
 20
1058.0234689714034
 40
1.2083333333333581
 50
307.52351320333912
 51
232.47648680464988
  0
ARC
  8
_2-d_ハッチ他
  6
CONTINUOUS
 62
    4
 10
1138.2531179393593
 20
1056.1068023048033
 40
1.2083333333333179
 50
127.52351320610693
 51
52.47648680188081
  0
ARC
  8
_2-d_ハッチ他
  6
CONTINUOUS
 62
    4
 10
1133.837237506202
 20
1058.0234689711988
 40
1.2083333333333581
 50
307.52351320333912
 51
232.47648680464988
  0
ARC
  8
_2-d_ハッチ他
  6
CONTINUOUS
 62
    4
 10
1135.3091976506764
 20
1056.1068023045987
 40
1.2083333333333179
 50
127.52351320610693
 51
52.47648680188081
  0
ARC
  8
_2-d_ハッチ他
  6
CONTINUOUS
 62
    4
 10
1130.8933172175168
 20
1058.0234689709941
 40
1.2083333333333581
 50
307.52351320333912
 51
232.47648680464988
  0
ARC
  8
_2-d_ハッチ他
  6
CONTINUOUS
 62
    4
 10
1132.3652773619935
 20
1056.106802304394
 40
1.2083333333333179
 50
127.52351320610693
 51
52.47648680188081
  0
ARC
  8
_2-d_ハッチ他
  6
CONTINUOUS
 62
    4
 10
1127.9493969288339
 20
1058.0234689707895
 40
1.2083333333333581
 50
307.52351320333912
 51
232.47648680464988
  0
ARC
  8
_2-d_ハッチ他
  6
CONTINUOUS
 62
    4
 10
1129.4213570733084
 20
1056.1068023041894
 40
1.2083333333333179
 50
127.52351320610693
 51
52.47648680188081
  0
ARC
  8
_2-d_ハッチ他
  6
CONTINUOUS
 62
    4
 10
1125.0054766401511
 20
1058.0234689705826
 40
1.2083333333333581
 50
307.52351320333912
 51
232.47648680464988
  0
ARC
  8
_2-d_ハッチ他
  6
CONTINUOUS
 62
    4
 10
1126.4774367846255
 20
1056.1068023039848
 40
1.2083333333333179
 50
127.52351320610693
 51
52.47648680188081
  0
ARC
  8
_2-d_ハッチ他
  6
CONTINUOUS
 62
    4
 10
1119.1176360627853
 20
1058.0234689701733
 40
1.2083333333333581
 50
307.52351320333912
 51
232.47648680464988
  0
ARC
  8
_2-d_ハッチ他
  6
CONTINUOUS
 62
    4
 10
1122.0615563514659
 20
1058.023468970378
 40
1.2083333333333581
 50
307.52351320333912
 51
232.47648680464988
  0
ARC
  8
_2-d_ハッチ他
  6
CONTINUOUS
 62
    4
 10
1120.5895962072598
 20
1056.1068023035732
 40
1.2083333333333179
 50
127.52351320610693
 51
52.47648680188081
  0
ARC
  8
_2-d_ハッチ他
  6
CONTINUOUS
 62
    4
 10
1123.5335164959426
 20
1056.1068023037778
 40
1.2083333333333179
 50
127.52351320610693
 51
52.47648680188081
  0
ARC
  8
_2-d_ハッチ他
  6
CONTINUOUS
 62
    4
 10
1117.6456759185769
 20
1056.1068023033686
 40
1.2083333333333179
 50
127.52351320610693
 51
52.47648680188081
  0
ARC
  8
_2-d_ハッチ他
  6
CONTINUOUS
 62
    4
 10
1116.1737157741002
 20
1058.0234689699687
 40
1.2083333333333581
 50
307.52351320333912
 51
232.47648680464988
  0
ARC
  8
_2-d_ハッチ他
  6
CONTINUOUS
 62
    4
 10
1144.140958516725
 20
1056.1068023045987
 40
1.2083333333333179
 50
127.52351320610693
 51
52.47648680188081
  0
ARC
  8
_2-d_ハッチ他
  6
CONTINUOUS
 62
    4
 10
1142.6689983722506
 20
1058.0234689711988
 40
1.2083333333333581
 50
307.52351320333912
 51
232.47648680464988
  0
ARC
  8
_2-d_ハッチ他
  6
CONTINUOUS
 62
    4
 10
1169.164280970401
 20
1058.0234689716103
 40
1.2083333333333581
 50
307.52351320333912
 51
232.47648680464988
  0
ARC
  8
_2-d_ハッチ他
  6
CONTINUOUS
 62
    4
 10
1170.6362411148755
 20
1056.1068023050102
 40
1.2083333333333179
 50
127.52351320610693
 51
52.47648680188081
  0
ARC
  8
_2-d_ハッチ他
  6
CONTINUOUS
 62
    4
 10
1166.2203606817159
 20
1058.0234689714034
 40
1.2083333333333581
 50
307.52351320333912
 51
232.47648680464988
  0
ARC
  8
_2-d_ハッチ他
  6
CONTINUOUS
 62
    4
 10
1167.6923208261926
 20
1056.1068023048033
 40
1.2083333333333179
 50
127.52351320610693
 51
52.47648680188081
  0
ARC
  8
_2-d_ハッチ他
  6
CONTINUOUS
 62
    4
 10
1163.276440393033
 20
1058.0234689711988
 40
1.2083333333333581
 50
307.52351320333912
 51
232.47648680464988
  0
ARC
  8
_2-d_ハッチ他
  6
CONTINUOUS
 62
    4
 10
1164.7484005375075
 20
1056.1068023045987
 40
1.2083333333333179
 50
127.52351320610693
 51
52.47648680188081
  0
ARC
  8
_2-d_ハッチ他
  6
CONTINUOUS
 62
    4
 10
1160.3325201043501
 20
1058.0234689709941
 40
1.2083333333333581
 50
307.52351320333912
 51
232.47648680464988
  0
ARC
  8
_2-d_ハッチ他
  6
CONTINUOUS
 62
    4
 10
1161.8044802488268
 20
1056.106802304394
 40
1.2083333333333179
 50
127.52351320610693
 51
52.47648680188081
  0
ARC
  8
_2-d_ハッチ他
  6
CONTINUOUS
 62
    4
 10
1157.388599815665
 20
1058.0234689707895
 40
1.2083333333333581
 50
307.52351320333912
 51
232.47648680464988
  0
ARC
  8
_2-d_ハッチ他
  6
CONTINUOUS
 62
    4
 10
1158.8605599601417
 20
1056.1068023041894
 40
1.2083333333333179
 50
127.52351320610693
 51
52.47648680188081
  0
ARC
  8
_2-d_ハッチ他
  6
CONTINUOUS
 62
    4
 10
1154.4446795269844
 20
1058.0234689705826
 40
1.2083333333333581
 50
307.52351320333912
 51
232.47648680464988
  0
ARC
  8
_2-d_ハッチ他
  6
CONTINUOUS
 62
    4
 10
1155.9166396714588
 20
1056.1068023039848
 40
1.2083333333333179
 50
127.52351320610693
 51
52.47648680188081
  0
ARC
  8
_2-d_ハッチ他
  6
CONTINUOUS
 62
    4
 10
1148.5568389496163
 20
1058.0234689701733
 40
1.2083333333333581
 50
307.52351320333912
 51
232.47648680464988
  0
ARC
  8
_2-d_ハッチ他
  6
CONTINUOUS
 62
    4
 10
1151.5007592382992
 20
1058.023468970378
 40
1.2083333333333581
 50
307.52351320333912
 51
232.47648680464988
  0
ARC
  8
_2-d_ハッチ他
  6
CONTINUOUS
 62
    4
 10
1150.0287990940908
 20
1056.1068023035732
 40
1.2083333333333179
 50
127.52351320610693
 51
52.47648680188081
  0
ARC
  8
_2-d_ハッチ他
  6
CONTINUOUS
 62
    4
 10
1152.9727193827759
 20
1056.1068023037778
 40
1.2083333333333179
 50
127.52351320610693
 51
52.47648680188081
  0
ARC
  8
_2-d_ハッチ他
  6
CONTINUOUS
 62
    4
 10
1147.0848788054102
 20
1056.1068023033686
 40
1.2083333333333179
 50
127.52351320610693
 51
52.47648680188081
  0
ARC
  8
_2-d_ハッチ他
  6
CONTINUOUS
 62
    4
 10
1145.6129186609335
 20
1058.0234689699687
 40
1.2083333333333581
 50
307.52351320333912
 51
232.47648680464988
  0
ARC
  8
_2-d_ハッチ他
  6
CONTINUOUS
 62
    4
 10
1180.9399621251325
 20
1058.0234689705826
 40
1.2083333333333581
 50
307.52351320333912
 51
232.47648680464988
  0
ARC
  8
_2-d_ハッチ他
  6
CONTINUOUS
 62
    4
 10
1175.0521215477668
 20
1058.0234689701733
 40
1.2083333333333581
 50
307.52351320333912
 51
232.47648680464988
  0
ARC
  8
_2-d_ハッチ他
  6
CONTINUOUS
 62
    4
 10
1177.9960418364519
 20
1058.023468970378
 40
1.2083333333333581
 50
307.52351320333912
 51
232.47648680464988
  0
ARC
  8
_2-d_ハッチ他
  6
CONTINUOUS
 62
    4
 10
1176.5240816922435
 20
1056.1068023035732
 40
1.2083333333333179
 50
127.52351320610693
 51
52.47648680188081
  0
ARC
  8
_2-d_ハッチ他
  6
CONTINUOUS
 62
    4
 10
1179.4680019809241
 20
1056.1068023037778
 40
1.2083333333333179
 50
127.52351320610693
 51
52.47648680188081
  0
ARC
  8
_2-d_ハッチ他
  6
CONTINUOUS
 62
    4
 10
1173.5801614035583
 20
1056.1068023033686
 40
1.2083333333333179
 50
127.52351320610693
 51
52.47648680188081
  0
ARC
  8
_2-d_ハッチ他
  6
CONTINUOUS
 62
    4
 10
1172.1082012590839
 20
1058.0234689699687
 40
1.2083333333333581
 50
307.52351320333912
 51
232.47648680464988
  0
ARC
  8
_2-d_ハッチ他
  6
CONTINUOUS
 62
    4
 10
1204.4913244346012
 20
1058.0234689716103
 40
1.2083333333333581
 50
307.52351320333912
 51
232.47648680464988
  0
ARC
  8
_2-d_ハッチ他
  6
CONTINUOUS
 62
    4
 10
1205.9632845790779
 20
1056.1068023050102
 40
1.2083333333333179
 50
127.52351320610693
 51
52.47648680188081
  0
ARC
  8
_2-d_ハッチ他
  6
CONTINUOUS
 62
    4
 10
1201.5474041459183
 20
1058.0234689714034
 40
1.2083333333333581
 50
307.52351320333912
 51
232.47648680464988
  0
ARC
  8
_2-d_ハッチ他
  6
CONTINUOUS
 62
    4
 10
1203.0193642903928
 20
1056.1068023048033
 40
1.2083333333333179
 50
127.52351320610693
 51
52.47648680188081
  0
ARC
  8
_2-d_ハッチ他
  6
CONTINUOUS
 62
    4
 10
1198.6034838572355
 20
1058.0234689711988
 40
1.2083333333333581
 50
307.52351320333912
 51
232.47648680464988
  0
ARC
  8
_2-d_ハッチ他
  6
CONTINUOUS
 62
    4
 10
1200.0754440017122
 20
1056.1068023045987
 40
1.2083333333333179
 50
127.52351320610693
 51
52.47648680188081
  0
ARC
  8
_2-d_ハッチ他
  6
CONTINUOUS
 62
    4
 10
1195.6595635685526
 20
1058.0234689709941
 40
1.2083333333333581
 50
307.52351320333912
 51
232.47648680464988
  0
ARC
  8
_2-d_ハッチ他
  6
CONTINUOUS
 62
    4
 10
1197.131523713027
 20
1056.106802304394
 40
1.2083333333333179
 50
127.52351320610693
 51
52.47648680188081
  0
ARC
  8
_2-d_ハッチ他
  6
CONTINUOUS
 62
    4
 10
1192.7156432798697
 20
1058.0234689707895
 40
1.2083333333333581
 50
307.52351320333912
 51
232.47648680464988
  0
ARC
  8
_2-d_ハッチ他
  6
CONTINUOUS
 62
    4
 10
1194.1876034243442
 20
1056.1068023041894
 40
1.2083333333333179
 50
127.52351320610693
 51
52.47648680188081
  0
ARC
  8
_2-d_ハッチ他
  6
CONTINUOUS
 62
    4
 10
1189.7717229911846
 20
1058.0234689705826
 40
1.2083333333333581
 50
307.52351320333912
 51
232.47648680464988
  0
ARC
  8
_2-d_ハッチ他
  6
CONTINUOUS
 62
    4
 10
1191.2436831356613
 20
1056.1068023039848
 40
1.2083333333333179
 50
127.52351320610693
 51
52.47648680188081
  0
ARC
  8
_2-d_ハッチ他
  6
CONTINUOUS
 62
    4
 10
1183.8838824138177
 20
1058.0234689701733
 40
1.2083333333333581
 50
307.52351320333912
 51
232.47648680464988
  0
ARC
  8
_2-d_ハッチ他
  6
CONTINUOUS
 62
    4
 10
1186.8278027025005
 20
1058.023468970378
 40
1.2083333333333581
 50
307.52351320333912
 51
232.47648680464988
  0
ARC
  8
_2-d_ハッチ他
  6
CONTINUOUS
 62
    4
 10
1185.3558425582944
 20
1056.1068023035732
 40
1.2083333333333179
 50
127.52351320610693
 51
52.47648680188081
  0
ARC
  8
_2-d_ハッチ他
  6
CONTINUOUS
 62
    4
 10
1188.299762846975
 20
1056.1068023037778
 40
1.2083333333333179
 50
127.52351320610693
 51
52.47648680188081
  0
ARC
  8
_2-d_ハッチ他
  6
CONTINUOUS
 62
    4
 10
1208.9072048677608
 20
1056.1068023045987
 40
1.2083333333333179
 50
127.52351320610693
 51
52.47648680188081
  0
ARC
  8
_2-d_ハッチ他
  6
CONTINUOUS
 62
    4
 10
1207.4352447232864
 20
1058.0234689711988
 40
1.2083333333333581
 50
307.52351320333912
 51
232.47648680464988
  0
ARC
  8
_2-d_ハッチ他
  6
CONTINUOUS
 62
    4
 10
1233.9305273214345
 20
1058.0234689716103
 40
1.2083333333333581
 50
307.52351320333912
 51
232.47648680464988
  0
ARC
  8
_2-d_ハッチ他
  6
CONTINUOUS
 62
    4
 10
1235.4024874659112
 20
1056.1068023050102
 40
1.2083333333333179
 50
127.52351320610693
 51
52.47648680188081
  0
ARC
  8
_2-d_ハッチ他
  6
CONTINUOUS
 62
    4
 10
1230.9866070327539
 20
1058.0234689714034
 40
1.2083333333333581
 50
307.52351320333912
 51
232.47648680464988
  0
ARC
  8
_2-d_ハッチ他
  6
CONTINUOUS
 62
    4
 10
1232.4585671772261
 20
1056.1068023048033
 40
1.2083333333333179
 50
127.52351320610693
 51
52.47648680188081
  0
ARC
  8
_2-d_ハッチ他
  6
CONTINUOUS
 62
    4
 10
1228.0426867440688
 20
1058.0234689711988
 40
1.2083333333333581
 50
307.52351320333912
 51
232.47648680464988
  0
ARC
  8
_2-d_ハッチ他
  6
CONTINUOUS
 62
    4
 10
1229.5146468885455
 20
1056.1068023045987
 40
1.2083333333333179
 50
127.52351320610693
 51
52.47648680188081
  0
ARC
  8
_2-d_ハッチ他
  6
CONTINUOUS
 62
    4
 10
1225.0987664553859
 20
1058.0234689709941
 40
1.2083333333333581
 50
307.52351320333912
 51
232.47648680464988
  0
ARC
  8
_2-d_ハッチ他
  6
CONTINUOUS
 62
    4
 10
1226.5707265998603
 20
1056.106802304394
 40
1.2083333333333179
 50
127.52351320610693
 51
52.47648680188081
  0
ARC
  8
_2-d_ハッチ他
  6
CONTINUOUS
 62
    4
 10
1222.154846166703
 20
1058.0234689707895
 40
1.2083333333333581
 50
307.52351320333912
 51
232.47648680464988
  0
ARC
  8
_2-d_ハッチ他
  6
CONTINUOUS
 62
    4
 10
1223.6268063111775
 20
1056.1068023041894
 40
1.2083333333333179
 50
127.52351320610693
 51
52.47648680188081
  0
ARC
  8
_2-d_ハッチ他
  6
CONTINUOUS
 62
    4
 10
1219.2109258780179
 20
1058.0234689705826
 40
1.2083333333333581
 50
307.52351320333912
 51
232.47648680464988
  0
ARC
  8
_2-d_ハッチ他
  6
CONTINUOUS
 62
    4
 10
1220.6828860224946
 20
1056.1068023039848
 40
1.2083333333333179
 50
127.52351320610693
 51
52.47648680188081
  0
ARC
  8
_2-d_ハッチ他
  6
CONTINUOUS
 62
    4
 10
1213.3230853006521
 20
1058.0234689701733
 40
1.2083333333333581
 50
307.52351320333912
 51
232.47648680464988
  0
ARC
  8
_2-d_ハッチ他
  6
CONTINUOUS
 62
    4
 10
1216.2670055893373
 20
1058.023468970378
 40
1.2083333333333581
 50
307.52351320333912
 51
232.47648680464988
  0
ARC
  8
_2-d_ハッチ他
  6
CONTINUOUS
 62
    4
 10
1214.7950454451288
 20
1056.1068023035732
 40
1.2083333333333179
 50
127.52351320610693
 51
52.47648680188081
  0
ARC
  8
_2-d_ハッチ他
  6
CONTINUOUS
 62
    4
 10
1217.7389657338094
 20
1056.1068023037778
 40
1.2083333333333179
 50
127.52351320610693
 51
52.47648680188081
  0
ARC
  8
_2-d_ハッチ他
  6
CONTINUOUS
 62
    4
 10
1211.8511251564437
 20
1056.1068023033686
 40
1.2083333333333179
 50
127.52351320610693
 51
52.47648680188081
  0
ARC
  8
_2-d_ハッチ他
  6
CONTINUOUS
 62
    4
 10
1210.3791650119692
 20
1058.0234689699687
 40
1.2083333333333581
 50
307.52351320333912
 51
232.47648680464988
  0
ARC
  8
_2-d_ハッチ他
  6
CONTINUOUS
 62
    4
 10
1245.7062084761706
 20
1058.0234689705826
 40
1.2083333333333581
 50
307.52351320333912
 51
232.47648680464988
  0
ARC
  8
_2-d_ハッチ他
  6
CONTINUOUS
 62
    4
 10
1239.8183678988025
 20
1058.0234689701733
 40
1.2083333333333581
 50
307.52351320333912
 51
232.47648680464988
  0
ARC
  8
_2-d_ハッチ他
  6
CONTINUOUS
 62
    4
 10
1242.7622881874854
 20
1058.023468970378
 40
1.2083333333333581
 50
307.52351320333912
 51
232.47648680464988
  0
ARC
  8
_2-d_ハッチ他
  6
CONTINUOUS
 62
    4
 10
1241.290328043277
 20
1056.1068023035732
 40
1.2083333333333179
 50
127.52351320610693
 51
52.47648680188081
  0
ARC
  8
_2-d_ハッチ他
  6
CONTINUOUS
 62
    4
 10
1244.2342483319621
 20
1056.1068023037778
 40
1.2083333333333179
 50
127.52351320610693
 51
52.47648680188081
  0
ARC
  8
_2-d_ハッチ他
  6
CONTINUOUS
 62
    4
 10
1238.3464077545941
 20
1056.1068023033686
 40
1.2083333333333179
 50
127.52351320610693
 51
52.47648680188081
  0
ARC
  8
_2-d_ハッチ他
  6
CONTINUOUS
 62
    4
 10
1236.8744476101197
 20
1058.0234689699687
 40
1.2083333333333581
 50
307.52351320333912
 51
232.47648680464988
  0
ARC
  8
_2-d_ハッチ他
  6
CONTINUOUS
 62
    4
 10
1182.4119222696092
 20
1056.1068023033686
 40
1.2083333333333179
 50
127.52351320610693
 51
52.47648680188081
  0
ARC
  8
_2-d_ハッチ他
  6
CONTINUOUS
 62
    4
 10
1254.5379693422215
 20
1058.0234689705826
 40
1.2083333333333581
 50
307.52351320333912
 51
232.47648680464988
  0
ARC
  8
_2-d_ハッチ他
  6
CONTINUOUS
 62
    4
 10
1256.0099294866936
 20
1056.1068023039848
 40
1.2083333333333179
 50
127.52351320610693
 51
52.47648680188081
  0
ARC
  8
_2-d_ハッチ他
  6
CONTINUOUS
 62
    4
 10
1248.6501287648534
 20
1058.0234689701733
 40
1.2083333333333581
 50
307.52351320333912
 51
232.47648680464988
  0
ARC
  8
_2-d_ハッチ他
  6
CONTINUOUS
 62
    4
 10
1251.5940490535363
 20
1058.023468970378
 40
1.2083333333333581
 50
307.52351320333912
 51
232.47648680464988
  0
ARC
  8
_2-d_ハッチ他
  6
CONTINUOUS
 62
    4
 10
1250.1220889093279
 20
1056.1068023035732
 40
1.2083333333333179
 50
127.52351320610693
 51
52.47648680188081
  0
ARC
  8
_2-d_ハッチ他
  6
CONTINUOUS
 62
    4
 10
1253.066009198013
 20
1056.1068023037778
 40
1.2083333333333179
 50
127.52351320610693
 51
52.47648680188081
  0
ARC
  8
_2-d_ハッチ他
  6
CONTINUOUS
 62
    4
 10
1247.178168620645
 20
1056.1068023033686
 40
1.2083333333333179
 50
127.52351320610693
 51
52.47648680188081
  0
ARC
  8
_2-d_ハッチ他
  6
CONTINUOUS
 62
    4
 10
864.4685310918087
 20
1056.1068023050102
 40
1.2083333333333179
 50
127.52351320610693
 51
52.47648680188081
  0
ARC
  8
_2-d_ハッチ他
  6
CONTINUOUS
 62
    4
 10
862.99657094733197
 20
1058.0234689716103
 40
1.2083333333333581
 50
307.52351320333912
 51
232.47648680464988
  0
ARC
  8
_2-d_ハッチ他
  6
CONTINUOUS
 62
    4
 10
861.52461080312355
 20
1056.1068023048033
 40
1.2083333333333179
 50
127.52351320610693
 51
52.47648680188081
  0
ARC
  8
_2-d_ハッチ他
  6
CONTINUOUS
 62
    4
 10
860.0526506586491
 20
1058.0234689714034
 40
1.2083333333333581
 50
307.52351320333912
 51
232.47648680464988
  0
ARC
  8
_2-d_ハッチ他
  6
CONTINUOUS
 62
    4
 10
858.58069051444068
 20
1056.1068023045987
 40
1.2083333333333179
 50
127.52351320610693
 51
52.47648680188081
  0
ARC
  8
_2-d_ハッチ他
  6
CONTINUOUS
 62
    4
 10
857.10873036996622
 20
1058.0234689711988
 40
1.2083333333333581
 50
307.52351320333912
 51
232.47648680464988
  0
ARC
  8
_2-d_ハッチ他
  6
CONTINUOUS
 62
    4
 10
1275.1454113630016
 20
1058.0234689716103
 40
1.2083333333333581
 50
307.52351320333912
 51
232.47648680464988
  0
ARC
  8
_2-d_ハッチ他
  6
CONTINUOUS
 62
    4
 10
1276.6173715074783
 20
1056.1068023050102
 40
1.2083333333333179
 50
127.52351320610693
 51
52.47648680188081
  0
ARC
  8
_2-d_ハッチ他
  6
CONTINUOUS
 62
    4
 10
1272.2014910743187
 20
1058.0234689714034
 40
1.2083333333333581
 50
307.52351320333912
 51
232.47648680464988
  0
ARC
  8
_2-d_ハッチ他
  6
CONTINUOUS
 62
    4
 10
1273.6734512187954
 20
1056.1068023048033
 40
1.2083333333333179
 50
127.52351320610693
 51
52.47648680188081
  0
ARC
  8
_2-d_ハッチ他
  6
CONTINUOUS
 62
    4
 10
1269.2575707856358
 20
1058.0234689711988
 40
1.2083333333333581
 50
307.52351320333912
 51
232.47648680464988
  0
ARC
  8
_2-d_ハッチ他
  6
CONTINUOUS
 62
    4
 10
1270.7295309301103
 20
1056.1068023045987
 40
1.2083333333333179
 50
127.52351320610693
 51
52.47648680188081
  0
ARC
  8
_2-d_ハッチ他
  6
CONTINUOUS
 62
    4
 10
1266.313650496953
 20
1058.0234689709941
 40
1.2083333333333581
 50
307.52351320333912
 51
232.47648680464988
  0
ARC
  8
_2-d_ハッチ他
  6
CONTINUOUS
 62
    4
 10
1267.7856106414297
 20
1056.106802304394
 40
1.2083333333333179
 50
127.52351320610693
 51
52.47648680188081
  0
ARC
  8
_2-d_ハッチ他
  6
CONTINUOUS
 62
    4
 10
1263.3697302082678
 20
1058.0234689707895
 40
1.2083333333333581
 50
307.52351320333912
 51
232.47648680464988
  0
ARC
  8
_2-d_ハッチ他
  6
CONTINUOUS
 62
    4
 10
1264.8416903527445
 20
1056.1068023041894
 40
1.2083333333333179
 50
127.52351320610693
 51
52.47648680188081
  0
ARC
  8
_2-d_ハッチ他
  6
CONTINUOUS
 62
    4
 10
1260.4258099195872
 20
1058.0234689705826
 40
1.2083333333333581
 50
307.52351320333912
 51
232.47648680464988
  0
ARC
  8
_2-d_ハッチ他
  6
CONTINUOUS
 62
    4
 10
1261.8977700640617
 20
1056.1068023039848
 40
1.2083333333333179
 50
127.52351320610693
 51
52.47648680188081
  0
ARC
  8
_2-d_ハッチ他
  6
CONTINUOUS
 62
    4
 10
1258.9538497753788
 20
1056.1068023037778
 40
1.2083333333333179
 50
127.52351320610693
 51
52.47648680188081
  0
ARC
  8
_2-d_ハッチ他
  6
CONTINUOUS
 62
    4
 10
1286.9210925177331
 20
1058.0234689705826
 40
1.2083333333333581
 50
307.52351320333912
 51
232.47648680464988
  0
ARC
  8
_2-d_ハッチ他
  6
CONTINUOUS
 62
    4
 10
1281.0332519403673
 20
1058.0234689701733
 40
1.2083333333333581
 50
307.52351320333912
 51
232.47648680464988
  0
ARC
  8
_2-d_ハッチ他
  6
CONTINUOUS
 62
    4
 10
1283.9771722290525
 20
1058.023468970378
 40
1.2083333333333581
 50
307.52351320333912
 51
232.47648680464988
  0
ARC
  8
_2-d_ハッチ他
  6
CONTINUOUS
 62
    4
 10
1282.5052120848441
 20
1056.1068023035732
 40
1.2083333333333179
 50
127.52351320610693
 51
52.47648680188081
  0
ARC
  8
_2-d_ハッチ他
  6
CONTINUOUS
 62
    4
 10
1285.4491323735247
 20
1056.1068023037778
 40
1.2083333333333179
 50
127.52351320610693
 51
52.47648680188081
  0
ARC
  8
_2-d_ハッチ他
  6
CONTINUOUS
 62
    4
 10
1279.5612917961589
 20
1056.1068023033686
 40
1.2083333333333179
 50
127.52351320610693
 51
52.47648680188081
  0
ARC
  8
_2-d_ハッチ他
  6
CONTINUOUS
 62
    4
 10
1278.0893316516867
 20
1058.0234689699687
 40
1.2083333333333581
 50
307.52351320333912
 51
232.47648680464988
  0
ARC
  8
_2-d_ハッチ他
  6
CONTINUOUS
 62
    4
 10
1310.4724548272006
 20
1058.0234689716103
 40
1.2083333333333581
 50
307.52351320333912
 51
232.47648680464988
  0
ARC
  8
_2-d_ハッチ他
  6
CONTINUOUS
 62
    4
 10
1311.9444149716774
 20
1056.1068023050102
 40
1.2083333333333179
 50
127.52351320610693
 51
52.47648680188081
  0
ARC
  8
_2-d_ハッチ他
  6
CONTINUOUS
 62
    4
 10
1307.52853453852
 20
1058.0234689714034
 40
1.2083333333333581
 50
307.52351320333912
 51
232.47648680464988
  0
ARC
  8
_2-d_ハッチ他
  6
CONTINUOUS
 62
    4
 10
1309.0004946829922
 20
1056.1068023048033
 40
1.2083333333333179
 50
127.52351320610693
 51
52.47648680188081
  0
ARC
  8
_2-d_ハッチ他
  6
CONTINUOUS
 62
    4
 10
1304.5846142498349
 20
1058.0234689711988
 40
1.2083333333333581
 50
307.52351320333912
 51
232.47648680464988
  0
ARC
  8
_2-d_ハッチ他
  6
CONTINUOUS
 62
    4
 10
1306.0565743943116
 20
1056.1068023045987
 40
1.2083333333333179
 50
127.52351320610693
 51
52.47648680188081
  0
ARC
  8
_2-d_ハッチ他
  6
CONTINUOUS
 62
    4
 10
1301.6406939611543
 20
1058.0234689709941
 40
1.2083333333333581
 50
307.52351320333912
 51
232.47648680464988
  0
ARC
  8
_2-d_ハッチ他
  6
CONTINUOUS
 62
    4
 10
1303.1126541056265
 20
1056.106802304394
 40
1.2083333333333179
 50
127.52351320610693
 51
52.47648680188081
  0
ARC
  8
_2-d_ハッチ他
  6
CONTINUOUS
 62
    4
 10
1298.6967736724691
 20
1058.0234689707895
 40
1.2083333333333581
 50
307.52351320333912
 51
232.47648680464988
  0
ARC
  8
_2-d_ハッチ他
  6
CONTINUOUS
 62
    4
 10
1300.1687338169459
 20
1056.1068023041894
 40
1.2083333333333179
 50
127.52351320610693
 51
52.47648680188081
  0
ARC
  8
_2-d_ハッチ他
  6
CONTINUOUS
 62
    4
 10
1295.752853383784
 20
1058.0234689705826
 40
1.2083333333333581
 50
307.52351320333912
 51
232.47648680464988
  0
ARC
  8
_2-d_ハッチ他
  6
CONTINUOUS
 62
    4
 10
1297.2248135282607
 20
1056.1068023039848
 40
1.2083333333333179
 50
127.52351320610693
 51
52.47648680188081
  0
ARC
  8
_2-d_ハッチ他
  6
CONTINUOUS
 62
    4
 10
1289.8650128064182
 20
1058.0234689701733
 40
1.2083333333333581
 50
307.52351320333912
 51
232.47648680464988
  0
ARC
  8
_2-d_ハッチ他
  6
CONTINUOUS
 62
    4
 10
1292.8089330951034
 20
1058.023468970378
 40
1.2083333333333581
 50
307.52351320333912
 51
232.47648680464988
  0
ARC
  8
_2-d_ハッチ他
  6
CONTINUOUS
 62
    4
 10
1291.336972950895
 20
1056.1068023035732
 40
1.2083333333333179
 50
127.52351320610693
 51
52.47648680188081
  0
ARC
  8
_2-d_ハッチ他
  6
CONTINUOUS
 62
    4
 10
1294.2808932395756
 20
1056.1068023037778
 40
1.2083333333333179
 50
127.52351320610693
 51
52.47648680188081
  0
ARC
  8
_2-d_ハッチ他
  6
CONTINUOUS
 62
    4
 10
1314.8883352603625
 20
1056.1068023045987
 40
1.2083333333333179
 50
127.52351320610693
 51
52.47648680188081
  0
ARC
  8
_2-d_ハッチ他
  6
CONTINUOUS
 62
    4
 10
1313.4163751158858
 20
1058.0234689711988
 40
1.2083333333333581
 50
307.52351320333912
 51
232.47648680464988
  0
ARC
  8
_2-d_ハッチ他
  6
CONTINUOUS
 62
    4
 10
1339.9116577140339
 20
1058.0234689716103
 40
1.2083333333333581
 50
307.52351320333912
 51
232.47648680464988
  0
ARC
  8
_2-d_ハッチ他
  6
CONTINUOUS
 62
    4
 10
1341.3836178585107
 20
1056.1068023050102
 40
1.2083333333333179
 50
127.52351320610693
 51
52.47648680188081
  0
ARC
  8
_2-d_ハッチ他
  6
CONTINUOUS
 62
    4
 10
1336.9677374253533
 20
1058.0234689714034
 40
1.2083333333333581
 50
307.52351320333912
 51
232.47648680464988
  0
ARC
  8
_2-d_ハッチ他
  6
CONTINUOUS
 62
    4
 10
1338.4396975698255
 20
1056.1068023048033
 40
1.2083333333333179
 50
127.52351320610693
 51
52.47648680188081
  0
ARC
  8
_2-d_ハッチ他
  6
CONTINUOUS
 62
    4
 10
1334.0238171366682
 20
1058.0234689711988
 40
1.2083333333333581
 50
307.52351320333912
 51
232.47648680464988
  0
ARC
  8
_2-d_ハッチ他
  6
CONTINUOUS
 62
    4
 10
1335.4957772811449
 20
1056.1068023045987
 40
1.2083333333333179
 50
127.52351320610693
 51
52.47648680188081
  0
ARC
  8
_2-d_ハッチ他
  6
CONTINUOUS
 62
    4
 10
1331.079896847983
 20
1058.0234689709941
 40
1.2083333333333581
 50
307.52351320333912
 51
232.47648680464988
  0
ARC
  8
_2-d_ハッチ他
  6
CONTINUOUS
 62
    4
 10
1332.5518569924598
 20
1056.106802304394
 40
1.2083333333333179
 50
127.52351320610693
 51
52.47648680188081
  0
ARC
  8
_2-d_ハッチ他
  6
CONTINUOUS
 62
    4
 10
1328.1359765593024
 20
1058.0234689707895
 40
1.2083333333333581
 50
307.52351320333912
 51
232.47648680464988
  0
ARC
  8
_2-d_ハッチ他
  6
CONTINUOUS
 62
    4
 10
1329.6079367037746
 20
1056.1068023041894
 40
1.2083333333333179
 50
127.52351320610693
 51
52.47648680188081
  0
ARC
  8
_2-d_ハッチ他
  6
CONTINUOUS
 62
    4
 10
1325.1920562706173
 20
1058.0234689705826
 40
1.2083333333333581
 50
307.52351320333912
 51
232.47648680464988
  0
ARC
  8
_2-d_ハッチ他
  6
CONTINUOUS
 62
    4
 10
1326.664016415094
 20
1056.1068023039848
 40
1.2083333333333179
 50
127.52351320610693
 51
52.47648680188081
  0
ARC
  8
_2-d_ハッチ他
  6
CONTINUOUS
 62
    4
 10
1319.3042156932515
 20
1058.0234689701733
 40
1.2083333333333581
 50
307.52351320333912
 51
232.47648680464988
  0
ARC
  8
_2-d_ハッチ他
  6
CONTINUOUS
 62
    4
 10
1322.2481359819367
 20
1058.023468970378
 40
1.2083333333333581
 50
307.52351320333912
 51
232.47648680464988
  0
ARC
  8
_2-d_ハッチ他
  6
CONTINUOUS
 62
    4
 10
1320.7761758377283
 20
1056.1068023035732
 40
1.2083333333333179
 50
127.52351320610693
 51
52.47648680188081
  0
ARC
  8
_2-d_ハッチ他
  6
CONTINUOUS
 62
    4
 10
1323.7200961264089
 20
1056.1068023037778
 40
1.2083333333333179
 50
127.52351320610693
 51
52.47648680188081
  0
ARC
  8
_2-d_ハッチ他
  6
CONTINUOUS
 62
    4
 10
1317.8322555490431
 20
1056.1068023033686
 40
1.2083333333333179
 50
127.52351320610693
 51
52.47648680188081
  0
ARC
  8
_2-d_ハッチ他
  6
CONTINUOUS
 62
    4
 10
1316.3602954045664
 20
1058.0234689699687
 40
1.2083333333333581
 50
307.52351320333912
 51
232.47648680464988
  0
ARC
  8
_2-d_ハッチ他
  6
CONTINUOUS
 62
    4
 10
1351.68733886877
 20
1058.0234689705826
 40
1.2083333333333581
 50
307.52351320333912
 51
232.47648680464988
  0
ARC
  8
_2-d_ハッチ他
  6
CONTINUOUS
 62
    4
 10
1345.7994982913997
 20
1058.0234689701733
 40
1.2083333333333581
 50
307.52351320333912
 51
232.47648680464988
  0
ARC
  8
_2-d_ハッチ他
  6
CONTINUOUS
 62
    4
 10
1348.7434185800848
 20
1058.023468970378
 40
1.2083333333333581
 50
307.52351320333912
 51
232.47648680464988
  0
ARC
  8
_2-d_ハッチ他
  6
CONTINUOUS
 62
    4
 10
1347.2714584358764
 20
1056.1068023035732
 40
1.2083333333333179
 50
127.52351320610693
 51
52.47648680188081
  0
ARC
  8
_2-d_ハッチ他
  6
CONTINUOUS
 62
    4
 10
1350.2153787245616
 20
1056.1068023037778
 40
1.2083333333333179
 50
127.52351320610693
 51
52.47648680188081
  0
ARC
  8
_2-d_ハッチ他
  6
CONTINUOUS
 62
    4
 10
1344.3275381471913
 20
1056.1068023033686
 40
1.2083333333333179
 50
127.52351320610693
 51
52.47648680188081
  0
ARC
  8
_2-d_ハッチ他
  6
CONTINUOUS
 62
    4
 10
1342.8555780027191
 20
1058.0234689699687
 40
1.2083333333333581
 50
307.52351320333912
 51
232.47648680464988
  0
ARC
  8
_2-d_ハッチ他
  6
CONTINUOUS
 62
    4
 10
1288.3930526622098
 20
1056.1068023033686
 40
1.2083333333333179
 50
127.52351320610693
 51
52.47648680188081
  0
ARC
  8
_2-d_ハッチ他
  6
CONTINUOUS
 62
    4
 10
1354.6312591574506
 20
1058.0234689701733
 40
1.2083333333333581
 50
307.52351320333912
 51
232.47648680464988
  0
ARC
  8
_2-d_ハッチ他
  6
CONTINUOUS
 62
    4
 10
1353.1592990132422
 20
1056.1068023033686
 40
1.2083333333333179
 50
127.52351320610693
 51
52.47648680188081
  0
ARC
  8
_2-d_ハッチ他
  6
CONTINUOUS
 62
    4
 10
1257.4818896309021
 20
1058.023468970378
 40
1.2083333333333581
 50
307.52351320333912
 51
232.47648680464988
  0
LINE
  8
_2-d_ハッチ他
  6
CONTINUOUS
 62
    4
 10
1350.3065557742693
 20
1024.5651356325111
 11
1355.2801079879473
 21
1029.5386878461914
  0
LINE
  8
_2-d_ハッチ他
  6
CONTINUOUS
 62
    4
 10
1322.0222845268072
 20
1024.5651356325088
 11
1352.0222845268072
 21
1054.5651356325088
  0
LINE
  8
_2-d_ハッチ他
  6
CONTINUOUS
 62
    4
 10
1293.7380132793405
 20
1024.5651356325111
 11
1323.7380132793405
 21
1054.5651356325111
  0
LINE
  8
_2-d_ハッチ他
  6
CONTINUOUS
 62
    4
 10
1265.4537420318852
 20
1024.5651356325088
 11
1295.4537420318829
 21
1054.5651356325088
  0
LINE
  8
_2-d_ハッチ他
  6
CONTINUOUS
 62
    4
 10
1237.1694707844208
 20
1024.5651356325111
 11
1267.1694707844208
 21
1054.5651356325111
  0
LINE
  8
_2-d_ハッチ他
  6
CONTINUOUS
 62
    4
 10
1208.885199536961
 20
1024.5651356325111
 11
1238.885199536961
 21
1054.5651356325088
  0
LINE
  8
_2-d_ハッチ他
  6
CONTINUOUS
 62
    4
 10
1180.6009282894954
 20
1024.5651356325111
 11
1210.6009282894943
 21
1054.5651356325111
  0
LINE
  8
_2-d_ハッチ他
  6
CONTINUOUS
 62
    4
 10
1152.3166570420356
 20
1024.5651356325088
 11
1182.3166570420356
 21
1054.5651356325088
  0
LINE
  8
_2-d_ハッチ他
  6
CONTINUOUS
 62
    4
 10
1124.0323857945689
 20
1024.5651356325111
 11
1154.0323857945689
 21
1054.5651356325111
  0
LINE
  8
_2-d_ハッチ他
  6
CONTINUOUS
 62
    4
 10
1095.7481145471113
 20
1024.5651356325088
 11
1125.7481145471113
 21
1054.5651356325088
  0
LINE
  8
_2-d_ハッチ他
  6
CONTINUOUS
 62
    4
 10
1067.4638432996423
 20
1024.5651356325088
 11
1097.4638432996446
 21
1054.5651356325111
  0
LINE
  8
_2-d_ハッチ他
  6
CONTINUOUS
 62
    4
 10
1039.179572052187
 20
1024.5651356325088
 11
1069.179572052187
 21
1054.5651356325088
  0
LINE
  8
_2-d_ハッチ他
  6
CONTINUOUS
 62
    4
 10
1010.8953008047181
 20
1024.5651356325088
 11
1040.8953008047204
 21
1054.5651356325111
  0
LINE
  8
_2-d_ハッチ他
  6
CONTINUOUS
 62
    4
 10
982.61102955726278
 20
1024.5651356325111
 11
1012.6110295572628
 21
1054.5651356325088
  0
LINE
  8
_2-d_ハッチ他
  6
CONTINUOUS
 62
    4
 10
954.32675830979611
 20
1024.5651356325088
 11
984.32675830979611
 21
1054.5651356325088
  0
LINE
  8
_2-d_ハッチ他
  6
CONTINUOUS
 62
    4
 10
926.04248706233852
 20
1024.5651356325088
 11
956.04248706233852
 21
1054.5651356325088
  0
LINE
  8
_2-d_ハッチ他
  6
CONTINUOUS
 62
    4
 10
897.75821581487185
 20
1024.5651356325088
 11
927.75821581487185
 21
1054.5651356325088
  0
LINE
  8
_2-d_ハッチ他
  6
CONTINUOUS
 62
    4
 10
855.28010798794844
 20
1038.6555703005006
 11
871.18967331995668
 21
1054.5651356325111
  0
LINE
  8
_2-d_ハッチ他
  6
CONTINUOUS
 62
    4
 10
855.28010798794844
 20
1044.2832627951548
 11
874.99823515059438
 21
1024.5651356325088
  0
LINE
  8
_2-d_ハッチ他
  6
CONTINUOUS
 62
    4
 10
901.56677764551864
 20
1054.5651356325088
 11
931.56677764551864
 21
1024.5651356325088
  0
LINE
  8
_2-d_ハッチ他
  6
CONTINUOUS
 62
    4
 10
929.85104889298532
 20
1054.5651356325088
 11
959.85104889298304
 21
1024.5651356325088
  0
LINE
  8
_2-d_ハッチ他
  6
CONTINUOUS
 62
    4
 10
958.1353201404429
 20
1054.5651356325088
 11
988.1353201404429
 21
1024.5651356325088
  0
LINE
  8
_2-d_ハッチ他
  6
CONTINUOUS
 62
    4
 10
986.41959138789821
 20
1054.5651356325111
 11
1016.4195913878959
 21
1024.5651356325111
  0
LINE
  8
_2-d_ハッチ他
  6
CONTINUOUS
 62
    4
 10
1014.7038626353672
 20
1054.5651356325088
 11
1044.7038626353672
 21
1024.5651356325088
  0
LINE
  8
_2-d_ハッチ他
  6
CONTINUOUS
 62
    4
 10
1042.9881338828316
 20
1054.5651356325088
 11
1072.9881338828316
 21
1024.5651356325111
  0
LINE
  8
_2-d_ハッチ他
  6
CONTINUOUS
 62
    4
 10
1071.2724051302914
 20
1054.5651356325088
 11
1101.2724051302891
 21
1024.5651356325088
  0
LINE
  8
_2-d_ハッチ他
  6
CONTINUOUS
 62
    4
 10
1099.5566763777467
 20
1054.5651356325111
 11
1129.5566763777445
 21
1024.5651356325111
  0
LINE
  8
_2-d_ハッチ他
  6
CONTINUOUS
 62
    4
 10
1127.8409476252157
 20
1054.5651356325088
 11
1157.8409476252134
 21
1024.5651356325111
  0
LINE
  8
_2-d_ハッチ他
  6
CONTINUOUS
 62
    4
 10
1156.1252188726687
 20
1054.5651356325111
 11
1186.1252188726687
 21
1024.5651356325111
  0
LINE
  8
_2-d_ハッチ他
  6
CONTINUOUS
 62
    4
 10
1184.4094901201399
 20
1054.5651356325088
 11
1214.4094901201388
 21
1024.5651356325088
  0
LINE
  8
_2-d_ハッチ他
  6
CONTINUOUS
 62
    4
 10
1212.6937613675941
 20
1054.5651356325134
 11
1242.6937613675941
 21
1024.5651356325111
  0
LINE
  8
_2-d_ハッチ他
  6
CONTINUOUS
 62
    4
 10
1240.9780326150631
 20
1054.5651356325088
 11
1270.9780326150653
 21
1024.5651356325088
  0
LINE
  8
_2-d_ハッチ他
  6
CONTINUOUS
 62
    4
 10
1269.2623038625184
 20
1054.5651356325134
 11
1299.2623038625161
 21
1024.5651356325134
  0
LINE
  8
_2-d_ハッチ他
  6
CONTINUOUS
 62
    4
 10
1297.5465751099873
 20
1054.5651356325088
 11
1327.5465751099873
 21
1024.5651356325088
  0
LINE
  8
_2-d_ハッチ他
  6
CONTINUOUS
 62
    4
 10
1325.8308463574449
 20
1054.5651356325111
 11
1355.2801079879473
 21
1025.1158740020087
  0
LINE
  8
_2-d_ハッチ他
  6
CONTINUOUS
 62
    4
 10
1354.1151176049116
 20
1054.5651356325088
 11
1355.2801079879473
 21
1053.4001452494754
  0
LINE
  8
_2-a_moji
  6
CONTINUOUS
 62
    7
 10
970.36704064352284
 20
1289.9552755594259
 11
934.56068099429081
 21
1289.9552755594259
  0
TEXT
  8
_2-a_moji
 62
    7
 10
980.36704064352284
 20
1282.4552755594259
 40
15
 41
1
 50
0
  1
塩ビシート 接着工法
  0
LINE
  8
_2-a_moji
  6
CONTINUOUS
 62
    7
 10
855.96113998270744
 20
1153.8168770757743
 11
934.56068099429081
 21
1289.9552755594259
  0
TEXT
  8
_2-a_moji
 62
    7
 10
1099.2357985429337
 20
1207.4552755594259
 40
15
 41
1
 50
0
  1
プルーフシーラー
  0
TEXT
  8
_2-a_moji
 62
    7
 10
1099.2357985429337
 20
1182.4552755594259
 40
15
 41
1
 50
0
  1
塩ビシート 機械的固定工法
  0
LINE
  8
_2-a_moji
  6
CONTINUOUS
 62
    7
 10
1089.2357985429337
 20
1164.9552755594259
 11
1049.9676728072561
 21
1164.9552755594259
  0
LINE
  8
_2-a_moji
  6
CONTINUOUS
 62
    7
 10
1089.2357985429337
 20
1189.9552755594259
 11
1064.4014295369968
 21
1189.9552755594259
  0
LINE
  8
_2-a_moji
  6
CONTINUOUS
 62
    7
 10
1089.2357985429337
 20
1214.9552755594259
 11
1039.3048774527208
 21
1214.9552755594259
  0
LINE
  8
_2-a_moji
  6
CONTINUOUS
 62
    7
 10
957.35756199211414
 20
1073.0183616377808
 11
1039.3048774527208
 21
1214.9552755594259
  0
LINE
  8
_2-a_moji
  6
CONTINUOUS
 62
    7
 10
895.43770854187619
 20
1068.0651356325102
 11
994.67852709972453
 21
1239.9552755594259
  0
LINE
  8
_2-a_moji
  6
CONTINUOUS
 62
    7
 10
1026.5796464467824
 20
1239.9552755594259
 11
994.67852709972453
 21
1239.9552755594259
  0
TEXT
  8
_2-a_moji
 62
    7
 10
1099.2357985429337
 20
1157.4552755594259
 40
15
 41
1
 50
0
  1
ラジアルシートＬ６００
  0
LINE
  8
_2-a_moji
  6
CONTINUOUS
 62
    7
 10
975.94910330134076
 20
1036.751352471611
 11
1064.4014295369968
 21
1189.9552755594259
  0
TEXT
  8
_2-a_moji
 62
    7
 10
1099.2357985429337
 20
1107.4552755594259
 40
15
 41
1
 50
0
  1
断熱材
  0
LINE
  8
_2-a_moji
  6
CONTINUOUS
 62
    7
 10
1089.2357985429337
 20
1114.9552755594259
 11
1021.1001593477747
 21
1114.9552755594259
  0
LINE
  8
_2-e_con他
  6
CONTINUOUS
 62
    4
 10
872.25571748232801
 20
849.5651356325111
 11
968.08238579168096
 21
945.39180394186178
  0
LINE
  8
_2-e_con他
  6
CONTINUOUS
 62
    4
 10
858.11358185859922
 20
849.5651356325111
 11
953.94025016795217
 21
945.39180394186178
  0
LINE
  8
_2-e_con他
  6
CONTINUOUS
 62
    4
 10
865.18464967046589
 20
849.5651356325111
 11
961.01131797981657
 21
945.39180394186178
  0
LINE
  8
_2-e_con他
  6
CONTINUOUS
 62
    4
 10
705.28010798794617
 20
456.73166176185805
 11
855.28010798794617
 21
606.73166176185805
  0
LINE
  8
_2-e_con他
  6
CONTINUOUS
 62
    4
 10
705.28010798794617
 20
449.66059394999138
 11
855.28010798794617
 21
599.66059394999138
  0
LINE
  8
_2-e_con他
  6
CONTINUOUS
 62
    4
 10
705.28010798794617
 20
442.58952613812698
 11
855.28010798794617
 21
592.58952613812698
  0
LINE
  8
_2-e_con他
  6
CONTINUOUS
 62
    4
 10
705.28010798794617
 20
242.58952613812696
 11
855.28010798794617
 21
392.58952613812698
  0
LINE
  8
_2-e_con他
  6
CONTINUOUS
 62
    4
 10
705.28010798794617
 20
256.73166176185805
 11
855.28010798794617
 21
406.73166176185805
  0
LINE
  8
_2-e_con他
  6
CONTINUOUS
 62
    4
 10
705.28010798794617
 20
249.66059394999135
 11
855.28010798794617
 21
399.66059394999138
  0
LINE
  8
_2-e_con他
  6
CONTINUOUS
 62
    4
 10
1083.1135818585992
 20
234.56513563251107
 11
1233.1135818586004
 21
384.5651356325111
  0
LINE
  8
_2-e_con他
  6
CONTINUOUS
 62
    4
 10
1097.2557174823303
 20
234.56513563251107
 11
1247.2557174823314
 21
384.5651356325111
  0
LINE
  8
_2-e_con他
  6
CONTINUOUS
 62
    4
 10
1090.1846496704659
 20
234.56513563251107
 11
1240.184649670467
 21
384.5651356325111
  0
LINE
  8
_2-e_con他
  6
CONTINUOUS
 62
    4
 10
1297.2557174823314
 20
234.56513563251107
 11
1355.2801079879473
 21
292.58952613812698
  0
LINE
  8
_2-e_con他
  6
CONTINUOUS
 62
    4
 10
1290.1846496704648
 20
234.56513563251107
 11
1355.2801079879473
 21
299.66059394999138
  0
LINE
  8
_2-e_con他
  6
CONTINUOUS
 62
    4
 10
1283.1135818585981
 20
234.56513563251107
 11
1355.2801079879473
 21
306.73166176185805
  0
LINE
  8
_2-e_con他
  6
CONTINUOUS
 62
    4
 10
992.9858054155668
 20
330.29522356574762
 11
1047.2557174823303
 21
384.5651356325111
  0
LINE
  8
_2-e_con他
  6
CONTINUOUS
 62
    4
 10
978.84366979183801
 20
330.29522356574762
 11
1033.1135818585992
 21
384.5651356325111
  0
LINE
  8
_2-e_con他
  6
CONTINUOUS
 62
    4
 10
985.91473760370241
 20
330.29522356574762
 11
1040.1846496704659
 21
384.5651356325111
  0
ARC
  8
_2-d_ハッチ他
  6
CONTINUOUS
 62
    4
 10
877.71617239074862
 20
418.02346897078951
 40
1.2083333333333581
 50
307.52351320333912
 51
232.47648680464988
  0
ARC
  8
_2-d_ハッチ他
  6
CONTINUOUS
 62
    4
 10
874.77225210206575
 20
418.0234689705826
 40
1.2083333333333581
 50
307.52351320333912
 51
232.47648680464988
  0
ARC
  8
_2-d_ハッチ他
  6
CONTINUOUS
 62
    4
 10
876.2442122465402
 20
416.10680230398475
 40
1.2083333333333179
 50
127.52351320610693
 51
52.47648680188081
  0
ARC
  8
_2-d_ハッチ他
  6
CONTINUOUS
 62
    4
 10
868.88441152469773
 20
418.02346897017333
 40
1.2083333333333581
 50
307.52351320333912
 51
232.47648680464988
  0
ARC
  8
_2-d_ハッチ他
  6
CONTINUOUS
 62
    4
 10
871.82833181338287
 20
418.02346897037796
 40
1.2083333333333581
 50
307.52351320333912
 51
232.47648680464988
  0
ARC
  8
_2-d_ハッチ他
  6
CONTINUOUS
 62
    4
 10
870.35637166917445
 20
416.1068023035732
 40
1.2083333333333179
 50
127.52351320610693
 51
52.47648680188081
  0
ARC
  8
_2-d_ハッチ他
  6
CONTINUOUS
 62
    4
 10
873.30029195785733
 20
416.10680230377784
 40
1.2083333333333179
 50
127.52351320610693
 51
52.47648680188081
  0
ARC
  8
_2-d_ハッチ他
  6
CONTINUOUS
 62
    4
 10
867.4124513804893
 20
416.10680230336857
 40
1.2083333333333179
 50
127.52351320610693
 51
52.47648680188081
  0
ARC
  8
_2-d_ハッチ他
  6
CONTINUOUS
 62
    4
 10
865.94049123601712
 20
418.02346896996869
 40
1.2083333333333581
 50
307.52351320333912
 51
232.47648680464988
  0
ARC
  8
_2-d_ハッチ他
  6
CONTINUOUS
 62
    4
 10
915.98713614363282
 20
418.02346897161033
 40
1.2083333333333581
 50
307.52351320333912
 51
232.47648680464988
  0
ARC
  8
_2-d_ハッチ他
  6
CONTINUOUS
 62
    4
 10
917.45909628810955
 20
416.10680230501021
 40
1.2083333333333179
 50
127.52351320610693
 51
52.47648680188081
  0
ARC
  8
_2-d_ハッチ他
  6
CONTINUOUS
 62
    4
 10
913.04321585494768
 20
418.02346897140342
 40
1.2083333333333581
 50
307.52351320333912
 51
232.47648680464988
  0
ARC
  8
_2-d_ハッチ他
  6
CONTINUOUS
 62
    4
 10
914.5151759994244
 20
416.1068023048033
 40
1.2083333333333179
 50
127.52351320610693
 51
52.47648680188081
  0
ARC
  8
_2-d_ハッチ他
  6
CONTINUOUS
 62
    4
 10
910.09929556626707
 20
418.02346897119878
 40
1.2083333333333581
 50
307.52351320333912
 51
232.47648680464988
  0
ARC
  8
_2-d_ハッチ他
  6
CONTINUOUS
 62
    4
 10
911.57125571074153
 20
416.10680230459866
 40
1.2083333333333179
 50
127.52351320610693
 51
52.47648680188081
  0
ARC
  8
_2-d_ハッチ他
  6
CONTINUOUS
 62
    4
 10
907.15537527758192
 20
418.02346897099414
 40
1.2083333333333581
 50
307.52351320333912
 51
232.47648680464988
  0
ARC
  8
_2-d_ハッチ他
  6
CONTINUOUS
 62
    4
 10
908.62733542205865
 20
416.10680230439402
 40
1.2083333333333179
 50
127.52351320610693
 51
52.47648680188081
  0
ARC
  8
_2-d_ハッチ他
  6
CONTINUOUS
 62
    4
 10
904.21145498889905
 20
418.02346897078951
 40
1.2083333333333581
 50
307.52351320333912
 51
232.47648680464988
  0
ARC
  8
_2-d_ハッチ他
  6
CONTINUOUS
 62
    4
 10
905.6834151333735
 20
416.10680230418939
 40
1.2083333333333179
 50
127.52351320610693
 51
52.47648680188081
  0
ARC
  8
_2-d_ハッチ他
  6
CONTINUOUS
 62
    4
 10
901.26753470021617
 20
418.0234689705826
 40
1.2083333333333581
 50
307.52351320333912
 51
232.47648680464988
  0
ARC
  8
_2-d_ハッチ他
  6
CONTINUOUS
 62
    4
 10
902.73949484469063
 20
416.10680230398475
 40
1.2083333333333179
 50
127.52351320610693
 51
52.47648680188081
  0
ARC
  8
_2-d_ハッチ他
  6
CONTINUOUS
 62
    4
 10
895.37969412285042
 20
418.02346897017333
 40
1.2083333333333581
 50
307.52351320333912
 51
232.47648680464988
  0
ARC
  8
_2-d_ハッチ他
  6
CONTINUOUS
 62
    4
 10
898.32361441153103
 20
418.02346897037796
 40
1.2083333333333581
 50
307.52351320333912
 51
232.47648680464988
  0
ARC
  8
_2-d_ハッチ他
  6
CONTINUOUS
 62
    4
 10
896.85165426732488
 20
416.1068023035732
 40
1.2083333333333179
 50
127.52351320610693
 51
52.47648680188081
  0
ARC
  8
_2-d_ハッチ他
  6
CONTINUOUS
 62
    4
 10
899.79557455600775
 20
416.10680230377784
 40
1.2083333333333179
 50
127.52351320610693
 51
52.47648680188081
  0
ARC
  8
_2-d_ハッチ他
  6
CONTINUOUS
 62
    4
 10
893.907733978642
 20
416.10680230336857
 40
1.2083333333333179
 50
127.52351320610693
 51
52.47648680188081
  0
ARC
  8
_2-d_ハッチ他
  6
CONTINUOUS
 62
    4
 10
892.43577383416527
 20
418.02346896996869
 40
1.2083333333333581
 50
307.52351320333912
 51
232.47648680464988
  0
ARC
  8
_2-d_ハッチ他
  6
CONTINUOUS
 62
    4
 10
933.65065787573235
 20
418.02346897161033
 40
1.2083333333333581
 50
307.52351320333912
 51
232.47648680464988
  0
ARC
  8
_2-d_ハッチ他
  6
CONTINUOUS
 62
    4
 10
935.1226180202068
 20
416.10680230501021
 40
1.2083333333333179
 50
127.52351320610693
 51
52.47648680188081
  0
ARC
  8
_2-d_ハッチ他
  6
CONTINUOUS
 62
    4
 10
930.70673758704947
 20
418.02346897140342
 40
1.2083333333333581
 50
307.52351320333912
 51
232.47648680464988
  0
ARC
  8
_2-d_ハッチ他
  6
CONTINUOUS
 62
    4
 10
932.1786977315262
 20
416.1068023048033
 40
1.2083333333333179
 50
127.52351320610693
 51
52.47648680188081
  0
ARC
  8
_2-d_ハッチ他
  6
CONTINUOUS
 62
    4
 10
927.7628172983666
 20
418.02346897119878
 40
1.2083333333333581
 50
307.52351320333912
 51
232.47648680464988
  0
ARC
  8
_2-d_ハッチ他
  6
CONTINUOUS
 62
    4
 10
929.23477744284105
 20
416.10680230459866
 40
1.2083333333333179
 50
127.52351320610693
 51
52.47648680188081
  0
ARC
  8
_2-d_ハッチ他
  6
CONTINUOUS
 62
    4
 10
924.81889700968372
 20
418.02346897099414
 40
1.2083333333333581
 50
307.52351320333912
 51
232.47648680464988
  0
ARC
  8
_2-d_ハッチ他
  6
CONTINUOUS
 62
    4
 10
926.29085715415818
 20
416.10680230439402
 40
1.2083333333333179
 50
127.52351320610693
 51
52.47648680188081
  0
ARC
  8
_2-d_ハッチ他
  6
CONTINUOUS
 62
    4
 10
921.87497672099857
 20
418.02346897078951
 40
1.2083333333333581
 50
307.52351320333912
 51
232.47648680464988
  0
ARC
  8
_2-d_ハッチ他
  6
CONTINUOUS
 62
    4
 10
923.3469368654753
 20
416.10680230418939
 40
1.2083333333333179
 50
127.52351320610693
 51
52.47648680188081
  0
ARC
  8
_2-d_ハッチ他
  6
CONTINUOUS
 62
    4
 10
918.9310564323157
 20
418.0234689705826
 40
1.2083333333333581
 50
307.52351320333912
 51
232.47648680464988
  0
ARC
  8
_2-d_ハッチ他
  6
CONTINUOUS
 62
    4
 10
920.40301657679015
 20
416.10680230398475
 40
1.2083333333333179
 50
127.52351320610693
 51
52.47648680188081
  0
ARC
  8
_2-d_ハッチ他
  6
CONTINUOUS
 62
    4
 10
960.14594047388277
 20
418.02346897161033
 40
1.2083333333333581
 50
307.52351320333912
 51
232.47648680464988
  0
ARC
  8
_2-d_ハッチ他
  6
CONTINUOUS
 62
    4
 10
961.6179006183595
 20
416.10680230501021
 40
1.2083333333333179
 50
127.52351320610693
 51
52.47648680188081
  0
ARC
  8
_2-d_ハッチ他
  6
CONTINUOUS
 62
    4
 10
957.2020201851999
 20
418.02346897140342
 40
1.2083333333333581
 50
307.52351320333912
 51
232.47648680464988
  0
ARC
  8
_2-d_ハッチ他
  6
CONTINUOUS
 62
    4
 10
958.67398032967435
 20
416.1068023048033
 40
1.2083333333333179
 50
127.52351320610693
 51
52.47648680188081
  0
ARC
  8
_2-d_ハッチ他
  6
CONTINUOUS
 62
    4
 10
954.25809989651702
 20
418.02346897119878
 40
1.2083333333333581
 50
307.52351320333912
 51
232.47648680464988
  0
ARC
  8
_2-d_ハッチ他
  6
CONTINUOUS
 62
    4
 10
955.73006004099148
 20
416.10680230459866
 40
1.2083333333333179
 50
127.52351320610693
 51
52.47648680188081
  0
ARC
  8
_2-d_ハッチ他
  6
CONTINUOUS
 62
    4
 10
951.31417960783187
 20
418.02346897099414
 40
1.2083333333333581
 50
307.52351320333912
 51
232.47648680464988
  0
ARC
  8
_2-d_ハッチ他
  6
CONTINUOUS
 62
    4
 10
952.7861397523086
 20
416.10680230439402
 40
1.2083333333333179
 50
127.52351320610693
 51
52.47648680188081
  0
ARC
  8
_2-d_ハッチ他
  6
CONTINUOUS
 62
    4
 10
948.370259319149
 20
418.02346897078951
 40
1.2083333333333581
 50
307.52351320333912
 51
232.47648680464988
  0
ARC
  8
_2-d_ハッチ他
  6
CONTINUOUS
 62
    4
 10
949.84221946362345
 20
416.10680230418939
 40
1.2083333333333179
 50
127.52351320610693
 51
52.47648680188081
  0
ARC
  8
_2-d_ハッチ他
  6
CONTINUOUS
 62
    4
 10
945.42633903046612
 20
418.0234689705826
 40
1.2083333333333581
 50
307.52351320333912
 51
232.47648680464988
  0
ARC
  8
_2-d_ハッチ他
  6
CONTINUOUS
 62
    4
 10
946.89829917494285
 20
416.10680230398475
 40
1.2083333333333179
 50
127.52351320610693
 51
52.47648680188081
  0
ARC
  8
_2-d_ハッチ他
  6
CONTINUOUS
 62
    4
 10
939.53849845310037
 20
418.02346897017333
 40
1.2083333333333581
 50
307.52351320333912
 51
232.47648680464988
  0
ARC
  8
_2-d_ハッチ他
  6
CONTINUOUS
 62
    4
 10
942.48241874178325
 20
418.02346897037796
 40
1.2083333333333581
 50
307.52351320333912
 51
232.47648680464988
  0
ARC
  8
_2-d_ハッチ他
  6
CONTINUOUS
 62
    4
 10
941.01045859757483
 20
416.1068023035732
 40
1.2083333333333179
 50
127.52351320610693
 51
52.47648680188081
  0
ARC
  8
_2-d_ハッチ他
  6
CONTINUOUS
 62
    4
 10
943.9543788862577
 20
416.10680230377784
 40
1.2083333333333179
 50
127.52351320610693
 51
52.47648680188081
  0
ARC
  8
_2-d_ハッチ他
  6
CONTINUOUS
 62
    4
 10
938.06653830889195
 20
416.10680230336857
 40
1.2083333333333179
 50
127.52351320610693
 51
52.47648680188081
  0
ARC
  8
_2-d_ハッチ他
  6
CONTINUOUS
 62
    4
 10
936.59457816441522
 20
418.02346896996869
 40
1.2083333333333581
 50
307.52351320333912
 51
232.47648680464988
  0
ARC
  8
_2-d_ハッチ他
  6
CONTINUOUS
 62
    4
 10
986.6412230720332
 20
418.02346897161033
 40
1.2083333333333581
 50
307.52351320333912
 51
232.47648680464988
  0
ARC
  8
_2-d_ハッチ他
  6
CONTINUOUS
 62
    4
 10
988.11318321650765
 20
416.10680230501021
 40
1.2083333333333179
 50
127.52351320610693
 51
52.47648680188081
  0
ARC
  8
_2-d_ハッチ他
  6
CONTINUOUS
 62
    4
 10
983.69730278335032
 20
418.02346897140342
 40
1.2083333333333581
 50
307.52351320333912
 51
232.47648680464988
  0
ARC
  8
_2-d_ハッチ他
  6
CONTINUOUS
 62
    4
 10
985.16926292782478
 20
416.1068023048033
 40
1.2083333333333179
 50
127.52351320610693
 51
52.47648680188081
  0
ARC
  8
_2-d_ハッチ他
  6
CONTINUOUS
 62
    4
 10
980.75338249466517
 20
418.02346897119878
 40
1.2083333333333581
 50
307.52351320333912
 51
232.47648680464988
  0
ARC
  8
_2-d_ハッチ他
  6
CONTINUOUS
 62
    4
 10
982.2253426391419
 20
416.10680230459866
 40
1.2083333333333179
 50
127.52351320610693
 51
52.47648680188081
  0
ARC
  8
_2-d_ハッチ他
  6
CONTINUOUS
 62
    4
 10
977.80946220598457
 20
418.02346897099414
 40
1.2083333333333581
 50
307.52351320333912
 51
232.47648680464988
  0
ARC
  8
_2-d_ハッチ他
  6
CONTINUOUS
 62
    4
 10
979.28142235045675
 20
416.10680230439402
 40
1.2083333333333179
 50
127.52351320610693
 51
52.47648680188081
  0
ARC
  8
_2-d_ハッチ他
  6
CONTINUOUS
 62
    4
 10
974.86554191729942
 20
418.02346897078951
 40
1.2083333333333581
 50
307.52351320333912
 51
232.47648680464988
  0
ARC
  8
_2-d_ハッチ他
  6
CONTINUOUS
 62
    4
 10
976.33750206177615
 20
416.10680230418939
 40
1.2083333333333179
 50
127.52351320610693
 51
52.47648680188081
  0
ARC
  8
_2-d_ハッチ他
  6
CONTINUOUS
 62
    4
 10
971.92162162861655
 20
418.0234689705826
 40
1.2083333333333581
 50
307.52351320333912
 51
232.47648680464988
  0
ARC
  8
_2-d_ハッチ他
  6
CONTINUOUS
 62
    4
 10
973.393581773091
 20
416.10680230398475
 40
1.2083333333333179
 50
127.52351320610693
 51
52.47648680188081
  0
ARC
  8
_2-d_ハッチ他
  6
CONTINUOUS
 62
    4
 10
966.03378105124852
 20
418.02346897017333
 40
1.2083333333333581
 50
307.52351320333912
 51
232.47648680464988
  0
ARC
  8
_2-d_ハッチ他
  6
CONTINUOUS
 62
    4
 10
968.97770133993367
 20
418.02346897037796
 40
1.2083333333333581
 50
307.52351320333912
 51
232.47648680464988
  0
ARC
  8
_2-d_ハッチ他
  6
CONTINUOUS
 62
    4
 10
967.50574119572525
 20
416.1068023035732
 40
1.2083333333333179
 50
127.52351320610693
 51
52.47648680188081
  0
ARC
  8
_2-d_ハッチ他
  6
CONTINUOUS
 62
    4
 10
970.44966148440813
 20
416.10680230377784
 40
1.2083333333333179
 50
127.52351320610693
 51
52.47648680188081
  0
ARC
  8
_2-d_ハッチ他
  6
CONTINUOUS
 62
    4
 10
964.5618209070401
 20
416.10680230336857
 40
1.2083333333333179
 50
127.52351320610693
 51
52.47648680188081
  0
ARC
  8
_2-d_ハッチ他
  6
CONTINUOUS
 62
    4
 10
963.08986076256565
 20
418.02346896996869
 40
1.2083333333333581
 50
307.52351320333912
 51
232.47648680464988
  0
ARC
  8
_2-d_ハッチ他
  6
CONTINUOUS
 62
    4
 10
991.0571035051928
 20
416.10680230459866
 40
1.2083333333333179
 50
127.52351320610693
 51
52.47648680188081
  0
ARC
  8
_2-d_ハッチ他
  6
CONTINUOUS
 62
    4
 10
989.58514336071607
 20
418.02346897119878
 40
1.2083333333333581
 50
307.52351320333912
 51
232.47648680464988
  0
ARC
  8
_2-d_ハッチ他
  6
CONTINUOUS
 62
    4
 10
1016.0804259588665
 20
418.02346897161033
 40
1.2083333333333581
 50
307.52351320333912
 51
232.47648680464988
  0
ARC
  8
_2-d_ハッチ他
  6
CONTINUOUS
 62
    4
 10
1017.552386103341
 20
416.10680230501021
 40
1.2083333333333179
 50
127.52351320610693
 51
52.47648680188081
  0
ARC
  8
_2-d_ハッチ他
  6
CONTINUOUS
 62
    4
 10
1013.1365056701836
 20
418.02346897140342
 40
1.2083333333333581
 50
307.52351320333912
 51
232.47648680464988
  0
ARC
  8
_2-d_ハッチ他
  6
CONTINUOUS
 62
    4
 10
1014.6084658146581
 20
416.1068023048033
 40
1.2083333333333179
 50
127.52351320610693
 51
52.47648680188081
  0
ARC
  8
_2-d_ハッチ他
  6
CONTINUOUS
 62
    4
 10
1010.1925853814985
 20
418.02346897119878
 40
1.2083333333333581
 50
307.52351320333912
 51
232.47648680464988
  0
ARC
  8
_2-d_ハッチ他
  6
CONTINUOUS
 62
    4
 10
1011.6645455259752
 20
416.10680230459866
 40
1.2083333333333179
 50
127.52351320610693
 51
52.47648680188081
  0
ARC
  8
_2-d_ハッチ他
  6
CONTINUOUS
 62
    4
 10
1007.2486650928179
 20
418.02346897099414
 40
1.2083333333333581
 50
307.52351320333912
 51
232.47648680464988
  0
ARC
  8
_2-d_ハッチ他
  6
CONTINUOUS
 62
    4
 10
1008.7206252372923
 20
416.10680230439402
 40
1.2083333333333179
 50
127.52351320610693
 51
52.47648680188081
  0
ARC
  8
_2-d_ハッチ他
  6
CONTINUOUS
 62
    4
 10
1004.3047448041327
 20
418.02346897078951
 40
1.2083333333333581
 50
307.52351320333912
 51
232.47648680464988
  0
ARC
  8
_2-d_ハッチ他
  6
CONTINUOUS
 62
    4
 10
1005.7767049486094
 20
416.10680230418939
 40
1.2083333333333179
 50
127.52351320610693
 51
52.47648680188081
  0
ARC
  8
_2-d_ハッチ他
  6
CONTINUOUS
 62
    4
 10
1001.3608245154498
 20
418.0234689705826
 40
1.2083333333333581
 50
307.52351320333912
 51
232.47648680464988
  0
ARC
  8
_2-d_ハッチ他
  6
CONTINUOUS
 62
    4
 10
1002.8327846599243
 20
416.10680230398475
 40
1.2083333333333179
 50
127.52351320610693
 51
52.47648680188081
  0
ARC
  8
_2-d_ハッチ他
  6
CONTINUOUS
 62
    4
 10
995.47298393808182
 20
418.02346897017333
 40
1.2083333333333581
 50
307.52351320333912
 51
232.47648680464988
  0
ARC
  8
_2-d_ハッチ他
  6
CONTINUOUS
 62
    4
 10
998.41690422676697
 20
418.02346897037796
 40
1.2083333333333581
 50
307.52351320333912
 51
232.47648680464988
  0
ARC
  8
_2-d_ハッチ他
  6
CONTINUOUS
 62
    4
 10
996.94494408255855
 20
416.1068023035732
 40
1.2083333333333179
 50
127.52351320610693
 51
52.47648680188081
  0
ARC
  8
_2-d_ハッチ他
  6
CONTINUOUS
 62
    4
 10
999.88886437124143
 20
416.10680230377784
 40
1.2083333333333179
 50
127.52351320610693
 51
52.47648680188081
  0
ARC
  8
_2-d_ハッチ他
  6
CONTINUOUS
 62
    4
 10
994.00102379387567
 20
416.10680230336857
 40
1.2083333333333179
 50
127.52351320610693
 51
52.47648680188081
  0
ARC
  8
_2-d_ハッチ他
  6
CONTINUOUS
 62
    4
 10
992.52906364940122
 20
418.02346896996869
 40
1.2083333333333581
 50
307.52351320333912
 51
232.47648680464988
  0
ARC
  8
_2-d_ハッチ他
  6
CONTINUOUS
 62
    4
 10
1042.5757085570169
 20
418.02346897161033
 40
1.2083333333333581
 50
307.52351320333912
 51
232.47648680464988
  0
ARC
  8
_2-d_ハッチ他
  6
CONTINUOUS
 62
    4
 10
1044.0476687014936
 20
416.10680230501021
 40
1.2083333333333179
 50
127.52351320610693
 51
52.47648680188081
  0
ARC
  8
_2-d_ハッチ他
  6
CONTINUOUS
 62
    4
 10
1039.631788268334
 20
418.02346897140342
 40
1.2083333333333581
 50
307.52351320333912
 51
232.47648680464988
  0
ARC
  8
_2-d_ハッチ他
  6
CONTINUOUS
 62
    4
 10
1041.1037484128085
 20
416.1068023048033
 40
1.2083333333333179
 50
127.52351320610693
 51
52.47648680188081
  0
ARC
  8
_2-d_ハッチ他
  6
CONTINUOUS
 62
    4
 10
1036.6878679796512
 20
418.02346897119878
 40
1.2083333333333581
 50
307.52351320333912
 51
232.47648680464988
  0
ARC
  8
_2-d_ハッチ他
  6
CONTINUOUS
 62
    4
 10
1038.1598281241256
 20
416.10680230459866
 40
1.2083333333333179
 50
127.52351320610693
 51
52.47648680188081
  0
ARC
  8
_2-d_ハッチ他
  6
CONTINUOUS
 62
    4
 10
1033.743947690966
 20
418.02346897099414
 40
1.2083333333333581
 50
307.52351320333912
 51
232.47648680464988
  0
ARC
  8
_2-d_ハッチ他
  6
CONTINUOUS
 62
    4
 10
1035.2159078354427
 20
416.10680230439402
 40
1.2083333333333179
 50
127.52351320610693
 51
52.47648680188081
  0
ARC
  8
_2-d_ハッチ他
  6
CONTINUOUS
 62
    4
 10
1030.8000274022831
 20
418.02346897078951
 40
1.2083333333333581
 50
307.52351320333912
 51
232.47648680464988
  0
ARC
  8
_2-d_ハッチ他
  6
CONTINUOUS
 62
    4
 10
1032.2719875467576
 20
416.10680230418939
 40
1.2083333333333179
 50
127.52351320610693
 51
52.47648680188081
  0
ARC
  8
_2-d_ハッチ他
  6
CONTINUOUS
 62
    4
 10
1027.8561071136003
 20
418.0234689705826
 40
1.2083333333333581
 50
307.52351320333912
 51
232.47648680464988
  0
ARC
  8
_2-d_ハッチ他
  6
CONTINUOUS
 62
    4
 10
1029.328067258077
 20
416.10680230398475
 40
1.2083333333333179
 50
127.52351320610693
 51
52.47648680188081
  0
ARC
  8
_2-d_ハッチ他
  6
CONTINUOUS
 62
    4
 10
1021.9682665362345
 20
418.02346897017333
 40
1.2083333333333581
 50
307.52351320333912
 51
232.47648680464988
  0
ARC
  8
_2-d_ハッチ他
  6
CONTINUOUS
 62
    4
 10
1024.9121868249174
 20
418.02346897037796
 40
1.2083333333333581
 50
307.52351320333912
 51
232.47648680464988
  0
ARC
  8
_2-d_ハッチ他
  6
CONTINUOUS
 62
    4
 10
1023.440226680709
 20
416.1068023035732
 40
1.2083333333333179
 50
127.52351320610693
 51
52.47648680188081
  0
ARC
  8
_2-d_ハッチ他
  6
CONTINUOUS
 62
    4
 10
1026.3841469693918
 20
416.10680230377784
 40
1.2083333333333179
 50
127.52351320610693
 51
52.47648680188081
  0
ARC
  8
_2-d_ハッチ他
  6
CONTINUOUS
 62
    4
 10
1020.4963063920261
 20
416.10680230336857
 40
1.2083333333333179
 50
127.52351320610693
 51
52.47648680188081
  0
ARC
  8
_2-d_ハッチ他
  6
CONTINUOUS
 62
    4
 10
1019.0243462475494
 20
418.02346896996869
 40
1.2083333333333581
 50
307.52351320333912
 51
232.47648680464988
  0
ARC
  8
_2-d_ハッチ他
  6
CONTINUOUS
 62
    4
 10
1069.0709911551673
 20
418.02346897161033
 40
1.2083333333333581
 50
307.52351320333912
 51
232.47648680464988
  0
ARC
  8
_2-d_ハッチ他
  6
CONTINUOUS
 62
    4
 10
1070.5429512996418
 20
416.10680230501021
 40
1.2083333333333179
 50
127.52351320610693
 51
52.47648680188081
  0
ARC
  8
_2-d_ハッチ他
  6
CONTINUOUS
 62
    4
 10
1066.1270708664845
 20
418.02346897140342
 40
1.2083333333333581
 50
307.52351320333912
 51
232.47648680464988
  0
ARC
  8
_2-d_ハッチ他
  6
CONTINUOUS
 62
    4
 10
1067.5990310109589
 20
416.1068023048033
 40
1.2083333333333179
 50
127.52351320610693
 51
52.47648680188081
  0
ARC
  8
_2-d_ハッチ他
  6
CONTINUOUS
 62
    4
 10
1063.1831505777993
 20
418.02346897119878
 40
1.2083333333333581
 50
307.52351320333912
 51
232.47648680464988
  0
ARC
  8
_2-d_ハッチ他
  6
CONTINUOUS
 62
    4
 10
1064.655110722276
 20
416.10680230459866
 40
1.2083333333333179
 50
127.52351320610693
 51
52.47648680188081
  0
ARC
  8
_2-d_ハッチ他
  6
CONTINUOUS
 62
    4
 10
1060.2392302891187
 20
418.02346897099414
 40
1.2083333333333581
 50
307.52351320333912
 51
232.47648680464988
  0
ARC
  8
_2-d_ハッチ他
  6
CONTINUOUS
 62
    4
 10
1061.7111904335909
 20
416.10680230439402
 40
1.2083333333333179
 50
127.52351320610693
 51
52.47648680188081
  0
ARC
  8
_2-d_ハッチ他
  6
CONTINUOUS
 62
    4
 10
1057.2953100004336
 20
418.02346897078951
 40
1.2083333333333581
 50
307.52351320333912
 51
232.47648680464988
  0
ARC
  8
_2-d_ハッチ他
  6
CONTINUOUS
 62
    4
 10
1058.7672701449103
 20
416.10680230418939
 40
1.2083333333333179
 50
127.52351320610693
 51
52.47648680188081
  0
ARC
  8
_2-d_ハッチ他
  6
CONTINUOUS
 62
    4
 10
1054.3513897117507
 20
418.0234689705826
 40
1.2083333333333581
 50
307.52351320333912
 51
232.47648680464988
  0
ARC
  8
_2-d_ハッチ他
  6
CONTINUOUS
 62
    4
 10
1055.8233498562251
 20
416.10680230398475
 40
1.2083333333333179
 50
127.52351320610693
 51
52.47648680188081
  0
ARC
  8
_2-d_ハッチ他
  6
CONTINUOUS
 62
    4
 10
1048.4635491343827
 20
418.02346897017333
 40
1.2083333333333581
 50
307.52351320333912
 51
232.47648680464988
  0
ARC
  8
_2-d_ハッチ他
  6
CONTINUOUS
 62
    4
 10
1051.4074694230678
 20
418.02346897037796
 40
1.2083333333333581
 50
307.52351320333912
 51
232.47648680464988
  0
ARC
  8
_2-d_ハッチ他
  6
CONTINUOUS
 62
    4
 10
1049.9355092788594
 20
416.1068023035732
 40
1.2083333333333179
 50
127.52351320610693
 51
52.47648680188081
  0
ARC
  8
_2-d_ハッチ他
  6
CONTINUOUS
 62
    4
 10
1052.8794295675423
 20
416.10680230377784
 40
1.2083333333333179
 50
127.52351320610693
 51
52.47648680188081
  0
ARC
  8
_2-d_ハッチ他
  6
CONTINUOUS
 62
    4
 10
1046.9915889901743
 20
416.10680230336857
 40
1.2083333333333179
 50
127.52351320610693
 51
52.47648680188081
  0
ARC
  8
_2-d_ハッチ他
  6
CONTINUOUS
 62
    4
 10
1045.5196288456998
 20
418.02346896996869
 40
1.2083333333333581
 50
307.52351320333912
 51
232.47648680464988
  0
ARC
  8
_2-d_ハッチ他
  6
CONTINUOUS
 62
    4
 10
1086.7345128872669
 20
418.02346897161033
 40
1.2083333333333581
 50
307.52351320333912
 51
232.47648680464988
  0
ARC
  8
_2-d_ハッチ他
  6
CONTINUOUS
 62
    4
 10
1088.2064730317436
 20
416.10680230501021
 40
1.2083333333333179
 50
127.52351320610693
 51
52.47648680188081
  0
ARC
  8
_2-d_ハッチ他
  6
CONTINUOUS
 62
    4
 10
1083.790592598584
 20
418.02346897140342
 40
1.2083333333333581
 50
307.52351320333912
 51
232.47648680464988
  0
ARC
  8
_2-d_ハッチ他
  6
CONTINUOUS
 62
    4
 10
1085.2625527430584
 20
416.1068023048033
 40
1.2083333333333179
 50
127.52351320610693
 51
52.47648680188081
  0
ARC
  8
_2-d_ハッチ他
  6
CONTINUOUS
 62
    4
 10
1080.8466723099011
 20
418.02346897119878
 40
1.2083333333333581
 50
307.52351320333912
 51
232.47648680464988
  0
ARC
  8
_2-d_ハッチ他
  6
CONTINUOUS
 62
    4
 10
1082.3186324543756
 20
416.10680230459866
 40
1.2083333333333179
 50
127.52351320610693
 51
52.47648680188081
  0
ARC
  8
_2-d_ハッチ他
  6
CONTINUOUS
 62
    4
 10
1077.902752021216
 20
418.02346897099414
 40
1.2083333333333581
 50
307.52351320333912
 51
232.47648680464988
  0
ARC
  8
_2-d_ハッチ他
  6
CONTINUOUS
 62
    4
 10
1079.3747121656927
 20
416.10680230439402
 40
1.2083333333333179
 50
127.52351320610693
 51
52.47648680188081
  0
ARC
  8
_2-d_ハッチ他
  6
CONTINUOUS
 62
    4
 10
1074.9588317325354
 20
418.02346897078951
 40
1.2083333333333581
 50
307.52351320333912
 51
232.47648680464988
  0
ARC
  8
_2-d_ハッチ他
  6
CONTINUOUS
 62
    4
 10
1076.4307918770076
 20
416.10680230418939
 40
1.2083333333333179
 50
127.52351320610693
 51
52.47648680188081
  0
ARC
  8
_2-d_ハッチ他
  6
CONTINUOUS
 62
    4
 10
1072.0149114438502
 20
418.0234689705826
 40
1.2083333333333581
 50
307.52351320333912
 51
232.47648680464988
  0
ARC
  8
_2-d_ハッチ他
  6
CONTINUOUS
 62
    4
 10
1073.4868715883269
 20
416.10680230398475
 40
1.2083333333333179
 50
127.52351320610693
 51
52.47648680188081
  0
ARC
  8
_2-d_ハッチ他
  6
CONTINUOUS
 62
    4
 10
1113.2297954854173
 20
418.02346897161033
 40
1.2083333333333581
 50
307.52351320333912
 51
232.47648680464988
  0
ARC
  8
_2-d_ハッチ他
  6
CONTINUOUS
 62
    4
 10
1114.7017556298917
 20
416.10680230501021
 40
1.2083333333333179
 50
127.52351320610693
 51
52.47648680188081
  0
ARC
  8
_2-d_ハッチ他
  6
CONTINUOUS
 62
    4
 10
1110.2858751967344
 20
418.02346897140342
 40
1.2083333333333581
 50
307.52351320333912
 51
232.47648680464988
  0
ARC
  8
_2-d_ハッチ他
  6
CONTINUOUS
 62
    4
 10
1111.7578353412089
 20
416.1068023048033
 40
1.2083333333333179
 50
127.52351320610693
 51
52.47648680188081
  0
ARC
  8
_2-d_ハッチ他
  6
CONTINUOUS
 62
    4
 10
1107.3419549080493
 20
418.02346897119878
 40
1.2083333333333581
 50
307.52351320333912
 51
232.47648680464988
  0
ARC
  8
_2-d_ハッチ他
  6
CONTINUOUS
 62
    4
 10
1108.813915052526
 20
416.10680230459866
 40
1.2083333333333179
 50
127.52351320610693
 51
52.47648680188081
  0
ARC
  8
_2-d_ハッチ他
  6
CONTINUOUS
 62
    4
 10
1104.3980346193687
 20
418.02346897099414
 40
1.2083333333333581
 50
307.52351320333912
 51
232.47648680464988
  0
ARC
  8
_2-d_ハッチ他
  6
CONTINUOUS
 62
    4
 10
1105.8699947638431
 20
416.10680230439402
 40
1.2083333333333179
 50
127.52351320610693
 51
52.47648680188081
  0
ARC
  8
_2-d_ハッチ他
  6
CONTINUOUS
 62
    4
 10
1101.4541143306835
 20
418.02346897078951
 40
1.2083333333333581
 50
307.52351320333912
 51
232.47648680464988
  0
ARC
  8
_2-d_ハッチ他
  6
CONTINUOUS
 62
    4
 10
1102.9260744751602
 20
416.10680230418939
 40
1.2083333333333179
 50
127.52351320610693
 51
52.47648680188081
  0
ARC
  8
_2-d_ハッチ他
  6
CONTINUOUS
 62
    4
 10
1098.5101940420006
 20
418.0234689705826
 40
1.2083333333333581
 50
307.52351320333912
 51
232.47648680464988
  0
ARC
  8
_2-d_ハッチ他
  6
CONTINUOUS
 62
    4
 10
1099.9821541864751
 20
416.10680230398475
 40
1.2083333333333179
 50
127.52351320610693
 51
52.47648680188081
  0
ARC
  8
_2-d_ハッチ他
  6
CONTINUOUS
 62
    4
 10
1092.6223534646326
 20
418.02346897017333
 40
1.2083333333333581
 50
307.52351320333912
 51
232.47648680464988
  0
ARC
  8
_2-d_ハッチ他
  6
CONTINUOUS
 62
    4
 10
1095.5662737533178
 20
418.02346897037796
 40
1.2083333333333581
 50
307.52351320333912
 51
232.47648680464988
  0
ARC
  8
_2-d_ハッチ他
  6
CONTINUOUS
 62
    4
 10
1094.0943136091093
 20
416.1068023035732
 40
1.2083333333333179
 50
127.52351320610693
 51
52.47648680188081
  0
ARC
  8
_2-d_ハッチ他
  6
CONTINUOUS
 62
    4
 10
1097.0382338977922
 20
416.10680230377784
 40
1.2083333333333179
 50
127.52351320610693
 51
52.47648680188081
  0
ARC
  8
_2-d_ハッチ他
  6
CONTINUOUS
 62
    4
 10
1091.1503933204242
 20
416.10680230336857
 40
1.2083333333333179
 50
127.52351320610693
 51
52.47648680188081
  0
ARC
  8
_2-d_ハッチ他
  6
CONTINUOUS
 62
    4
 10
1089.678433175952
 20
418.02346896996869
 40
1.2083333333333581
 50
307.52351320333912
 51
232.47648680464988
  0
ARC
  8
_2-d_ハッチ他
  6
CONTINUOUS
 62
    4
 10
1139.7250780835677
 20
418.02346897161033
 40
1.2083333333333581
 50
307.52351320333912
 51
232.47648680464988
  0
ARC
  8
_2-d_ハッチ他
  6
CONTINUOUS
 62
    4
 10
1141.1970382280444
 20
416.10680230501021
 40
1.2083333333333179
 50
127.52351320610693
 51
52.47648680188081
  0
ARC
  8
_2-d_ハッチ他
  6
CONTINUOUS
 62
    4
 10
1136.7811577948826
 20
418.02346897140342
 40
1.2083333333333581
 50
307.52351320333912
 51
232.47648680464988
  0
ARC
  8
_2-d_ハッチ他
  6
CONTINUOUS
 62
    4
 10
1138.2531179393593
 20
416.1068023048033
 40
1.2083333333333179
 50
127.52351320610693
 51
52.47648680188081
  0
ARC
  8
_2-d_ハッチ他
  6
CONTINUOUS
 62
    4
 10
1133.837237506202
 20
418.02346897119878
 40
1.2083333333333581
 50
307.52351320333912
 51
232.47648680464988
  0
ARC
  8
_2-d_ハッチ他
  6
CONTINUOUS
 62
    4
 10
1135.3091976506764
 20
416.10680230459866
 40
1.2083333333333179
 50
127.52351320610693
 51
52.47648680188081
  0
ARC
  8
_2-d_ハッチ他
  6
CONTINUOUS
 62
    4
 10
1130.8933172175168
 20
418.02346897099414
 40
1.2083333333333581
 50
307.52351320333912
 51
232.47648680464988
  0
ARC
  8
_2-d_ハッチ他
  6
CONTINUOUS
 62
    4
 10
1132.3652773619935
 20
416.10680230439402
 40
1.2083333333333179
 50
127.52351320610693
 51
52.47648680188081
  0
ARC
  8
_2-d_ハッチ他
  6
CONTINUOUS
 62
    4
 10
1127.9493969288339
 20
418.02346897078951
 40
1.2083333333333581
 50
307.52351320333912
 51
232.47648680464988
  0
ARC
  8
_2-d_ハッチ他
  6
CONTINUOUS
 62
    4
 10
1129.4213570733084
 20
416.10680230418939
 40
1.2083333333333179
 50
127.52351320610693
 51
52.47648680188081
  0
ARC
  8
_2-d_ハッチ他
  6
CONTINUOUS
 62
    4
 10
1125.0054766401511
 20
418.0234689705826
 40
1.2083333333333581
 50
307.52351320333912
 51
232.47648680464988
  0
ARC
  8
_2-d_ハッチ他
  6
CONTINUOUS
 62
    4
 10
1126.4774367846255
 20
416.10680230398475
 40
1.2083333333333179
 50
127.52351320610693
 51
52.47648680188081
  0
ARC
  8
_2-d_ハッチ他
  6
CONTINUOUS
 62
    4
 10
1119.1176360627853
 20
418.02346897017333
 40
1.2083333333333581
 50
307.52351320333912
 51
232.47648680464988
  0
ARC
  8
_2-d_ハッチ他
  6
CONTINUOUS
 62
    4
 10
1122.0615563514659
 20
418.02346897037796
 40
1.2083333333333581
 50
307.52351320333912
 51
232.47648680464988
  0
ARC
  8
_2-d_ハッチ他
  6
CONTINUOUS
 62
    4
 10
1120.5895962072598
 20
416.1068023035732
 40
1.2083333333333179
 50
127.52351320610693
 51
52.47648680188081
  0
ARC
  8
_2-d_ハッチ他
  6
CONTINUOUS
 62
    4
 10
1123.5335164959426
 20
416.10680230377784
 40
1.2083333333333179
 50
127.52351320610693
 51
52.47648680188081
  0
ARC
  8
_2-d_ハッチ他
  6
CONTINUOUS
 62
    4
 10
1117.6456759185769
 20
416.10680230336857
 40
1.2083333333333179
 50
127.52351320610693
 51
52.47648680188081
  0
ARC
  8
_2-d_ハッチ他
  6
CONTINUOUS
 62
    4
 10
1116.1737157741002
 20
418.02346896996869
 40
1.2083333333333581
 50
307.52351320333912
 51
232.47648680464988
  0
ARC
  8
_2-d_ハッチ他
  6
CONTINUOUS
 62
    4
 10
1144.140958516725
 20
416.10680230459866
 40
1.2083333333333179
 50
127.52351320610693
 51
52.47648680188081
  0
ARC
  8
_2-d_ハッチ他
  6
CONTINUOUS
 62
    4
 10
1142.6689983722506
 20
418.02346897119878
 40
1.2083333333333581
 50
307.52351320333912
 51
232.47648680464988
  0
ARC
  8
_2-d_ハッチ他
  6
CONTINUOUS
 62
    4
 10
1169.164280970401
 20
418.02346897161033
 40
1.2083333333333581
 50
307.52351320333912
 51
232.47648680464988
  0
ARC
  8
_2-d_ハッチ他
  6
CONTINUOUS
 62
    4
 10
1170.6362411148755
 20
416.10680230501021
 40
1.2083333333333179
 50
127.52351320610693
 51
52.47648680188081
  0
ARC
  8
_2-d_ハッチ他
  6
CONTINUOUS
 62
    4
 10
1166.2203606817159
 20
418.02346897140342
 40
1.2083333333333581
 50
307.52351320333912
 51
232.47648680464988
  0
ARC
  8
_2-d_ハッチ他
  6
CONTINUOUS
 62
    4
 10
1167.6923208261926
 20
416.1068023048033
 40
1.2083333333333179
 50
127.52351320610693
 51
52.47648680188081
  0
ARC
  8
_2-d_ハッチ他
  6
CONTINUOUS
 62
    4
 10
1163.276440393033
 20
418.02346897119878
 40
1.2083333333333581
 50
307.52351320333912
 51
232.47648680464988
  0
ARC
  8
_2-d_ハッチ他
  6
CONTINUOUS
 62
    4
 10
1164.7484005375075
 20
416.10680230459866
 40
1.2083333333333179
 50
127.52351320610693
 51
52.47648680188081
  0
ARC
  8
_2-d_ハッチ他
  6
CONTINUOUS
 62
    4
 10
1160.3325201043501
 20
418.02346897099414
 40
1.2083333333333581
 50
307.52351320333912
 51
232.47648680464988
  0
ARC
  8
_2-d_ハッチ他
  6
CONTINUOUS
 62
    4
 10
1161.8044802488268
 20
416.10680230439402
 40
1.2083333333333179
 50
127.52351320610693
 51
52.47648680188081
  0
ARC
  8
_2-d_ハッチ他
  6
CONTINUOUS
 62
    4
 10
1157.388599815665
 20
418.02346897078951
 40
1.2083333333333581
 50
307.52351320333912
 51
232.47648680464988
  0
ARC
  8
_2-d_ハッチ他
  6
CONTINUOUS
 62
    4
 10
1158.8605599601417
 20
416.10680230418939
 40
1.2083333333333179
 50
127.52351320610693
 51
52.47648680188081
  0
ARC
  8
_2-d_ハッチ他
  6
CONTINUOUS
 62
    4
 10
1154.4446795269844
 20
418.0234689705826
 40
1.2083333333333581
 50
307.52351320333912
 51
232.47648680464988
  0
ARC
  8
_2-d_ハッチ他
  6
CONTINUOUS
 62
    4
 10
1155.9166396714588
 20
416.10680230398475
 40
1.2083333333333179
 50
127.52351320610693
 51
52.47648680188081
  0
ARC
  8
_2-d_ハッチ他
  6
CONTINUOUS
 62
    4
 10
1148.5568389496163
 20
418.02346897017333
 40
1.2083333333333581
 50
307.52351320333912
 51
232.47648680464988
  0
ARC
  8
_2-d_ハッチ他
  6
CONTINUOUS
 62
    4
 10
1151.5007592382992
 20
418.02346897037796
 40
1.2083333333333581
 50
307.52351320333912
 51
232.47648680464988
  0
ARC
  8
_2-d_ハッチ他
  6
CONTINUOUS
 62
    4
 10
1150.0287990940908
 20
416.1068023035732
 40
1.2083333333333179
 50
127.52351320610693
 51
52.47648680188081
  0
ARC
  8
_2-d_ハッチ他
  6
CONTINUOUS
 62
    4
 10
1152.9727193827759
 20
416.10680230377784
 40
1.2083333333333179
 50
127.52351320610693
 51
52.47648680188081
  0
ARC
  8
_2-d_ハッチ他
  6
CONTINUOUS
 62
    4
 10
1147.0848788054102
 20
416.10680230336857
 40
1.2083333333333179
 50
127.52351320610693
 51
52.47648680188081
  0
ARC
  8
_2-d_ハッチ他
  6
CONTINUOUS
 62
    4
 10
1145.6129186609335
 20
418.02346896996869
 40
1.2083333333333581
 50
307.52351320333912
 51
232.47648680464988
  0
ARC
  8
_2-d_ハッチ他
  6
CONTINUOUS
 62
    4
 10
1180.9399621251325
 20
418.0234689705826
 40
1.2083333333333581
 50
307.52351320333912
 51
232.47648680464988
  0
ARC
  8
_2-d_ハッチ他
  6
CONTINUOUS
 62
    4
 10
1175.0521215477668
 20
418.02346897017333
 40
1.2083333333333581
 50
307.52351320333912
 51
232.47648680464988
  0
ARC
  8
_2-d_ハッチ他
  6
CONTINUOUS
 62
    4
 10
1177.9960418364519
 20
418.02346897037796
 40
1.2083333333333581
 50
307.52351320333912
 51
232.47648680464988
  0
ARC
  8
_2-d_ハッチ他
  6
CONTINUOUS
 62
    4
 10
1176.5240816922435
 20
416.1068023035732
 40
1.2083333333333179
 50
127.52351320610693
 51
52.47648680188081
  0
ARC
  8
_2-d_ハッチ他
  6
CONTINUOUS
 62
    4
 10
1179.4680019809241
 20
416.10680230377784
 40
1.2083333333333179
 50
127.52351320610693
 51
52.47648680188081
  0
ARC
  8
_2-d_ハッチ他
  6
CONTINUOUS
 62
    4
 10
1173.5801614035583
 20
416.10680230336857
 40
1.2083333333333179
 50
127.52351320610693
 51
52.47648680188081
  0
ARC
  8
_2-d_ハッチ他
  6
CONTINUOUS
 62
    4
 10
1172.1082012590839
 20
418.02346896996869
 40
1.2083333333333581
 50
307.52351320333912
 51
232.47648680464988
  0
ARC
  8
_2-d_ハッチ他
  6
CONTINUOUS
 62
    4
 10
1204.4913244346012
 20
418.02346897161033
 40
1.2083333333333581
 50
307.52351320333912
 51
232.47648680464988
  0
ARC
  8
_2-d_ハッチ他
  6
CONTINUOUS
 62
    4
 10
1205.9632845790779
 20
416.10680230501021
 40
1.2083333333333179
 50
127.52351320610693
 51
52.47648680188081
  0
ARC
  8
_2-d_ハッチ他
  6
CONTINUOUS
 62
    4
 10
1201.5474041459183
 20
418.02346897140342
 40
1.2083333333333581
 50
307.52351320333912
 51
232.47648680464988
  0
ARC
  8
_2-d_ハッチ他
  6
CONTINUOUS
 62
    4
 10
1203.0193642903928
 20
416.1068023048033
 40
1.2083333333333179
 50
127.52351320610693
 51
52.47648680188081
  0
ARC
  8
_2-d_ハッチ他
  6
CONTINUOUS
 62
    4
 10
1198.6034838572355
 20
418.02346897119878
 40
1.2083333333333581
 50
307.52351320333912
 51
232.47648680464988
  0
ARC
  8
_2-d_ハッチ他
  6
CONTINUOUS
 62
    4
 10
1200.0754440017122
 20
416.10680230459866
 40
1.2083333333333179
 50
127.52351320610693
 51
52.47648680188081
  0
ARC
  8
_2-d_ハッチ他
  6
CONTINUOUS
 62
    4
 10
1195.6595635685526
 20
418.02346897099414
 40
1.2083333333333581
 50
307.52351320333912
 51
232.47648680464988
  0
ARC
  8
_2-d_ハッチ他
  6
CONTINUOUS
 62
    4
 10
1197.131523713027
 20
416.10680230439402
 40
1.2083333333333179
 50
127.52351320610693
 51
52.47648680188081
  0
ARC
  8
_2-d_ハッチ他
  6
CONTINUOUS
 62
    4
 10
1192.7156432798697
 20
418.02346897078951
 40
1.2083333333333581
 50
307.52351320333912
 51
232.47648680464988
  0
ARC
  8
_2-d_ハッチ他
  6
CONTINUOUS
 62
    4
 10
1194.1876034243442
 20
416.10680230418939
 40
1.2083333333333179
 50
127.52351320610693
 51
52.47648680188081
  0
ARC
  8
_2-d_ハッチ他
  6
CONTINUOUS
 62
    4
 10
1189.7717229911846
 20
418.0234689705826
 40
1.2083333333333581
 50
307.52351320333912
 51
232.47648680464988
  0
ARC
  8
_2-d_ハッチ他
  6
CONTINUOUS
 62
    4
 10
1191.2436831356613
 20
416.10680230398475
 40
1.2083333333333179
 50
127.52351320610693
 51
52.47648680188081
  0
ARC
  8
_2-d_ハッチ他
  6
CONTINUOUS
 62
    4
 10
1183.8838824138177
 20
418.02346897017333
 40
1.2083333333333581
 50
307.52351320333912
 51
232.47648680464988
  0
ARC
  8
_2-d_ハッチ他
  6
CONTINUOUS
 62
    4
 10
1186.8278027025005
 20
418.02346897037796
 40
1.2083333333333581
 50
307.52351320333912
 51
232.47648680464988
  0
ARC
  8
_2-d_ハッチ他
  6
CONTINUOUS
 62
    4
 10
1185.3558425582944
 20
416.1068023035732
 40
1.2083333333333179
 50
127.52351320610693
 51
52.47648680188081
  0
ARC
  8
_2-d_ハッチ他
  6
CONTINUOUS
 62
    4
 10
1188.299762846975
 20
416.10680230377784
 40
1.2083333333333179
 50
127.52351320610693
 51
52.47648680188081
  0
ARC
  8
_2-d_ハッチ他
  6
CONTINUOUS
 62
    4
 10
1208.9072048677608
 20
416.10680230459866
 40
1.2083333333333179
 50
127.52351320610693
 51
52.47648680188081
  0
ARC
  8
_2-d_ハッチ他
  6
CONTINUOUS
 62
    4
 10
1207.4352447232864
 20
418.02346897119878
 40
1.2083333333333581
 50
307.52351320333912
 51
232.47648680464988
  0
ARC
  8
_2-d_ハッチ他
  6
CONTINUOUS
 62
    4
 10
1233.9305273214345
 20
418.02346897161033
 40
1.2083333333333581
 50
307.52351320333912
 51
232.47648680464988
  0
ARC
  8
_2-d_ハッチ他
  6
CONTINUOUS
 62
    4
 10
1235.4024874659112
 20
416.10680230501021
 40
1.2083333333333179
 50
127.52351320610693
 51
52.47648680188081
  0
ARC
  8
_2-d_ハッチ他
  6
CONTINUOUS
 62
    4
 10
1230.9866070327539
 20
418.02346897140342
 40
1.2083333333333581
 50
307.52351320333912
 51
232.47648680464988
  0
ARC
  8
_2-d_ハッチ他
  6
CONTINUOUS
 62
    4
 10
1232.4585671772261
 20
416.1068023048033
 40
1.2083333333333179
 50
127.52351320610693
 51
52.47648680188081
  0
ARC
  8
_2-d_ハッチ他
  6
CONTINUOUS
 62
    4
 10
1228.0426867440688
 20
418.02346897119878
 40
1.2083333333333581
 50
307.52351320333912
 51
232.47648680464988
  0
ARC
  8
_2-d_ハッチ他
  6
CONTINUOUS
 62
    4
 10
1229.5146468885455
 20
416.10680230459866
 40
1.2083333333333179
 50
127.52351320610693
 51
52.47648680188081
  0
ARC
  8
_2-d_ハッチ他
  6
CONTINUOUS
 62
    4
 10
1225.0987664553859
 20
418.02346897099414
 40
1.2083333333333581
 50
307.52351320333912
 51
232.47648680464988
  0
ARC
  8
_2-d_ハッチ他
  6
CONTINUOUS
 62
    4
 10
1226.5707265998603
 20
416.10680230439402
 40
1.2083333333333179
 50
127.52351320610693
 51
52.47648680188081
  0
ARC
  8
_2-d_ハッチ他
  6
CONTINUOUS
 62
    4
 10
1222.154846166703
 20
418.02346897078951
 40
1.2083333333333581
 50
307.52351320333912
 51
232.47648680464988
  0
ARC
  8
_2-d_ハッチ他
  6
CONTINUOUS
 62
    4
 10
1223.6268063111775
 20
416.10680230418939
 40
1.2083333333333179
 50
127.52351320610693
 51
52.47648680188081
  0
ARC
  8
_2-d_ハッチ他
  6
CONTINUOUS
 62
    4
 10
1219.2109258780179
 20
418.0234689705826
 40
1.2083333333333581
 50
307.52351320333912
 51
232.47648680464988
  0
ARC
  8
_2-d_ハッチ他
  6
CONTINUOUS
 62
    4
 10
1220.6828860224946
 20
416.10680230398475
 40
1.2083333333333179
 50
127.52351320610693
 51
52.47648680188081
  0
ARC
  8
_2-d_ハッチ他
  6
CONTINUOUS
 62
    4
 10
1213.3230853006521
 20
418.02346897017333
 40
1.2083333333333581
 50
307.52351320333912
 51
232.47648680464988
  0
ARC
  8
_2-d_ハッチ他
  6
CONTINUOUS
 62
    4
 10
1216.2670055893373
 20
418.02346897037796
 40
1.2083333333333581
 50
307.52351320333912
 51
232.47648680464988
  0
ARC
  8
_2-d_ハッチ他
  6
CONTINUOUS
 62
    4
 10
1214.7950454451288
 20
416.1068023035732
 40
1.2083333333333179
 50
127.52351320610693
 51
52.47648680188081
  0
ARC
  8
_2-d_ハッチ他
  6
CONTINUOUS
 62
    4
 10
1217.7389657338094
 20
416.10680230377784
 40
1.2083333333333179
 50
127.52351320610693
 51
52.47648680188081
  0
ARC
  8
_2-d_ハッチ他
  6
CONTINUOUS
 62
    4
 10
1211.8511251564437
 20
416.10680230336857
 40
1.2083333333333179
 50
127.52351320610693
 51
52.47648680188081
  0
ARC
  8
_2-d_ハッチ他
  6
CONTINUOUS
 62
    4
 10
1210.3791650119692
 20
418.02346896996869
 40
1.2083333333333581
 50
307.52351320333912
 51
232.47648680464988
  0
ARC
  8
_2-d_ハッチ他
  6
CONTINUOUS
 62
    4
 10
1245.7062084761706
 20
418.0234689705826
 40
1.2083333333333581
 50
307.52351320333912
 51
232.47648680464988
  0
ARC
  8
_2-d_ハッチ他
  6
CONTINUOUS
 62
    4
 10
1239.8183678988025
 20
418.02346897017333
 40
1.2083333333333581
 50
307.52351320333912
 51
232.47648680464988
  0
ARC
  8
_2-d_ハッチ他
  6
CONTINUOUS
 62
    4
 10
1242.7622881874854
 20
418.02346897037796
 40
1.2083333333333581
 50
307.52351320333912
 51
232.47648680464988
  0
ARC
  8
_2-d_ハッチ他
  6
CONTINUOUS
 62
    4
 10
1241.290328043277
 20
416.1068023035732
 40
1.2083333333333179
 50
127.52351320610693
 51
52.47648680188081
  0
ARC
  8
_2-d_ハッチ他
  6
CONTINUOUS
 62
    4
 10
1244.2342483319621
 20
416.10680230377784
 40
1.2083333333333179
 50
127.52351320610693
 51
52.47648680188081
  0
ARC
  8
_2-d_ハッチ他
  6
CONTINUOUS
 62
    4
 10
1238.3464077545941
 20
416.10680230336857
 40
1.2083333333333179
 50
127.52351320610693
 51
52.47648680188081
  0
ARC
  8
_2-d_ハッチ他
  6
CONTINUOUS
 62
    4
 10
1236.8744476101197
 20
418.02346896996869
 40
1.2083333333333581
 50
307.52351320333912
 51
232.47648680464988
  0
ARC
  8
_2-d_ハッチ他
  6
CONTINUOUS
 62
    4
 10
1182.4119222696092
 20
416.10680230336857
 40
1.2083333333333179
 50
127.52351320610693
 51
52.47648680188081
  0
ARC
  8
_2-d_ハッチ他
  6
CONTINUOUS
 62
    4
 10
1254.5379693422215
 20
418.0234689705826
 40
1.2083333333333581
 50
307.52351320333912
 51
232.47648680464988
  0
ARC
  8
_2-d_ハッチ他
  6
CONTINUOUS
 62
    4
 10
1256.0099294866936
 20
416.10680230398475
 40
1.2083333333333179
 50
127.52351320610693
 51
52.47648680188081
  0
ARC
  8
_2-d_ハッチ他
  6
CONTINUOUS
 62
    4
 10
1248.6501287648534
 20
418.02346897017333
 40
1.2083333333333581
 50
307.52351320333912
 51
232.47648680464988
  0
ARC
  8
_2-d_ハッチ他
  6
CONTINUOUS
 62
    4
 10
1251.5940490535363
 20
418.02346897037796
 40
1.2083333333333581
 50
307.52351320333912
 51
232.47648680464988
  0
ARC
  8
_2-d_ハッチ他
  6
CONTINUOUS
 62
    4
 10
1250.1220889093279
 20
416.1068023035732
 40
1.2083333333333179
 50
127.52351320610693
 51
52.47648680188081
  0
ARC
  8
_2-d_ハッチ他
  6
CONTINUOUS
 62
    4
 10
1253.066009198013
 20
416.10680230377784
 40
1.2083333333333179
 50
127.52351320610693
 51
52.47648680188081
  0
ARC
  8
_2-d_ハッチ他
  6
CONTINUOUS
 62
    4
 10
1247.178168620645
 20
416.10680230336857
 40
1.2083333333333179
 50
127.52351320610693
 51
52.47648680188081
  0
ARC
  8
_2-d_ハッチ他
  6
CONTINUOUS
 62
    4
 10
864.4685310918087
 20
416.10680230501021
 40
1.2083333333333179
 50
127.52351320610693
 51
52.47648680188081
  0
ARC
  8
_2-d_ハッチ他
  6
CONTINUOUS
 62
    4
 10
862.99657094733197
 20
418.02346897161033
 40
1.2083333333333581
 50
307.52351320333912
 51
232.47648680464988
  0
ARC
  8
_2-d_ハッチ他
  6
CONTINUOUS
 62
    4
 10
861.52461080312355
 20
416.1068023048033
 40
1.2083333333333179
 50
127.52351320610693
 51
52.47648680188081
  0
ARC
  8
_2-d_ハッチ他
  6
CONTINUOUS
 62
    4
 10
860.0526506586491
 20
418.02346897140342
 40
1.2083333333333581
 50
307.52351320333912
 51
232.47648680464988
  0
ARC
  8
_2-d_ハッチ他
  6
CONTINUOUS
 62
    4
 10
858.58069051444068
 20
416.10680230459866
 40
1.2083333333333179
 50
127.52351320610693
 51
52.47648680188081
  0
ARC
  8
_2-d_ハッチ他
  6
CONTINUOUS
 62
    4
 10
857.10873036996622
 20
418.02346897119878
 40
1.2083333333333581
 50
307.52351320333912
 51
232.47648680464988
  0
ARC
  8
_2-d_ハッチ他
  6
CONTINUOUS
 62
    4
 10
1275.1454113630016
 20
418.02346897161033
 40
1.2083333333333581
 50
307.52351320333912
 51
232.47648680464988
  0
ARC
  8
_2-d_ハッチ他
  6
CONTINUOUS
 62
    4
 10
1276.6173715074783
 20
416.10680230501021
 40
1.2083333333333179
 50
127.52351320610693
 51
52.47648680188081
  0
ARC
  8
_2-d_ハッチ他
  6
CONTINUOUS
 62
    4
 10
1272.2014910743187
 20
418.02346897140342
 40
1.2083333333333581
 50
307.52351320333912
 51
232.47648680464988
  0
ARC
  8
_2-d_ハッチ他
  6
CONTINUOUS
 62
    4
 10
1273.6734512187954
 20
416.1068023048033
 40
1.2083333333333179
 50
127.52351320610693
 51
52.47648680188081
  0
ARC
  8
_2-d_ハッチ他
  6
CONTINUOUS
 62
    4
 10
1269.2575707856358
 20
418.02346897119878
 40
1.2083333333333581
 50
307.52351320333912
 51
232.47648680464988
  0
ARC
  8
_2-d_ハッチ他
  6
CONTINUOUS
 62
    4
 10
1270.7295309301103
 20
416.10680230459866
 40
1.2083333333333179
 50
127.52351320610693
 51
52.47648680188081
  0
ARC
  8
_2-d_ハッチ他
  6
CONTINUOUS
 62
    4
 10
1266.313650496953
 20
418.02346897099414
 40
1.2083333333333581
 50
307.52351320333912
 51
232.47648680464988
  0
ARC
  8
_2-d_ハッチ他
  6
CONTINUOUS
 62
    4
 10
1267.7856106414297
 20
416.10680230439402
 40
1.2083333333333179
 50
127.52351320610693
 51
52.47648680188081
  0
ARC
  8
_2-d_ハッチ他
  6
CONTINUOUS
 62
    4
 10
1263.3697302082678
 20
418.02346897078951
 40
1.2083333333333581
 50
307.52351320333912
 51
232.47648680464988
  0
ARC
  8
_2-d_ハッチ他
  6
CONTINUOUS
 62
    4
 10
1264.8416903527445
 20
416.10680230418939
 40
1.2083333333333179
 50
127.52351320610693
 51
52.47648680188081
  0
ARC
  8
_2-d_ハッチ他
  6
CONTINUOUS
 62
    4
 10
1260.4258099195872
 20
418.0234689705826
 40
1.2083333333333581
 50
307.52351320333912
 51
232.47648680464988
  0
ARC
  8
_2-d_ハッチ他
  6
CONTINUOUS
 62
    4
 10
1261.8977700640617
 20
416.10680230398475
 40
1.2083333333333179
 50
127.52351320610693
 51
52.47648680188081
  0
ARC
  8
_2-d_ハッチ他
  6
CONTINUOUS
 62
    4
 10
1258.9538497753788
 20
416.10680230377784
 40
1.2083333333333179
 50
127.52351320610693
 51
52.47648680188081
  0
ARC
  8
_2-d_ハッチ他
  6
CONTINUOUS
 62
    4
 10
1286.9210925177331
 20
418.0234689705826
 40
1.2083333333333581
 50
307.52351320333912
 51
232.47648680464988
  0
ARC
  8
_2-d_ハッチ他
  6
CONTINUOUS
 62
    4
 10
1281.0332519403673
 20
418.02346897017333
 40
1.2083333333333581
 50
307.52351320333912
 51
232.47648680464988
  0
ARC
  8
_2-d_ハッチ他
  6
CONTINUOUS
 62
    4
 10
1283.9771722290525
 20
418.02346897037796
 40
1.2083333333333581
 50
307.52351320333912
 51
232.47648680464988
  0
ARC
  8
_2-d_ハッチ他
  6
CONTINUOUS
 62
    4
 10
1282.5052120848441
 20
416.1068023035732
 40
1.2083333333333179
 50
127.52351320610693
 51
52.47648680188081
  0
ARC
  8
_2-d_ハッチ他
  6
CONTINUOUS
 62
    4
 10
1285.4491323735247
 20
416.10680230377784
 40
1.2083333333333179
 50
127.52351320610693
 51
52.47648680188081
  0
ARC
  8
_2-d_ハッチ他
  6
CONTINUOUS
 62
    4
 10
1279.5612917961589
 20
416.10680230336857
 40
1.2083333333333179
 50
127.52351320610693
 51
52.47648680188081
  0
ARC
  8
_2-d_ハッチ他
  6
CONTINUOUS
 62
    4
 10
1278.0893316516867
 20
418.02346896996869
 40
1.2083333333333581
 50
307.52351320333912
 51
232.47648680464988
  0
ARC
  8
_2-d_ハッチ他
  6
CONTINUOUS
 62
    4
 10
1310.4724548272006
 20
418.02346897161033
 40
1.2083333333333581
 50
307.52351320333912
 51
232.47648680464988
  0
ARC
  8
_2-d_ハッチ他
  6
CONTINUOUS
 62
    4
 10
1311.9444149716774
 20
416.10680230501021
 40
1.2083333333333179
 50
127.52351320610693
 51
52.47648680188081
  0
ARC
  8
_2-d_ハッチ他
  6
CONTINUOUS
 62
    4
 10
1307.52853453852
 20
418.02346897140342
 40
1.2083333333333581
 50
307.52351320333912
 51
232.47648680464988
  0
ARC
  8
_2-d_ハッチ他
  6
CONTINUOUS
 62
    4
 10
1309.0004946829922
 20
416.1068023048033
 40
1.2083333333333179
 50
127.52351320610693
 51
52.47648680188081
  0
ARC
  8
_2-d_ハッチ他
  6
CONTINUOUS
 62
    4
 10
1304.5846142498349
 20
418.02346897119878
 40
1.2083333333333581
 50
307.52351320333912
 51
232.47648680464988
  0
ARC
  8
_2-d_ハッチ他
  6
CONTINUOUS
 62
    4
 10
1306.0565743943116
 20
416.10680230459866
 40
1.2083333333333179
 50
127.52351320610693
 51
52.47648680188081
  0
ARC
  8
_2-d_ハッチ他
  6
CONTINUOUS
 62
    4
 10
1301.6406939611543
 20
418.02346897099414
 40
1.2083333333333581
 50
307.52351320333912
 51
232.47648680464988
  0
ARC
  8
_2-d_ハッチ他
  6
CONTINUOUS
 62
    4
 10
1303.1126541056265
 20
416.10680230439402
 40
1.2083333333333179
 50
127.52351320610693
 51
52.47648680188081
  0
ARC
  8
_2-d_ハッチ他
  6
CONTINUOUS
 62
    4
 10
1298.6967736724691
 20
418.02346897078951
 40
1.2083333333333581
 50
307.52351320333912
 51
232.47648680464988
  0
ARC
  8
_2-d_ハッチ他
  6
CONTINUOUS
 62
    4
 10
1300.1687338169459
 20
416.10680230418939
 40
1.2083333333333179
 50
127.52351320610693
 51
52.47648680188081
  0
ARC
  8
_2-d_ハッチ他
  6
CONTINUOUS
 62
    4
 10
1295.752853383784
 20
418.0234689705826
 40
1.2083333333333581
 50
307.52351320333912
 51
232.47648680464988
  0
ARC
  8
_2-d_ハッチ他
  6
CONTINUOUS
 62
    4
 10
1297.2248135282607
 20
416.10680230398475
 40
1.2083333333333179
 50
127.52351320610693
 51
52.47648680188081
  0
ARC
  8
_2-d_ハッチ他
  6
CONTINUOUS
 62
    4
 10
1289.8650128064182
 20
418.02346897017333
 40
1.2083333333333581
 50
307.52351320333912
 51
232.47648680464988
  0
ARC
  8
_2-d_ハッチ他
  6
CONTINUOUS
 62
    4
 10
1292.8089330951034
 20
418.02346897037796
 40
1.2083333333333581
 50
307.52351320333912
 51
232.47648680464988
  0
ARC
  8
_2-d_ハッチ他
  6
CONTINUOUS
 62
    4
 10
1291.336972950895
 20
416.1068023035732
 40
1.2083333333333179
 50
127.52351320610693
 51
52.47648680188081
  0
ARC
  8
_2-d_ハッチ他
  6
CONTINUOUS
 62
    4
 10
1294.2808932395756
 20
416.10680230377784
 40
1.2083333333333179
 50
127.52351320610693
 51
52.47648680188081
  0
ARC
  8
_2-d_ハッチ他
  6
CONTINUOUS
 62
    4
 10
1314.8883352603625
 20
416.10680230459866
 40
1.2083333333333179
 50
127.52351320610693
 51
52.47648680188081
  0
ARC
  8
_2-d_ハッチ他
  6
CONTINUOUS
 62
    4
 10
1313.4163751158858
 20
418.02346897119878
 40
1.2083333333333581
 50
307.52351320333912
 51
232.47648680464988
  0
ARC
  8
_2-d_ハッチ他
  6
CONTINUOUS
 62
    4
 10
1339.9116577140339
 20
418.02346897161033
 40
1.2083333333333581
 50
307.52351320333912
 51
232.47648680464988
  0
ARC
  8
_2-d_ハッチ他
  6
CONTINUOUS
 62
    4
 10
1341.3836178585107
 20
416.10680230501021
 40
1.2083333333333179
 50
127.52351320610693
 51
52.47648680188081
  0
ARC
  8
_2-d_ハッチ他
  6
CONTINUOUS
 62
    4
 10
1336.9677374253533
 20
418.02346897140342
 40
1.2083333333333581
 50
307.52351320333912
 51
232.47648680464988
  0
ARC
  8
_2-d_ハッチ他
  6
CONTINUOUS
 62
    4
 10
1338.4396975698255
 20
416.1068023048033
 40
1.2083333333333179
 50
127.52351320610693
 51
52.47648680188081
  0
ARC
  8
_2-d_ハッチ他
  6
CONTINUOUS
 62
    4
 10
1334.0238171366682
 20
418.02346897119878
 40
1.2083333333333581
 50
307.52351320333912
 51
232.47648680464988
  0
ARC
  8
_2-d_ハッチ他
  6
CONTINUOUS
 62
    4
 10
1335.4957772811449
 20
416.10680230459866
 40
1.2083333333333179
 50
127.52351320610693
 51
52.47648680188081
  0
ARC
  8
_2-d_ハッチ他
  6
CONTINUOUS
 62
    4
 10
1331.079896847983
 20
418.02346897099414
 40
1.2083333333333581
 50
307.52351320333912
 51
232.47648680464988
  0
ARC
  8
_2-d_ハッチ他
  6
CONTINUOUS
 62
    4
 10
1332.5518569924598
 20
416.10680230439402
 40
1.2083333333333179
 50
127.52351320610693
 51
52.47648680188081
  0
ARC
  8
_2-d_ハッチ他
  6
CONTINUOUS
 62
    4
 10
1328.1359765593024
 20
418.02346897078951
 40
1.2083333333333581
 50
307.52351320333912
 51
232.47648680464988
  0
ARC
  8
_2-d_ハッチ他
  6
CONTINUOUS
 62
    4
 10
1329.6079367037746
 20
416.10680230418939
 40
1.2083333333333179
 50
127.52351320610693
 51
52.47648680188081
  0
ARC
  8
_2-d_ハッチ他
  6
CONTINUOUS
 62
    4
 10
1325.1920562706173
 20
418.0234689705826
 40
1.2083333333333581
 50
307.52351320333912
 51
232.47648680464988
  0
ARC
  8
_2-d_ハッチ他
  6
CONTINUOUS
 62
    4
 10
1326.664016415094
 20
416.10680230398475
 40
1.2083333333333179
 50
127.52351320610693
 51
52.47648680188081
  0
ARC
  8
_2-d_ハッチ他
  6
CONTINUOUS
 62
    4
 10
1319.3042156932515
 20
418.02346897017333
 40
1.2083333333333581
 50
307.52351320333912
 51
232.47648680464988
  0
ARC
  8
_2-d_ハッチ他
  6
CONTINUOUS
 62
    4
 10
1322.2481359819367
 20
418.02346897037796
 40
1.2083333333333581
 50
307.52351320333912
 51
232.47648680464988
  0
ARC
  8
_2-d_ハッチ他
  6
CONTINUOUS
 62
    4
 10
1320.7761758377283
 20
416.1068023035732
 40
1.2083333333333179
 50
127.52351320610693
 51
52.47648680188081
  0
ARC
  8
_2-d_ハッチ他
  6
CONTINUOUS
 62
    4
 10
1323.7200961264089
 20
416.10680230377784
 40
1.2083333333333179
 50
127.52351320610693
 51
52.47648680188081
  0
ARC
  8
_2-d_ハッチ他
  6
CONTINUOUS
 62
    4
 10
1317.8322555490431
 20
416.10680230336857
 40
1.2083333333333179
 50
127.52351320610693
 51
52.47648680188081
  0
ARC
  8
_2-d_ハッチ他
  6
CONTINUOUS
 62
    4
 10
1316.3602954045664
 20
418.02346896996869
 40
1.2083333333333581
 50
307.52351320333912
 51
232.47648680464988
  0
ARC
  8
_2-d_ハッチ他
  6
CONTINUOUS
 62
    4
 10
1351.68733886877
 20
418.0234689705826
 40
1.2083333333333581
 50
307.52351320333912
 51
232.47648680464988
  0
ARC
  8
_2-d_ハッチ他
  6
CONTINUOUS
 62
    4
 10
1345.7994982913997
 20
418.02346897017333
 40
1.2083333333333581
 50
307.52351320333912
 51
232.47648680464988
  0
ARC
  8
_2-d_ハッチ他
  6
CONTINUOUS
 62
    4
 10
1348.7434185800848
 20
418.02346897037796
 40
1.2083333333333581
 50
307.52351320333912
 51
232.47648680464988
  0
ARC
  8
_2-d_ハッチ他
  6
CONTINUOUS
 62
    4
 10
1347.2714584358764
 20
416.1068023035732
 40
1.2083333333333179
 50
127.52351320610693
 51
52.47648680188081
  0
ARC
  8
_2-d_ハッチ他
  6
CONTINUOUS
 62
    4
 10
1350.2153787245616
 20
416.10680230377784
 40
1.2083333333333179
 50
127.52351320610693
 51
52.47648680188081
  0
ARC
  8
_2-d_ハッチ他
  6
CONTINUOUS
 62
    4
 10
1344.3275381471913
 20
416.10680230336857
 40
1.2083333333333179
 50
127.52351320610693
 51
52.47648680188081
  0
ARC
  8
_2-d_ハッチ他
  6
CONTINUOUS
 62
    4
 10
1342.8555780027191
 20
418.02346896996869
 40
1.2083333333333581
 50
307.52351320333912
 51
232.47648680464988
  0
ARC
  8
_2-d_ハッチ他
  6
CONTINUOUS
 62
    4
 10
1288.3930526622098
 20
416.10680230336857
 40
1.2083333333333179
 50
127.52351320610693
 51
52.47648680188081
  0
ARC
  8
_2-d_ハッチ他
  6
CONTINUOUS
 62
    4
 10
1354.6312591574506
 20
418.02346897017333
 40
1.2083333333333581
 50
307.52351320333912
 51
232.47648680464988
  0
ARC
  8
_2-d_ハッチ他
  6
CONTINUOUS
 62
    4
 10
1353.1592990132422
 20
416.10680230336857
 40
1.2083333333333179
 50
127.52351320610693
 51
52.47648680188081
  0
ARC
  8
_2-d_ハッチ他
  6
CONTINUOUS
 62
    4
 10
1257.4818896309021
 20
418.02346897037796
 40
1.2083333333333581
 50
307.52351320333912
 51
232.47648680464988
  0
ARC
  8
_2-d_ハッチ他
  6
CONTINUOUS
 62
    4
 10
879.18813253522535
 20
416.10680230398475
 40
1.2083333333333179
 50
127.52351320610693
 51
52.47648680188081
  0
ARC
  8
_2-d_ハッチ他
  6
CONTINUOUS
 62
    4
 10
880.66009267943377
 20
418.02346897078951
 40
1.2083333333333581
 50
307.52351320333912
 51
232.47648680464988
  0
ARC
  8
_2-d_ハッチ他
  6
CONTINUOUS
 62
    4
 10
882.13205282390823
 20
416.10680230398475
 40
1.2083333333333179
 50
127.52351320610693
 51
52.47648680188081
  0
LINE
  8
_2-d_ハッチ他
  6
CONTINUOUS
 62
    4
 10
855.28010798794844
 20
393.74502410353034
 11
864.45999645896541
 21
384.5651356325111
  0
LINE
  8
_2-d_ハッチ他
  6
CONTINUOUS
 62
    4
 10
891.02853895388967
 20
414.5651356325111
 11
921.02853895389421
 21
384.56513563250883
  0
LINE
  8
_2-d_ハッチ他
  6
CONTINUOUS
 62
    4
 10
919.31281020136089
 20
414.56513563250883
 11
949.31281020136089
 21
384.56513563250883
  0
LINE
  8
_2-d_ハッチ他
  6
CONTINUOUS
 62
    4
 10
947.59708144881392
 20
414.5651356325111
 11
977.59708144881847
 21
384.56513563250883
  0
LINE
  8
_2-d_ハッチ他
  6
CONTINUOUS
 62
    4
 10
975.88135269628515
 20
414.56513563250883
 11
1005.8813526962829
 21
384.56513563250883
  0
LINE
  8
_2-d_ハッチ他
  6
CONTINUOUS
 62
    4
 10
1004.1656239437427
 20
414.56513563250883
 11
1034.1656239437427
 21
384.56513563250883
  0
LINE
  8
_2-d_ハッチ他
  6
CONTINUOUS
 62
    4
 10
1032.4498951912071
 20
414.56513563250883
 11
1062.4498951912071
 21
384.5651356325111
  0
LINE
  8
_2-d_ハッチ他
  6
CONTINUOUS
 62
    4
 10
1060.734166438667
 20
414.56513563250883
 11
1090.734166438667
 21
384.56513563250883
  0
LINE
  8
_2-d_ハッチ他
  6
CONTINUOUS
 62
    4
 10
1089.0184376861223
 20
414.5651356325111
 11
1119.01843768612
 21
384.5651356325111
  0
LINE
  8
_2-d_ハッチ他
  6
CONTINUOUS
 62
    4
 10
1117.3027089335912
 20
414.56513563250883
 11
1147.3027089335912
 21
384.56513563250883
  0
LINE
  8
_2-d_ハッチ他
  6
CONTINUOUS
 62
    4
 10
1145.5869801810443
 20
414.5651356325111
 11
1175.5869801810443
 21
384.5651356325111
  0
LINE
  8
_2-d_ハッチ他
  6
CONTINUOUS
 62
    4
 10
1173.8712514285155
 20
414.56513563250883
 11
1203.8712514285166
 21
384.56513563250883
  0
LINE
  8
_2-d_ハッチ他
  6
CONTINUOUS
 62
    4
 10
1202.1555226759697
 20
414.5651356325111
 11
1232.1555226759697
 21
384.5651356325111
  0
LINE
  8
_2-d_ハッチ他
  6
CONTINUOUS
 62
    4
 10
1230.4397939234409
 20
414.56513563250883
 11
1260.4397939234409
 21
384.56513563250883
  0
LINE
  8
_2-d_ハッチ他
  6
CONTINUOUS
 62
    4
 10
1258.7240651708939
 20
414.5651356325111
 11
1288.7240651708917
 21
384.56513563251337
  0
LINE
  8
_2-d_ハッチ他
  6
CONTINUOUS
 62
    4
 10
1287.0083364183629
 20
414.56513563250883
 11
1317.0083364183629
 21
384.56513563250883
  0
LINE
  8
_2-d_ハッチ他
  6
CONTINUOUS
 62
    4
 10
1315.2926076658159
 20
414.56513563251337
 11
1345.2926076658159
 21
384.56513563251337
  0
LINE
  8
_2-d_ハッチ他
  6
CONTINUOUS
 62
    4
 10
1343.5768789132871
 20
414.56513563250883
 11
1355.2801079879428
 21
402.86190655785094
  0
LINE
  8
_2-d_ハッチ他
  6
CONTINUOUS
 62
    4
 10
1332.5605232184225
 20
384.56513563250883
 11
1355.2801079879519
 21
407.28472040203587
  0
LINE
  8
_2-d_ハッチ他
  6
CONTINUOUS
 62
    4
 10
1304.2762519709649
 20
384.5651356325111
 11
1334.2762519709649
 21
414.5651356325111
  0
LINE
  8
_2-d_ハッチ他
  6
CONTINUOUS
 62
    4
 10
1275.9919807235074
 20
384.56513563250883
 11
1305.9919807235074
 21
414.56513563250883
  0
LINE
  8
_2-d_ハッチ他
  6
CONTINUOUS
 62
    4
 10
1247.707709476043
 20
384.5651356325111
 11
1277.7077094760407
 21
414.5651356325111
  0
LINE
  8
_2-d_ハッチ他
  6
CONTINUOUS
 62
    4
 10
1219.4234382285854
 20
384.5651356325111
 11
1249.4234382285854
 21
414.56513563250883
  0
LINE
  8
_2-d_ハッチ他
  6
CONTINUOUS
 62
    4
 10
1191.139166981121
 20
384.5651356325111
 11
1221.1391669811187
 21
414.5651356325111
  0
LINE
  8
_2-d_ハッチ他
  6
CONTINUOUS
 62
    4
 10
1162.85489573366
 20
384.5651356325111
 11
1192.8548957336611
 21
414.56513563250883
  0
LINE
  8
_2-d_ハッチ他
  6
CONTINUOUS
 62
    4
 10
1134.5706244861933
 20
384.5651356325111
 11
1164.5706244861933
 21
414.5651356325111
  0
LINE
  8
_2-d_ハッチ他
  6
CONTINUOUS
 62
    4
 10
1106.2863532387357
 20
384.5651356325111
 11
1136.2863532387357
 21
414.5651356325111
  0
LINE
  8
_2-d_ハッチ他
  6
CONTINUOUS
 62
    4
 10
1078.0020819912691
 20
384.5651356325111
 11
1108.0020819912691
 21
414.5651356325111
  0
LINE
  8
_2-d_ハッチ他
  6
CONTINUOUS
 62
    4
 10
1049.7178107438115
 20
384.56513563250883
 11
1079.7178107438115
 21
414.56513563250883
  0
LINE
  8
_2-d_ハッチ他
  6
CONTINUOUS
 62
    4
 10
1021.4335394963425
 20
384.56513563250883
 11
1051.4335394963448
 21
414.5651356325111
  0
LINE
  8
_2-d_ハッチ他
  6
CONTINUOUS
 62
    4
 10
993.14926824888721
 20
384.56513563250883
 11
1023.1492682488872
 21
414.56513563250883
  0
LINE
  8
_2-d_ハッチ他
  6
CONTINUOUS
 62
    4
 10
964.86499700141826
 20
384.56513563250883
 11
994.86499700142053
 21
414.5651356325111
  0
LINE
  8
_2-d_ハッチ他
  6
CONTINUOUS
 62
    4
 10
936.58072575396295
 20
384.56513563250883
 11
966.58072575396295
 21
414.56513563250883
  0
LINE
  8
_2-d_ハッチ他
  6
CONTINUOUS
 62
    4
 10
908.29645450649627
 20
384.56513563250883
 11
938.29645450649627
 21
414.5651356325111
  0
LINE
  8
_2-d_ハッチ他
  6
CONTINUOUS
 62
    4
 10
855.28010798794844
 20
388.11733160888753
 11
881.72791201157202
 21
414.56513563250883
  0
TEXT
  8
_2-a_moji
 62
    7
 10
1099.2357985429337
 20
567.4552755594259
 40
15
 41
1
 50
0
  1
プルーフシーラー
  0
TEXT
  8
_2-a_moji
 62
    7
 10
1099.2357985429337
 20
542.4552755594259
 40
15
 41
1
 50
0
  1
塩ビシート 機械的固定工法
  0
LINE
  8
_2-a_moji
  6
CONTINUOUS
 62
    7
 10
1089.2357985429337
 20
524.9552755594259
 11
1049.9676728072561
 21
524.9552755594259
  0
LINE
  8
_2-a_moji
  6
CONTINUOUS
 62
    7
 10
1089.2357985429337
 20
549.9552755594259
 11
1064.4014295369968
 21
549.9552755594259
  0
TEXT
  8
_2-a_moji
 62
    7
 10
1099.2357985429337
 20
517.4552755594259
 40
15
 41
1
 50
0
  1
ラジアルシートＬ６００
  0
LINE
  8
_2-a_moji
  6
CONTINUOUS
 62
    7
 10
970.36704064352284
 20
649.9552755594259
 11
938.73775780070196
 21
649.9552755594259
  0
LINE
  8
_2-a_moji
  6
CONTINUOUS
 62
    7
 10
860.13821678911859
 20
513.81687707577203
 11
938.73775780070196
 21
649.9552755594259
  0
TEXT
  8
_2-a_moji
 62
    7
 10
980.36704064352284
 20
642.4552755594259
 40
15
 41
1
 50
0
  1
塩ビシート 機械的固定工法
  0
LINE
  8
_2-a_moji
  6
CONTINUOUS
 62
    7
 10
903.19260606231842
 20
428.06513563251019
 11
1002.4334246201645
 21
599.9552755594259
  0
LINE
  8
_2-a_moji
  6
CONTINUOUS
 62
    7
 10
1026.5796464467824
 20
599.9552755594259
 11
1002.4334246201645
 21
599.9552755594259
  0
LINE
  8
_2-a_moji
  6
CONTINUOUS
 62
    7
 10
969.20700344568309
 20
433.0183616377808
 11
1051.1543189062897
 21
574.9552755594259
  0
LINE
  8
_2-a_moji
  6
CONTINUOUS
 62
    7
 10
1089.2357985429337
 20
574.9552755594259
 11
1051.1543189062897
 21
574.9552755594259
  0
TEXT
  8
_2-a_moji
 62
    7
 10
1036.5796464467824
 20
592.4552755594259
 40
15
 41
1
 50
0
  1
ＢＰ－Ｈ３Ｎ
  0
LINE
  8
_2-a_moji
  6
CONTINUOUS
 62
    7
 10
974.44359230704072
 20
394.14373093813128
 11
1064.4014295369968
 21
549.9552755594259
  0
TEXT
  8
_2-a_moji
 62
    7
 10
1099.2357985429337
 20
467.4552755594259
 40
15
 41
1
 50
0
  1
断熱材
  0
LINE
  8
_2-a_moji
  6
CONTINUOUS
 62
    7
 10
1089.2357985429337
 20
474.9552755594259
 11
1021.1001593477747
 21
474.9552755594259
  0
LINE
  8
_2-e_con他
  6
CONTINUOUS
 62
    4
 10
872.25571748232801
 20
209.56513563251107
 11
968.08238579168096
 21
305.39180394186178
  0
LINE
  8
_2-e_con他
  6
CONTINUOUS
 62
    4
 10
858.11358185859922
 20
209.56513563251107
 11
953.94025016795217
 21
305.39180394186178
  0
LINE
  8
_2-e_con他
  6
CONTINUOUS
 62
    4
 10
865.18464967046589
 20
209.56513563251107
 11
961.01131797981657
 21
305.39180394186178
  0
ARC
  8
_2-d_ハッチ他
  6
CONTINUOUS
 62
    4
 10
883.60401296811665
 20
1058.0234689714034
 40
1.2083333333333581
 50
307.52351320333912
 51
232.47648680464988
  0
TEXT
  8
_2-a_moji
 62
    7
 10
1036.5796464467824
 20
1232.4552755594259
 40
15
 41
1
 50
0
  1
ＢＰ－Ｈ１５
  0
LINE
  8
_2-3_
  6
CONTINUOUS
 62
    3
 10
1005.2801079879462
 20
874.5651356325111
 11
1355.2801079879473
 21
874.5651356325111
  0
LINE
  8
_2-3_
  6
CONTINUOUS
 62
    3
 10
1005.2801079879462
 20
874.5651356325111
 11
1005.2801079879462
 21
849.5651356325111
  0
LINE
  8
_2-3_
  6
CONTINUOUS
 62
    3
 10
705.28010798794617
 20
1299.5651356325111
 11
705.28010798794617
 21
849.5651356325111
  0
LINE
  8
_2-3_
  6
CONTINUOUS
 62
    3
 10
705.28010798794617
 20
659.5651356325111
 11
705.28010798794617
 21
209.56513563251107
  0
LINE
  8
_2-3_
  6
CONTINUOUS
 62
    3
 10
1005.2801079879462
 20
234.56513563251107
 11
1005.2801079879462
 21
209.56513563251107
  0
LINE
  8
_2-3_
  6
CONTINUOUS
 62
    3
 10
1005.2801079879462
 20
234.56513563251107
 11
1355.2801079879473
 21
234.56513563251107
  0
POINT
  8
_2-b_dim
 62
    1
 10
911.78010798794935
 20
986.69777882457129
  0
LINE
  8
_2-b_dim
  6
CONTINUOUS
 62
    7
 10
911.78010798794935
 20
986.69777882457129
 11
911.78010798794935
 21
1018.1611182114539
  0
POINT
  8
_2-b_dim
 62
    1
 10
958.46387505720008
 20
986.69777882457129
  0
LINE
  8
_2-b_dim
  6
CONTINUOUS
 62
    7
 10
958.46387505720008
 20
986.69777882457129
 11
958.46387505720008
 21
1018.1611182114539
  0
LINE
  8
_2-b_dim
  6
CONTINUOUS
 62
    7
 10
911.78010798794935
 20
986.69777882457129
 11
958.46387505720008
 21
986.69777882457129
  0
LINE
  8
_2-a_moji
  6
CONTINUOUS
 62
    7
 10
919.69323415851454
 20
956.92476392544722
 11
894.33049257078187
 21
956.92476392544722
  0
LINE
  8
_2-a_moji
  6
CONTINUOUS
 62
    7
 10
879.54489624540406
 20
982.53416798120998
 11
894.33049257078187
 21
956.92476392544722
  0
LINE
  8
_2-a_moji
  6
CONTINUOUS
 62
    7
 10
928.27207330380793
 20
316.92476392544722
 11
904.82863415258612
 21
316.92476392544722
  0
LINE
  8
_2-a_moji
  6
CONTINUOUS
 62
    7
 10
890.25298597026199
 20
342.17052713047951
 11
904.82863415258612
 21
316.92476392544722
  0
LINE
  8
_2-2_in_line
  6
CONTINUOUS
 62
    7
 10
855.28010798794617
 20
1024.5651356325111
 11
1355.2801079879473
 21
1024.5651356325111
  0
LINE
  8
_2-2_in_line
  6
CONTINUOUS
 62
    7
 10
855.28010798794617
 20
1299.5651356325111
 11
855.28010798794617
 21
1024.5651356325111
  0
LINE
  8
_2-2_in_line
  6
CONTINUOUS
 62
    7
 10
855.28010798794617
 20
384.5651356325111
 11
1355.2801079879473
 21
384.5651356325111
  0
LINE
  8
_2-2_in_line
  6
CONTINUOUS
 62
    7
 10
855.28010798794617
 20
659.5651356325111
 11
855.28010798794617
 21
384.5651356325111
  0
LINE
  8
_2-2_in_line
  6
CONTINUOUS
 62
    7
 10
855.28010798794617
 20
1054.5651356325111
 11
856.46120494556476
 21
1054.5651356325111
  0
TEXT
  8
_2-a_moji
 62
    7
 10
929.69323415851454
 20
949.42476392544722
 40
15
 41
1
 50
0
  1
ＥＬ-2001注入
  0
TEXT
  8
_2-a_moji
 62
    7
 10
938.27207330380793
 20
309.42476392544722
 40
15
 41
1
 50
0
  1
ＥＬ-2001注入
  0
POINT
  8
_2-b_dim
 62
    1
 10
966.19087493605298
 20
346.69777882457129
  0
LINE
  8
_2-b_dim
  6
CONTINUOUS
 62
    7
 10
966.19087493605298
 20
346.69777882457129
 11
966.19087493605298
 21
378.16111821145387
  0
POINT
  8
_2-b_dim
 62
    1
 10
919.18669854292807
 20
346.69777882457129
  0
LINE
  8
_2-b_dim
  6
CONTINUOUS
 62
    7
 10
919.18669854292807
 20
346.69777882457129
 11
919.18669854292807
 21
378.16111821145387
  0
LINE
  8
_2-b_dim
  6
CONTINUOUS
 62
    7
 10
919.18669854292807
 20
346.69777882457129
 11
966.19087493605298
 21
346.69777882457129
  0
ARC
  8
_2-d_ハッチ他
  6
CONTINUOUS
 62
    4
 10
890.96381368995912
 20
416.1068023035732
 40
1.2083333333333179
 50
127.52351320610693
 51
52.47648680188081
  0
ARC
  8
_2-d_ハッチ他
  6
CONTINUOUS
 62
    4
 10
889.49185354548467
 20
418.02346897017333
 40
1.2083333333333581
 50
307.52351320333912
 51
131.78483804312486
  0
ARC
  8
_2-d_ハッチ他
  6
CONTINUOUS
 62
    4
 10
883.60401296811438
 20
418.02346897078951
 40
1.2083333333333581
 50
26.360813948292531
 51
232.47648680464988
  0
LINE
  8
_2-d_ハッチ他
  6
CONTINUOUS
 62
    4
 10
880.01218325903869
 20
384.56513563250883
 11
884.68669854292762
 21
389.23965091639775
  0
LINE
  8
_2-d_ハッチ他
  6
CONTINUOUS
 62
    4
 10
888.68669854292625
 20
393.23965091639866
 11
910.01218325903869
 21
414.56513563250883
  0
LINE
  8
_2-d_ハッチ他
  6
CONTINUOUS
 62
    4
 10
862.74426770643663
 20
414.56513563250883
 11
884.68669854292762
 21
392.62270479601784
  0
LINE
  8
_2-d_ハッチ他
  6
CONTINUOUS
 62
    4
 10
888.68669854292625
 20
388.62270479601921
 11
892.74426770643436
 21
384.5651356325111
  0
TEXT
  8
_2-b_dim
 62
    7
 10
913.79255055292992
 20
989.19777882457129
 40
15
 41
1
 50
0
  1
40以上
  0
TEXT
  8
_2-b_dim
 62
    7
 10
920.54597160650906
 20
349.19777882457129
 40
15
 41
1
 50
0
  1
40以上
  0
LINE
  8
_2-7_ビス
  6
CONTINUOUS
 62
    7
 10
877.28010798794662
 20
1064.5651356325111
 11
877.28010798794662
 21
1024.5651356325111
  0
LINE
  8
_2-7_ビス
  6
CONTINUOUS
 62
    7
 10
881.40510881274599
 20
1064.5651356325111
 11
877.15510716314589
 21
1064.5651356325111
  0
LINE
  8
_2-7_ビス
  6
CONTINUOUS
 62
    7
 10
874.28010386395022
 20
1067.440138931709
 11
877.15510716314589
 21
1064.5651356325111
  0
LINE
  8
_2-7_ビス
  6
CONTINUOUS
 62
    7
 10
884.28011211194394
 20
1067.440138931709
 11
874.28010386395022
 21
1067.440138931709
  0
LINE
  8
_2-7_ビス
  6
CONTINUOUS
 62
    7
 10
874.28010386395022
 20
1067.9401653252903
 11
874.28010386395022
 21
1067.440138931709
  0
LINE
  8
_2-7_ビス
  6
CONTINUOUS
 62
    7
 10
884.28011211194394
 20
1067.440138931709
 11
884.28011211194394
 21
1067.9401653252903
  0
LINE
  8
_2-7_ビス
  6
CONTINUOUS
 62
    7
 10
884.28011211194394
 20
1067.9401653252903
 11
874.28010386395022
 21
1067.9401653252903
  0
LINE
  8
_2-7_ビス
  6
CONTINUOUS
 62
    7
 10
884.28011211194394
 20
1067.440138931709
 11
881.40510881274599
 21
1064.5651356325111
  0
ARC
  8
_2-7_ビス
  6
DASHED3
 62
    7
 10
879.28010798794708
 20
1066.675698343659
 40
1.8403175392666382
 50
217.11750793457031
 51
322.88247680664062
  0
LINE
  8
_2-7_ビス
  6
DASHED3
 62
    7
 10
881.83012382409493
 20
1067.440138931709
 11
880.74759934404915
 21
1065.5651141877256
  0
LINE
  8
_2-7_ビス
  6
DASHED3
 62
    7
 10
876.73012926777096
 20
1067.440138931709
 11
877.81265374781674
 21
1065.5651141877256
  0
LINE
  8
_2-7_ビス
  6
DASHED3
 62
    7
 10
876.73012926777096
 20
1067.440138931709
 11
876.73012926777096
 21
1067.9401653252903
  0
LINE
  8
_2-7_ビス
  6
DASHED3
 62
    7
 10
881.83012382409493
 20
1067.440138931709
 11
881.83012382409493
 21
1067.9401653252903
  0
LINE
  8
_2-7_ビス
  6
CONTINUOUS
 62
    7
 10
881.28010798794526
 20
1064.5651356325111
 11
881.28010798794526
 21
1024.5651356325111
  0
LINE
  8
_2-7_ビス
  6
CONTINUOUS
 62
    7
 10
882.28010798794776
 20
1020.4696504595988
 11
882.28010798794776
 21
1024.5651356325111
  0
LINE
  8
_2-7_ビス
  6
CONTINUOUS
 62
    7
 10
882.28010798794776
 20
1024.5651356325111
 11
879.28010798794708
 21
1024.5651356325111
  0
LINE
  8
_2-7_ビス
  6
CONTINUOUS
 62
    7
 10
882.28010798794776
 20
1020.4696504595988
 11
883.03010798794708
 21
1019.645089539395
  0
LINE
  8
_2-7_ビス
  6
CONTINUOUS
 62
    7
 10
883.03010798794708
 20
1019.645089539395
 11
883.03010798794708
 21
1017.5464838122803
  0
LINE
  8
_2-7_ビス
  6
CONTINUOUS
 62
    7
 10
883.03010798794708
 20
1017.5464838122803
 11
882.48188873794652
 21
1013.4288904990312
  0
LINE
  8
_2-7_ビス
  6
CONTINUOUS
 62
    7
 10
882.48188873794652
 20
1013.4288904990312
 11
882.23996498794668
 21
1013.0212759905105
  0
LINE
  8
_2-7_ビス
  6
CONTINUOUS
 62
    7
 10
882.23996498794668
 20
1013.0212759905105
 11
882.28010798794776
 21
1013.0212759905105
  0
LINE
  8
_2-7_ビス
  6
CONTINUOUS
 62
    7
 10
882.28010798794776
 20
1013.0212759905105
 11
882.28010798794776
 21
1011.2072409039108
  0
LINE
  8
_2-7_ビス
  6
CONTINUOUS
 62
    7
 10
882.28010798794776
 20
1011.2072409039108
 11
881.84709542737983
 21
1010.3826795009109
  0
LINE
  8
_2-7_ビス
  6
CONTINUOUS
 62
    7
 10
881.97699923794721
 20
1010.1353110800101
 11
882.95510798794658
 21
1010.1353110800101
  0
LINE
  8
_2-7_ビス
  6
CONTINUOUS
 62
    7
 10
882.95510798794658
 20
1010.1353110800101
 11
882.95510798794658
 21
1005.9019204861311
  0
LINE
  8
_2-7_ビス
  6
CONTINUOUS
 62
    7
 10
882.95510798794658
 20
1005.9019204861311
 11
882.45363848794659
 21
1004.9405742411107
  0
LINE
  8
_2-7_ビス
  6
CONTINUOUS
 62
    7
 10
882.45363848794659
 20
1004.9405742411107
 11
882.44885798794689
 21
1004.9405742411107
  0
LINE
  8
_2-7_ビス
  6
CONTINUOUS
 62
    7
 10
882.44885381466224
 20
1004.9405745948927
 11
882.44885798794689
 21
1004.9405742411107
  0
LINE
  8
_2-7_ビス
  6
CONTINUOUS
 62
    7
 10
882.44885381466224
 20
1004.9405745948927
 11
882.44885798794689
 21
1004.9405742411107
  0
LINE
  8
_2-7_ビス
  6
CONTINUOUS
 62
    7
 10
882.4162667379469
 20
1003.868644417211
 11
882.95510798794658
 21
1003.868644417211
  0
LINE
  8
_2-7_ビス
  6
CONTINUOUS
 62
    7
 10
882.95510798794658
 20
1003.868644417211
 11
882.95510798794658
 21
998.07141128043713
  0
LINE
  8
_2-7_ビス
  6
CONTINUOUS
 62
    7
 10
882.95510798794658
 20
998.07141128043713
 11
882.44886080088668
 21
997.10725991067238
  0
LINE
  8
_2-7_ビス
  6
CONTINUOUS
 62
    7
 10
882.44885798794689
 20
997.10724091261045
 11
882.44526635759121
 21
997.58469230985088
  0
LINE
  8
_2-7_ビス
  6
CONTINUOUS
 62
    7
 10
882.44526635759121
 20
997.58469230985088
 11
882.12458634996756
 21
997.60197775441088
  0
LINE
  8
_2-7_ビス
  6
CONTINUOUS
 62
    7
 10
881.96592430979968
 20
997.84934617531053
 11
882.4162667379469
 21
998.67390757831049
  0
LINE
  8
_2-7_ビス
  6
CONTINUOUS
 62
    7
 10
882.4162667379469
 20
998.67390757831049
 11
882.41626689007012
 21
999.1513590473055
  0
LINE
  8
_2-7_ビス
  6
CONTINUOUS
 62
    7
 10
882.41626689007012
 20
999.1513590473055
 11
882.06823448794785
 21
999.16864442011092
  0
LINE
  8
_2-7_ビス
  6
CONTINUOUS
 62
    7
 10
881.90864473822649
 20
999.41601284101057
 11
882.4162667379469
 21
1000.2405742440105
  0
LINE
  8
_2-7_ビス
  6
CONTINUOUS
 62
    7
 10
882.4162667379469
 20
1000.2405742440105
 11
882.4162667379469
 21
1000.7180258051192
  0
LINE
  8
_2-7_ビス
  6
CONTINUOUS
 62
    7
 10
882.4162667379469
 20
1000.7180258051192
 11
882.06823448794785
 21
1000.735311085811
  0
LINE
  8
_2-7_ビス
  6
CONTINUOUS
 62
    7
 10
881.90864473822649
 20
1000.9826795067106
 11
882.4162667379469
 21
1001.8072409097106
  0
LINE
  8
_2-7_ビス
  6
CONTINUOUS
 62
    7
 10
882.4162667379469
 20
1001.8072409097106
 11
882.4162667379469
 21
1002.2846924708192
  0
LINE
  8
_2-7_ビス
  6
CONTINUOUS
 62
    7
 10
882.4162667379469
 20
1002.2846924708192
 11
882.06823448794785
 21
1002.301977751511
  0
LINE
  8
_2-7_ビス
  6
CONTINUOUS
 62
    7
 10
881.90864473822649
 20
1002.5493461724107
 11
882.41626689007012
 21
1003.3739075754106
  0
LINE
  8
_2-7_ビス
  6
CONTINUOUS
 62
    7
 10
882.41626689007012
 20
1003.3739075754106
 11
882.4162667379469
 21
1003.868644417211
  0
LINE
  8
_2-7_ビス
  6
CONTINUOUS
 62
    7
 10
882.44885381466224
 20
1004.9405745948927
 11
882.44516861341685
 21
1005.4180260638866
  0
LINE
  8
_2-7_ビス
  6
CONTINUOUS
 62
    7
 10
882.44516861341685
 20
1005.4180260638866
 11
882.12772373794769
 21
1005.4353110829111
  0
LINE
  8
_2-7_ビス
  6
CONTINUOUS
 62
    7
 10
881.96563159762695
 20
1005.6826795038107
 11
882.41626689007012
 21
1006.5072409068107
  0
LINE
  8
_2-7_ビス
  6
CONTINUOUS
 62
    7
 10
882.41626689007012
 20
1006.5072409068107
 11
882.41626689007012
 21
1006.9846923758046
  0
LINE
  8
_2-7_ビス
  6
CONTINUOUS
 62
    7
 10
882.41626689007012
 20
1006.9846923758046
 11
882.06823448794785
 21
1007.0019777486111
  0
LINE
  8
_2-7_ビス
  6
CONTINUOUS
 62
    7
 10
881.90864473822649
 20
1007.2493461695108
 11
882.4162667379469
 21
1008.0739075725107
  0
LINE
  8
_2-7_ビス
  6
CONTINUOUS
 62
    7
 10
882.4162667379469
 20
1008.0739075725107
 11
882.41626689007012
 21
1008.5513590415046
  0
LINE
  8
_2-7_ビス
  6
CONTINUOUS
 62
    7
 10
882.41626689007012
 20
1008.5513590415046
 11
882.06734839545879
 21
1008.5688759954705
  0
LINE
  8
_2-7_ビス
  6
CONTINUOUS
 62
    7
 10
881.90864473822649
 20
1008.8160128352108
 11
882.41626689007012
 21
1009.6405742382108
  0
LINE
  8
_2-7_ビス
  6
CONTINUOUS
 62
    7
 10
882.41626689007012
 20
1009.6405742382108
 11
882.41626673243991
 21
1010.1353110800101
  0
LINE
  8
_2-7_ビス
  6
CONTINUOUS
 62
    7
 10
882.4162667379469
 20
996.03531108871084
 11
882.95510798794658
 21
996.03531108871084
  0
LINE
  8
_2-7_ビス
  6
CONTINUOUS
 62
    7
 10
882.95510798794658
 20
996.03531108871084
 11
882.95510798794658
 21
992.78706935387322
  0
LINE
  8
_2-7_ビス
  6
CONTINUOUS
 62
    7
 10
882.95510798794658
 20
992.78706935387322
 11
882.4493222379474
 21
989.27390758411025
  0
LINE
  8
_2-7_ビス
  6
CONTINUOUS
 62
    7
 10
882.4493222379474
 20
989.27390758411025
 11
882.44858772028329
 21
989.75135866825144
  0
LINE
  8
_2-7_ビス
  6
CONTINUOUS
 62
    7
 10
882.44858772028329
 20
989.75135866825144
 11
882.13989923794634
 21
989.76864442591068
  0
LINE
  8
_2-7_ビス
  6
CONTINUOUS
 62
    7
 10
882.4493222379474
 20
989.27390758411025
 11
882.0158454273801
 21
988.44934618111029
  0
LINE
  8
_2-7_ビス
  6
CONTINUOUS
 62
    7
 10
881.99534267315903
 20
990.01601284681033
 11
882.44594500661924
 21
990.84057424981029
  0
LINE
  8
_2-7_ビス
  6
CONTINUOUS
 62
    7
 10
882.44594500661924
 20
990.84057424981029
 11
882.44386010235735
 21
991.31802533395035
  0
LINE
  8
_2-7_ビス
  6
CONTINUOUS
 62
    7
 10
882.44386010235735
 20
991.31802533395035
 11
882.12153323794701
 21
991.33531109161072
  0
LINE
  8
_2-7_ビス
  6
CONTINUOUS
 62
    7
 10
881.97302774212949
 20
991.58267951251037
 11
882.43689560145276
 21
992.40724053065651
  0
LINE
  8
_2-7_ビス
  6
CONTINUOUS
 62
    7
 10
882.43689560145276
 20
992.40724053065651
 11
882.43283276075636
 21
992.88469199965152
  0
LINE
  8
_2-7_ビス
  6
CONTINUOUS
 62
    7
 10
882.43283276075636
 20
992.88469199965152
 11
882.09817940548851
 21
992.90197775731076
  0
LINE
  8
_2-7_ビス
  6
CONTINUOUS
 62
    7
 10
881.94092478931998
 20
993.14934617821041
 11
882.42112741352548
 21
993.97390719635655
  0
LINE
  8
_2-7_ビス
  6
CONTINUOUS
 62
    7
 10
882.42112741352548
 20
993.97390719635655
 11
882.4162667379469
 21
994.45135914231901
  0
LINE
  8
_2-7_ビス
  6
CONTINUOUS
 62
    7
 10
882.4162667379469
 20
994.45135914231901
 11
882.06823448794785
 21
994.4686444230108
  0
LINE
  8
_2-7_ビス
  6
CONTINUOUS
 62
    7
 10
881.90864473822649
 20
994.71601284391045
 11
882.41626689007012
 21
995.54057424691041
  0
LINE
  8
_2-7_ビス
  6
CONTINUOUS
 62
    7
 10
882.41626689007012
 20
995.54057424691041
 11
882.4162667379469
 21
996.03531108871084
  0
LINE
  8
_2-7_ビス
  6
CONTINUOUS
 62
    7
 10
882.14574923794635
 20
988.20197776021064
 11
882.28010798794776
 21
988.20197776021064
  0
LINE
  8
_2-7_ビス
  6
CONTINUOUS
 62
    7
 10
882.28010798794776
 20
988.20197776021064
 11
882.28010798794776
 21
987.41864442736005
  0
LINE
  8
_2-7_ビス
  6
CONTINUOUS
 62
    7
 10
882.28010798794776
 20
987.41864442736005
 11
882.13010798794676
 21
987.41864442736005
  0
LINE
  8
_2-7_ビス
  6
CONTINUOUS
 62
    7
 10
882.13010798794676
 20
987.41864442736005
 11
882.13010798794676
 21
985.81074969151064
  0
LINE
  8
_2-7_ビス
  6
CONTINUOUS
 62
    7
 10
882.13010798794676
 20
985.81074969151064
 11
882.12364117714606
 21
985.81074969151064
  0
LINE
  8
_2-7_ビス
  6
CONTINUOUS
 62
    7
 10
882.07336598794745
 20
985.48092513031111
 11
882.07336584140853
 21
979.53048353749114
  0
LINE
  8
_2-7_ビス
  6
CONTINUOUS
 62
    7
 10
882.07336584140853
 20
979.53048353749114
 11
881.63292848794731
 21
978.87906271333168
  0
LINE
  8
_2-7_ビス
  6
CONTINUOUS
 62
    7
 10
881.63292848794731
 20
978.87906271333168
 11
880.63010798794699
 21
977.56513566151102
  0
LINE
  8
_2-7_ビス
  6
CONTINUOUS
 62
    7
 10
880.63010798794699
 20
977.56513566151102
 11
880.48072950845244
 21
977.56513566151102
  0
LINE
  8
_2-7_ビス
  6
CONTINUOUS
 62
    7
 10
880.48072950845244
 20
977.56513566151102
 11
881.56582361776691
 21
979.53048353749114
  0
LINE
  8
_2-7_ビス
  6
CONTINUOUS
 62
    7
 10
881.56582361776691
 20
979.53048353749114
 11
881.56582373794754
 21
983.50197776311052
  0
LINE
  8
_2-7_ビス
  6
CONTINUOUS
 62
    7
 10
880.98246023794763
 20
983.50197776311052
 11
880.98246051137926
 21
979.53048369018961
  0
LINE
  8
_2-7_ビス
  6
CONTINUOUS
 62
    7
 10
880.98246051137926
 20
979.53048369018961
 11
879.89736614614662
 21
977.56513566151102
  0
LINE
  8
_2-7_ビス
  6
CONTINUOUS
 62
    7
 10
879.89736614614662
 20
977.56513566151102
 11
879.28010798794708
 21
977.56513566151102
  0
LINE
  8
_2-7_ビス
  6
CONTINUOUS
 62
    7
 10
881.85780809303026
 20
1010.4030789135762
 11
881.85780809303026
 21
1010.4030789135762
  0
LINE
  8
_2-7_ビス
  6
CONTINUOUS
 62
    7
 10
881.85780809303026
 20
1010.4030789135762
 11
881.84460996767541
 21
1010.3768195581996
  0
LINE
  8
_2-7_ビス
  6
CONTINUOUS
 62
    7
 10
881.84460996767541
 20
1010.3768195581996
 11
881.83575991030398
 21
1010.3484394682307
  0
LINE
  8
_2-7_ビス
  6
CONTINUOUS
 62
    7
 10
881.83575991030398
 20
1010.3484394682307
 11
881.83152682543084
 21
1010.3188009583423
  0
LINE
  8
_2-7_ビス
  6
CONTINUOUS
 62
    7
 10
881.83152682543084
 20
1010.3188009583423
 11
881.83203933319805
 21
1010.2888045796593
  0
LINE
  8
_2-7_ビス
  6
CONTINUOUS
 62
    7
 10
881.83203933319805
 20
1010.2888045796593
 11
881.83728186131623
 21
1010.2593617569694
  0
LINE
  8
_2-7_ビス
  6
CONTINUOUS
 62
    7
 10
881.83728186131623
 20
1010.2593617569694
 11
881.84709511822143
 21
1010.231367095541
  0
LINE
  8
_2-7_ビス
  6
CONTINUOUS
 62
    7
 10
881.84709511822143
 20
1010.231367095541
 11
881.86118093306834
 21
1010.2056711989958
  0
LINE
  8
_2-7_ビス
  6
CONTINUOUS
 62
    7
 10
881.86118093306834
 20
1010.2056711989958
 11
881.87911131550061
 21
1010.1830548241475
  0
LINE
  8
_2-7_ビス
  6
CONTINUOUS
 62
    7
 10
881.87911131550061
 20
1010.1830548241475
 11
881.90034145992115
 21
1010.1642051581014
  0
LINE
  8
_2-7_ビス
  6
CONTINUOUS
 62
    7
 10
881.90034145992115
 20
1010.1642051581014
 11
881.92422629913483
 21
1010.1496949384218
  0
LINE
  8
_2-7_ビス
  6
CONTINUOUS
 62
    7
 10
881.92422629913483
 20
1010.1496949384218
 11
881.95004010438845
 21
1010.1399650507915
  0
LINE
  8
_2-7_ビス
  6
CONTINUOUS
 62
    7
 10
881.95004010438845
 20
1010.1399650507915
 11
881.97699853627171
 21
1010.1353111329222
  0
LINE
  8
_2-7_ビス
  6
CONTINUOUS
 62
    7
 10
881.97699853627171
 20
1010.1353111329222
 11
881.97699923794721
 21
1010.1353110800101
  0
LINE
  8
_2-7_ビス
  6
CONTINUOUS
 62
    7
 10
881.9086447382258
 20
1008.8160128352105
 11
881.9086447382258
 21
1008.8160128352105
  0
LINE
  8
_2-7_ビス
  6
CONTINUOUS
 62
    7
 10
881.9086447382258
 20
1008.8160128352105
 11
881.90797363263869
 21
1008.7760546812221
  0
LINE
  8
_2-7_ビス
  6
CONTINUOUS
 62
    7
 10
881.90797363263869
 20
1008.7760546812221
 11
881.91362395120279
 21
1008.7365754596399
  0
LINE
  8
_2-7_ビス
  6
CONTINUOUS
 62
    7
 10
881.91362395120279
 20
1008.7365754596399
 11
881.92542401184755
 21
1008.698774726634
  0
LINE
  8
_2-7_ビス
  6
CONTINUOUS
 62
    7
 10
881.92542401184755
 20
1008.698774726634
 11
881.94301527570144
 21
1008.6638010383489
  0
LINE
  8
_2-7_ビス
  6
CONTINUOUS
 62
    7
 10
881.94301527570144
 20
1008.6638010383489
 11
881.96586324111399
 21
1008.6327170526054
  0
LINE
  8
_2-7_ビス
  6
CONTINUOUS
 62
    7
 10
881.96586324111399
 20
1008.6327170526054
 11
881.9932736842178
 21
1008.6064672405811
  0
LINE
  8
_2-7_ビス
  6
CONTINUOUS
 62
    7
 10
881.9932736842178
 20
1008.6064672405811
 11
882.02441375256922
 21
1008.5858491895314
  0
LINE
  8
_2-7_ビス
  6
CONTINUOUS
 62
    7
 10
882.02441375256922
 20
1008.5858491895314
 11
882.05833727094932
 21
1008.5714893685041
  0
LINE
  8
_2-7_ビス
  6
CONTINUOUS
 62
    7
 10
882.05833727094932
 20
1008.5714893685041
 11
882.06823448794648
 21
1008.5686444143105
  0
LINE
  8
_2-7_ビス
  6
CONTINUOUS
 62
    7
 10
881.9086447382258
 20
1007.2493461695104
 11
881.9086447382258
 21
1007.2493461695104
  0
LINE
  8
_2-7_ビス
  6
CONTINUOUS
 62
    7
 10
881.9086447382258
 20
1007.2493461695104
 11
881.90797363263869
 21
1007.2093880155221
  0
LINE
  8
_2-7_ビス
  6
CONTINUOUS
 62
    7
 10
881.90797363263869
 20
1007.2093880155221
 11
881.91362395120279
 21
1007.1699087939398
  0
LINE
  8
_2-7_ビス
  6
CONTINUOUS
 62
    7
 10
881.91362395120279
 20
1007.1699087939398
 11
881.92542401184755
 21
1007.132108060934
  0
LINE
  8
_2-7_ビス
  6
CONTINUOUS
 62
    7
 10
881.92542401184755
 20
1007.132108060934
 11
881.94301527570144
 21
1007.0971343726488
  0
LINE
  8
_2-7_ビス
  6
CONTINUOUS
 62
    7
 10
881.94301527570144
 20
1007.0971343726488
 11
881.96586324111399
 21
1007.0660503869053
  0
LINE
  8
_2-7_ビス
  6
CONTINUOUS
 62
    7
 10
881.96586324111399
 20
1007.0660503869053
 11
881.9932736842178
 21
1007.039800574881
  0
LINE
  8
_2-7_ビス
  6
CONTINUOUS
 62
    7
 10
881.9932736842178
 20
1007.039800574881
 11
882.02441375256922
 21
1007.0191825238313
  0
LINE
  8
_2-7_ビス
  6
CONTINUOUS
 62
    7
 10
882.02441375256922
 20
1007.0191825238313
 11
882.05833727094932
 21
1007.0048227028041
  0
LINE
  8
_2-7_ビス
  6
CONTINUOUS
 62
    7
 10
882.05833727094932
 20
1007.0048227028041
 11
882.06823448794648
 21
1007.0019777486104
  0
LINE
  8
_2-7_ビス
  6
CONTINUOUS
 62
    7
 10
881.96563159762741
 20
1005.6826795038104
 11
881.96563159762741
 21
1005.6826795038104
  0
LINE
  8
_2-7_ビス
  6
CONTINUOUS
 62
    7
 10
881.96563159762741
 20
1005.6826795038104
 11
881.96496049204029
 21
1005.6427213498221
  0
LINE
  8
_2-7_ビス
  6
CONTINUOUS
 62
    7
 10
881.96496049204029
 20
1005.6427213498221
 11
881.9706108106044
 21
1005.6032421282398
  0
LINE
  8
_2-7_ビス
  6
CONTINUOUS
 62
    7
 10
881.9706108106044
 20
1005.6032421282398
 11
881.98241087124916
 21
1005.565441395234
  0
LINE
  8
_2-7_ビス
  6
CONTINUOUS
 62
    7
 10
881.98241087124916
 20
1005.565441395234
 11
882.00000213510305
 21
1005.5304677069488
  0
LINE
  8
_2-7_ビス
  6
CONTINUOUS
 62
    7
 10
882.00000213510305
 20
1005.5304677069488
 11
882.0228501005156
 21
1005.4993837212053
  0
LINE
  8
_2-7_ビス
  6
CONTINUOUS
 62
    7
 10
882.0228501005156
 20
1005.4993837212053
 11
882.0502605436194
 21
1005.473133909181
  0
LINE
  8
_2-7_ビス
  6
CONTINUOUS
 62
    7
 10
882.0502605436194
 20
1005.473133909181
 11
882.08140061197082
 21
1005.4525158581313
  0
LINE
  8
_2-7_ビス
  6
CONTINUOUS
 62
    7
 10
882.08140061197082
 20
1005.4525158581313
 11
882.11532413035093
 21
1005.438156037104
  0
LINE
  8
_2-7_ビス
  6
CONTINUOUS
 62
    7
 10
882.11532413035093
 20
1005.438156037104
 11
882.12522134734809
 21
1005.4353110829104
  0
LINE
  8
_2-7_ビス
  6
CONTINUOUS
 62
    7
 10
881.9086447382258
 20
1002.5493461724103
 11
881.9086447382258
 21
1002.5493461724103
  0
LINE
  8
_2-7_ビス
  6
CONTINUOUS
 62
    7
 10
881.9086447382258
 20
1002.5493461724103
 11
881.90797363263869
 21
1002.509388018422
  0
LINE
  8
_2-7_ビス
  6
CONTINUOUS
 62
    7
 10
881.90797363263869
 20
1002.509388018422
 11
881.91362395120279
 21
1002.4699087968397
  0
LINE
  8
_2-7_ビス
  6
CONTINUOUS
 62
    7
 10
881.91362395120279
 20
1002.4699087968397
 11
881.92542401184755
 21
1002.4321080638339
  0
LINE
  8
_2-7_ビス
  6
CONTINUOUS
 62
    7
 10
881.92542401184755
 20
1002.4321080638339
 11
881.94301527570144
 21
1002.3971343755487
  0
LINE
  8
_2-7_ビス
  6
CONTINUOUS
 62
    7
 10
881.94301527570144
 20
1002.3971343755487
 11
881.96586324111399
 21
1002.3660503898052
  0
LINE
  8
_2-7_ビス
  6
CONTINUOUS
 62
    7
 10
881.96586324111399
 20
1002.3660503898052
 11
881.9932736842178
 21
1002.3398005777809
  0
LINE
  8
_2-7_ビス
  6
CONTINUOUS
 62
    7
 10
881.9932736842178
 20
1002.3398005777809
 11
882.02441375256922
 21
1002.3191825267312
  0
LINE
  8
_2-7_ビス
  6
CONTINUOUS
 62
    7
 10
882.02441375256922
 20
1002.3191825267312
 11
882.05833727094932
 21
1002.3048227057039
  0
LINE
  8
_2-7_ビス
  6
CONTINUOUS
 62
    7
 10
882.05833727094932
 20
1002.3048227057039
 11
882.06823448794648
 21
1002.3019777515103
  0
LINE
  8
_2-7_ビス
  6
CONTINUOUS
 62
    7
 10
881.9086447382258
 20
1000.9826795067103
 11
881.9086447382258
 21
1000.9826795067103
  0
LINE
  8
_2-7_ビス
  6
CONTINUOUS
 62
    7
 10
881.9086447382258
 20
1000.9826795067103
 11
881.90797363263869
 21
1000.9427213527219
  0
LINE
  8
_2-7_ビス
  6
CONTINUOUS
 62
    7
 10
881.90797363263869
 20
1000.9427213527219
 11
881.91362395120279
 21
1000.9032421311397
  0
LINE
  8
_2-7_ビス
  6
CONTINUOUS
 62
    7
 10
881.91362395120279
 20
1000.9032421311397
 11
881.92542401184755
 21
1000.8654413981338
  0
LINE
  8
_2-7_ビス
  6
CONTINUOUS
 62
    7
 10
881.92542401184755
 20
1000.8654413981338
 11
881.94301527570144
 21
1000.8304677098487
  0
LINE
  8
_2-7_ビス
  6
CONTINUOUS
 62
    7
 10
881.94301527570144
 20
1000.8304677098487
 11
881.96586324111399
 21
1000.7993837241052
  0
LINE
  8
_2-7_ビス
  6
CONTINUOUS
 62
    7
 10
881.96586324111399
 20
1000.7993837241052
 11
881.9932736842178
 21
1000.7731339120809
  0
LINE
  8
_2-7_ビス
  6
CONTINUOUS
 62
    7
 10
881.9932736842178
 20
1000.7731339120809
 11
882.02441375256922
 21
1000.7525158610312
  0
LINE
  8
_2-7_ビス
  6
CONTINUOUS
 62
    7
 10
882.02441375256922
 20
1000.7525158610312
 11
882.05833727094932
 21
1000.7381560400039
  0
LINE
  8
_2-7_ビス
  6
CONTINUOUS
 62
    7
 10
882.05833727094932
 20
1000.7381560400039
 11
882.06823448794648
 21
1000.7353110858103
  0
LINE
  8
_2-7_ビス
  6
CONTINUOUS
 62
    7
 10
881.9086447382258
 20
999.41601284101023
 11
881.9086447382258
 21
999.41601284101023
  0
LINE
  8
_2-7_ビス
  6
CONTINUOUS
 62
    7
 10
881.9086447382258
 20
999.41601284101023
 11
881.90797363263869
 21
999.37605468702191
  0
LINE
  8
_2-7_ビス
  6
CONTINUOUS
 62
    7
 10
881.90797363263869
 20
999.37605468702191
 11
881.91362395120279
 21
999.33657546543964
  0
LINE
  8
_2-7_ビス
  6
CONTINUOUS
 62
    7
 10
881.91362395120279
 20
999.33657546543964
 11
881.92542401184755
 21
999.2987747324338
  0
LINE
  8
_2-7_ビス
  6
CONTINUOUS
 62
    7
 10
881.92542401184755
 20
999.2987747324338
 11
881.94301527570144
 21
999.26380104414864
  0
LINE
  8
_2-7_ビス
  6
CONTINUOUS
 62
    7
 10
881.94301527570144
 20
999.26380104414864
 11
881.96586324111399
 21
999.23271705840511
  0
LINE
  8
_2-7_ビス
  6
CONTINUOUS
 62
    7
 10
881.96586324111399
 20
999.23271705840511
 11
881.9932736842178
 21
999.20646724638084
  0
LINE
  8
_2-7_ビス
  6
CONTINUOUS
 62
    7
 10
881.9932736842178
 20
999.20646724638084
 11
882.02441375256922
 21
999.18584919533112
  0
LINE
  8
_2-7_ビス
  6
CONTINUOUS
 62
    7
 10
882.02441375256922
 20
999.18584919533112
 11
882.05833727094932
 21
999.17148937430386
  0
LINE
  8
_2-7_ビス
  6
CONTINUOUS
 62
    7
 10
882.05833727094932
 20
999.17148937430386
 11
882.06823448794648
 21
999.16864442011024
  0
LINE
  8
_2-7_ビス
  6
CONTINUOUS
 62
    7
 10
881.96592430980013
 20
997.84934617531019
 11
881.96592430980013
 21
997.84934617531019
  0
LINE
  8
_2-7_ビス
  6
CONTINUOUS
 62
    7
 10
881.96592430980013
 20
997.84934617531019
 11
881.96525320421301
 21
997.80938802132187
  0
LINE
  8
_2-7_ビス
  6
CONTINUOUS
 62
    7
 10
881.96525320421301
 20
997.80938802132187
 11
881.97090352277712
 21
997.7699087997396
  0
LINE
  8
_2-7_ビス
  6
CONTINUOUS
 62
    7
 10
881.97090352277712
 20
997.7699087997396
 11
881.98270358342188
 21
997.73210806673376
  0
LINE
  8
_2-7_ビス
  6
CONTINUOUS
 62
    7
 10
881.98270358342188
 20
997.73210806673376
 11
882.00029484727577
 21
997.6971343784486
  0
LINE
  8
_2-7_ビス
  6
CONTINUOUS
 62
    7
 10
882.00029484727577
 20
997.6971343784486
 11
882.02314281268832
 21
997.66605039270507
  0
LINE
  8
_2-7_ビス
  6
CONTINUOUS
 62
    7
 10
882.02314281268832
 20
997.66605039270507
 11
882.05055325579212
 21
997.6398005806808
  0
LINE
  8
_2-7_ビス
  6
CONTINUOUS
 62
    7
 10
882.05055325579212
 20
997.6398005806808
 11
882.08169332414354
 21
997.61918252963108
  0
LINE
  8
_2-7_ビス
  6
CONTINUOUS
 62
    7
 10
882.08169332414354
 20
997.61918252963108
 11
882.11561684252365
 21
997.60482270860382
  0
LINE
  8
_2-7_ビス
  6
CONTINUOUS
 62
    7
 10
882.11561684252365
 20
997.60482270860382
 11
882.12551405952081
 21
997.6019777544102
  0
LINE
  8
_2-7_ビス
  6
CONTINUOUS
 62
    7
 10
881.9086447382258
 20
994.71601284391011
 11
881.9086447382258
 21
994.71601284391011
  0
LINE
  8
_2-7_ビス
  6
CONTINUOUS
 62
    7
 10
881.9086447382258
 20
994.71601284391011
 11
881.90797363263869
 21
994.67605468992178
  0
LINE
  8
_2-7_ビス
  6
CONTINUOUS
 62
    7
 10
881.90797363263869
 20
994.67605468992178
 11
881.91362395120279
 21
994.63657546833952
  0
LINE
  8
_2-7_ビス
  6
CONTINUOUS
 62
    7
 10
881.91362395120279
 20
994.63657546833952
 11
881.92542401184755
 21
994.59877473533368
  0
LINE
  8
_2-7_ビス
  6
CONTINUOUS
 62
    7
 10
881.92542401184755
 20
994.59877473533368
 11
881.94301527570144
 21
994.56380104704851
  0
LINE
  8
_2-7_ビス
  6
CONTINUOUS
 62
    7
 10
881.94301527570144
 20
994.56380104704851
 11
881.96586324111399
 21
994.53271706130499
  0
LINE
  8
_2-7_ビス
  6
CONTINUOUS
 62
    7
 10
881.96586324111399
 20
994.53271706130499
 11
881.9932736842178
 21
994.50646724928072
  0
LINE
  8
_2-7_ビス
  6
CONTINUOUS
 62
    7
 10
881.9932736842178
 20
994.50646724928072
 11
882.02441375256922
 21
994.48584919823099
  0
LINE
  8
_2-7_ビス
  6
CONTINUOUS
 62
    7
 10
882.02441375256922
 20
994.48584919823099
 11
882.05833727094932
 21
994.47148937720374
  0
LINE
  8
_2-7_ビス
  6
CONTINUOUS
 62
    7
 10
882.05833727094932
 20
994.47148937720374
 11
882.06823448794648
 21
994.46864442301012
  0
LINE
  8
_2-7_ビス
  6
CONTINUOUS
 62
    7
 10
881.94092478932043
 20
993.14934617821007
 11
881.94092478932043
 21
993.14934617821007
  0
LINE
  8
_2-7_ビス
  6
CONTINUOUS
 62
    7
 10
881.94092478932043
 20
993.14934617821007
 11
881.94025368373332
 21
993.10938802422174
  0
LINE
  8
_2-7_ビス
  6
CONTINUOUS
 62
    7
 10
881.94025368373332
 20
993.10938802422174
 11
881.94590400229742
 21
993.06990880263947
  0
LINE
  8
_2-7_ビス
  6
CONTINUOUS
 62
    7
 10
881.94590400229742
 20
993.06990880263947
 11
881.95770406294218
 21
993.03210806963364
  0
LINE
  8
_2-7_ビス
  6
CONTINUOUS
 62
    7
 10
881.95770406294218
 20
993.03210806963364
 11
881.97529532679607
 21
992.99713438134847
  0
LINE
  8
_2-7_ビス
  6
CONTINUOUS
 62
    7
 10
881.97529532679607
 20
992.99713438134847
 11
881.99814329220862
 21
992.96605039560495
  0
LINE
  8
_2-7_ビス
  6
CONTINUOUS
 62
    7
 10
881.99814329220862
 20
992.96605039560495
 11
882.02555373531243
 21
992.93980058358068
  0
LINE
  8
_2-7_ビス
  6
CONTINUOUS
 62
    7
 10
882.02555373531243
 20
992.93980058358068
 11
882.05669380366385
 21
992.91918253253095
  0
LINE
  8
_2-7_ビス
  6
CONTINUOUS
 62
    7
 10
882.05669380366385
 20
992.91918253253095
 11
882.09061732204395
 21
992.9048227115037
  0
LINE
  8
_2-7_ビス
  6
CONTINUOUS
 62
    7
 10
882.09061732204395
 20
992.9048227115037
 11
882.10051453904111
 21
992.90197775731008
  0
LINE
  8
_2-7_ビス
  6
CONTINUOUS
 62
    7
 10
881.97302774212881
 20
991.58267951251003
 11
881.97302774212881
 21
991.58267951251003
  0
LINE
  8
_2-7_ビス
  6
CONTINUOUS
 62
    7
 10
881.97302774212881
 20
991.58267951251003
 11
881.97235663654169
 21
991.5427213585217
  0
LINE
  8
_2-7_ビス
  6
CONTINUOUS
 62
    7
 10
881.97235663654169
 20
991.5427213585217
 11
881.9780069551058
 21
991.50324213693943
  0
LINE
  8
_2-7_ビス
  6
CONTINUOUS
 62
    7
 10
881.9780069551058
 20
991.50324213693943
 11
881.98980701575056
 21
991.4654414039336
  0
LINE
  8
_2-7_ビス
  6
CONTINUOUS
 62
    7
 10
881.98980701575056
 20
991.4654414039336
 11
882.00739827960444
 21
991.43046771564843
  0
LINE
  8
_2-7_ビス
  6
CONTINUOUS
 62
    7
 10
882.00739827960444
 20
991.43046771564843
 11
882.030246245017
 21
991.39938372990491
  0
LINE
  8
_2-7_ビス
  6
CONTINUOUS
 62
    7
 10
882.030246245017
 20
991.39938372990491
 11
882.0576566881208
 21
991.37313391788064
  0
LINE
  8
_2-7_ビス
  6
CONTINUOUS
 62
    7
 10
882.0576566881208
 20
991.37313391788064
 11
882.08879675647222
 21
991.35251586683091
  0
LINE
  8
_2-7_ビス
  6
CONTINUOUS
 62
    7
 10
882.08879675647222
 20
991.35251586683091
 11
882.12272027485233
 21
991.33815604580366
  0
LINE
  8
_2-7_ビス
  6
CONTINUOUS
 62
    7
 10
882.12272027485233
 20
991.33815604580366
 11
882.13261749184949
 21
991.33531109161004
  0
LINE
  8
_2-7_ビス
  6
CONTINUOUS
 62
    7
 10
881.99534267315835
 20
990.01601284681112
 11
881.99534267315835
 21
990.01601284681112
  0
LINE
  8
_2-7_ビス
  6
CONTINUOUS
 62
    7
 10
881.99534267315835
 20
990.01601284681112
 11
881.99467156757123
 21
989.9760546928228
  0
LINE
  8
_2-7_ビス
  6
CONTINUOUS
 62
    7
 10
881.99467156757123
 20
989.9760546928228
 11
882.00032188613534
 21
989.93657547124053
  0
LINE
  8
_2-7_ビス
  6
CONTINUOUS
 62
    7
 10
882.00032188613534
 20
989.93657547124053
 11
882.0121219467801
 21
989.89877473823469
  0
LINE
  8
_2-7_ビス
  6
CONTINUOUS
 62
    7
 10
882.0121219467801
 20
989.89877473823469
 11
882.02971321063399
 21
989.86380104994953
  0
LINE
  8
_2-7_ビス
  6
CONTINUOUS
 62
    7
 10
882.02971321063399
 20
989.86380104994953
 11
882.05256117604654
 21
989.83271706420601
  0
LINE
  8
_2-7_ビス
  6
CONTINUOUS
 62
    7
 10
882.05256117604654
 20
989.83271706420601
 11
882.07997161915034
 21
989.80646725218173
  0
LINE
  8
_2-7_ビス
  6
CONTINUOUS
 62
    7
 10
882.07997161915034
 20
989.80646725218173
 11
882.11111168750176
 21
989.78584920113201
  0
LINE
  8
_2-7_ビス
  6
CONTINUOUS
 62
    7
 10
882.11111168750176
 20
989.78584920113201
 11
882.14503520588187
 21
989.77148938010475
  0
LINE
  8
_2-7_ビス
  6
CONTINUOUS
 62
    7
 10
882.14503520588187
 20
989.77148938010475
 11
882.15493242287903
 21
989.76864442591113
  0
LINE
  8
_2-7_ビス
  6
CONTINUOUS
 62
    7
 10
882.02884525209288
 20
988.47407450208038
 11
882.02884525209288
 21
988.47407450208038
  0
LINE
  8
_2-7_ビス
  6
CONTINUOUS
 62
    7
 10
882.02884525209288
 20
988.47407450208038
 11
882.01518310034282
 21
988.44778650010323
  0
LINE
  8
_2-7_ビス
  6
CONTINUOUS
 62
    7
 10
882.01518310034282
 20
988.44778650010323
 11
882.00588059079439
 21
988.41928961078963
  0
LINE
  8
_2-7_ビス
  6
CONTINUOUS
 62
    7
 10
882.00588059079439
 20
988.41928961078963
 11
882.00122037549295
 21
988.38944969770137
  0
LINE
  8
_2-7_ビス
  6
CONTINUOUS
 62
    7
 10
882.00122037549295
 20
988.38944969770137
 11
882.00134405272217
 21
988.35917343149777
  0
LINE
  8
_2-7_ビス
  6
CONTINUOUS
 62
    7
 10
882.00134405272217
 20
988.35917343149777
 11
882.00624786461196
 21
988.32938074120693
  0
LINE
  8
_2-7_ビス
  6
CONTINUOUS
 62
    7
 10
882.00624786461196
 20
988.32938074120693
 11
882.0157828113197
 21
988.30097686264742
  0
LINE
  8
_2-7_ビス
  6
CONTINUOUS
 62
    7
 10
882.0157828113197
 20
988.30097686264742
 11
882.02965917831443
 21
988.27482483329652
  0
LINE
  8
_2-7_ビス
  6
CONTINUOUS
 62
    7
 10
882.02965917831443
 20
988.27482483329652
 11
882.04745533920675
 21
988.25171926933217
  0
LINE
  8
_2-7_ビス
  6
CONTINUOUS
 62
    7
 10
882.04745533920675
 20
988.25171926933217
 11
882.0686305666535
 21
988.23236222162359
  0
LINE
  8
_2-7_ビス
  6
CONTINUOUS
 62
    7
 10
882.0686305666535
 20
988.23236222162359
 11
882.09254146208366
 21
988.21734184427021
  0
LINE
  8
_2-7_ビス
  6
CONTINUOUS
 62
    7
 10
882.09254146208366
 20
988.21734184427021
 11
882.11846150503914
 21
988.20711452383739
  0
LINE
  8
_2-7_ビス
  6
CONTINUOUS
 62
    7
 10
882.11846150503914
 20
988.20711452383739
 11
882.1456031281308
 21
988.20199101228093
  0
LINE
  8
_2-7_ビス
  6
CONTINUOUS
 62
    7
 10
882.1456031281308
 20
988.20199101228093
 11
882.14574923794703
 21
988.20197776021098
  0
LINE
  8
_2-7_ビス
  6
CONTINUOUS
 62
    7
 10
882.4488579879478
 20
997.10724091261068
 11
882.4488579879478
 21
997.10724091261068
  0
LINE
  8
_2-7_ビス
  6
CONTINUOUS
 62
    7
 10
882.4488579879478
 20
997.10724091261068
 11
882.36453215715403
 21
997.09498095596291
  0
LINE
  8
_2-7_ビス
  6
CONTINUOUS
 62
    7
 10
882.36453215715403
 20
997.09498095596291
 11
882.28342383569577
 21
997.06680848925578
  0
LINE
  8
_2-7_ビス
  6
CONTINUOUS
 62
    7
 10
882.28342383569577
 20
997.06680848925578
 11
882.20799745887768
 21
997.02357951863428
  0
LINE
  8
_2-7_ビス
  6
CONTINUOUS
 62
    7
 10
882.20799745887768
 20
997.02357951863428
 11
882.14054481899177
 21
996.96660753449578
  0
LINE
  8
_2-7_ビス
  6
CONTINUOUS
 62
    7
 10
882.14054481899177
 20
996.96660753449578
 11
882.08311543036837
 21
996.89762360174905
  0
LINE
  8
_2-7_ビス
  6
CONTINUOUS
 62
    7
 10
882.08311543036837
 20
996.89762360174905
 11
882.03745425592012
 21
996.81872376228318
  0
LINE
  8
_2-7_ビス
  6
CONTINUOUS
 62
    7
 10
882.03745425592012
 20
996.81872376228318
 11
882.00494868732687
 21
996.73230534779498
  0
LINE
  8
_2-7_ビス
  6
CONTINUOUS
 62
    7
 10
882.00494868732687
 20
996.73230534779498
 11
881.98658638984182
 21
996.6409941380789
  0
LINE
  8
_2-7_ビス
  6
CONTINUOUS
 62
    7
 10
881.98658638984182
 20
996.6409941380789
 11
881.98292529258219
 21
996.54756457803637
  0
LINE
  8
_2-7_ビス
  6
CONTINUOUS
 62
    7
 10
881.98292529258219
 20
996.54756457803637
 11
881.99407663613567
 21
996.45485547757175
  0
LINE
  8
_2-7_ビス
  6
CONTINUOUS
 62
    7
 10
881.99407663613567
 20
996.45485547757175
 11
882.01970159257121
 21
996.36568375578963
  0
LINE
  8
_2-7_ビス
  6
CONTINUOUS
 62
    7
 10
882.01970159257121
 20
996.36568375578963
 11
882.05902156055436
 21
996.28275885033315
  0
LINE
  8
_2-7_ビス
  6
CONTINUOUS
 62
    7
 10
882.05902156055436
 20
996.28275885033315
 11
882.11084182275488
 21
996.20860039249271
  0
LINE
  8
_2-7_ビス
  6
CONTINUOUS
 62
    7
 10
882.11084182275488
 20
996.20860039249271
 11
882.17358784672808
 21
996.14546164948365
  0
LINE
  8
_2-7_ビス
  6
CONTINUOUS
 62
    7
 10
882.17358784672808
 20
996.14546164948365
 11
882.24535312628666
 21
996.09526106006274
  0
LINE
  8
_2-7_ビス
  6
CONTINUOUS
 62
    7
 10
882.24535312628666
 20
996.09526106006274
 11
882.32395710972594
 21
996.05952394373662
  0
LINE
  8
_2-7_ビス
  6
CONTINUOUS
 62
    7
 10
882.32395710972594
 20
996.05952394373662
 11
882.40701145478499
 21
996.03933615470123
  0
LINE
  8
_2-7_ビス
  6
CONTINUOUS
 62
    7
 10
882.40701145478499
 20
996.03933615470123
 11
882.4488579879478
 21
996.03531108871061
  0
LINE
  8
_2-7_ビス
  6
CONTINUOUS
 62
    7
 10
882.4488579879478
 20
1004.9405742411109
 11
882.4488579879478
 21
1004.9405742411109
  0
LINE
  8
_2-7_ビス
  6
CONTINUOUS
 62
    7
 10
882.4488579879478
 20
1004.9405742411109
 11
882.36453215715403
 21
1004.9283142844631
  0
LINE
  8
_2-7_ビス
  6
CONTINUOUS
 62
    7
 10
882.36453215715403
 20
1004.9283142844631
 11
882.28342383569577
 21
1004.900141817756
  0
LINE
  8
_2-7_ビス
  6
CONTINUOUS
 62
    7
 10
882.28342383569577
 20
1004.900141817756
 11
882.20799745887768
 21
1004.8569128471345
  0
LINE
  8
_2-7_ビス
  6
CONTINUOUS
 62
    7
 10
882.20799745887768
 20
1004.8569128471345
 11
882.14054481899177
 21
1004.799940862996
  0
LINE
  8
_2-7_ビス
  6
CONTINUOUS
 62
    7
 10
882.14054481899177
 20
1004.799940862996
 11
882.08311543036837
 21
1004.7309569302492
  0
LINE
  8
_2-7_ビス
  6
CONTINUOUS
 62
    7
 10
882.08311543036837
 20
1004.7309569302492
 11
882.03745425592012
 21
1004.6520570907834
  0
LINE
  8
_2-7_ビス
  6
CONTINUOUS
 62
    7
 10
882.03745425592012
 20
1004.6520570907834
 11
882.00494868732687
 21
1004.5656386762952
  0
LINE
  8
_2-7_ビス
  6
CONTINUOUS
 62
    7
 10
882.00494868732687
 20
1004.5656386762952
 11
881.98658638984182
 21
1004.4743274665791
  0
LINE
  8
_2-7_ビス
  6
CONTINUOUS
 62
    7
 10
881.98658638984182
 20
1004.4743274665791
 11
881.98292529258219
 21
1004.3808979065366
  0
LINE
  8
_2-7_ビス
  6
CONTINUOUS
 62
    7
 10
881.98292529258219
 20
1004.3808979065366
 11
881.99407663613567
 21
1004.288188806072
  0
LINE
  8
_2-7_ビス
  6
CONTINUOUS
 62
    7
 10
881.99407663613567
 20
1004.288188806072
 11
882.01970159257121
 21
1004.1990170842898
  0
LINE
  8
_2-7_ビス
  6
CONTINUOUS
 62
    7
 10
882.01970159257121
 20
1004.1990170842898
 11
882.05902156055436
 21
1004.1160921788334
  0
LINE
  8
_2-7_ビス
  6
CONTINUOUS
 62
    7
 10
882.05902156055436
 20
1004.1160921788334
 11
882.11084182275488
 21
1004.0419337209929
  0
LINE
  8
_2-7_ビス
  6
CONTINUOUS
 62
    7
 10
882.11084182275488
 20
1004.0419337209929
 11
882.17358784672808
 21
1003.9787949779839
  0
LINE
  8
_2-7_ビス
  6
CONTINUOUS
 62
    7
 10
882.17358784672808
 20
1003.9787949779839
 11
882.24535312628666
 21
1003.9285943885629
  0
LINE
  8
_2-7_ビス
  6
CONTINUOUS
 62
    7
 10
882.24535312628666
 20
1003.9285943885629
 11
882.32395710972594
 21
1003.8928572722368
  0
LINE
  8
_2-7_ビス
  6
CONTINUOUS
 62
    7
 10
882.32395710972594
 20
1003.8928572722368
 11
882.40701145478499
 21
1003.8726694832014
  0
LINE
  8
_2-7_ビス
  6
CONTINUOUS
 62
    7
 10
882.40701145478499
 20
1003.8726694832014
 11
882.4488579879478
 21
1003.8686444172108
  0
LINE
  8
_2-7_ビス
  6
CONTINUOUS
 62
    7
 10
882.12364117714537
 20
985.8107496915103
 11
882.12364117714537
 21
985.8107496915103
  0
LINE
  8
_2-7_ビス
  6
CONTINUOUS
 62
    7
 10
882.12364117714537
 20
985.8107496915103
 11
882.08745596324354
 21
985.67716536474313
  0
LINE
  8
_2-7_ビス
  6
CONTINUOUS
 62
    7
 10
882.08745596324354
 20
985.67716536474313
 11
882.07291958730229
 21
985.53870231252768
  0
LINE
  8
_2-7_ビス
  6
CONTINUOUS
 62
    7
 10
882.07291958730229
 20
985.53870231252768
 11
882.07336584405721
 21
985.48092513031031
  0
LINE
  8
_2-7_ビス
  6
CONTINUOUS
 62
    7
 10
881.56582373794754
 20
983.50197776311063
 11
881.56582373794754
 21
983.50197776311063
  0
LINE
  8
_2-7_ビス
  6
CONTINUOUS
 62
    7
 10
881.56582373794754
 20
983.50197776311063
 11
881.55978296040473
 21
983.55750833828847
  0
LINE
  8
_2-7_ビス
  6
CONTINUOUS
 62
    7
 10
881.55978296040473
 20
983.55750833828847
 11
881.54506312645503
 21
983.61104202567299
  0
LINE
  8
_2-7_ビス
  6
CONTINUOUS
 62
    7
 10
881.54506312645503
 20
983.61104202567299
 11
881.52211149080449
 21
983.6609522312624
  0
LINE
  8
_2-7_ビス
  6
CONTINUOUS
 62
    7
 10
881.52211149080449
 20
983.6609522312624
 11
881.49162542728834
 21
983.70572245871585
  0
LINE
  8
_2-7_ビス
  6
CONTINUOUS
 62
    7
 10
881.49162542728834
 20
983.70572245871585
 11
881.45453123951972
 21
983.74399238732678
  0
LINE
  8
_2-7_ビス
  6
CONTINUOUS
 62
    7
 10
881.45453123951972
 20
983.74399238732678
 11
881.41195601562345
 21
983.77459920467993
  0
LINE
  8
_2-7_ビス
  6
CONTINUOUS
 62
    7
 10
881.41195601562345
 20
983.77459920467993
 11
881.36519338223343
 21
983.79661293811785
  0
LINE
  8
_2-7_ビス
  6
CONTINUOUS
 62
    7
 10
881.36519338223343
 20
983.79661293811785
 11
881.31566419830233
 21
983.80936471148948
  0
LINE
  8
_2-7_ビス
  6
CONTINUOUS
 62
    7
 10
881.31566419830233
 20
983.80936471148948
 11
881.26487338302081
 21
983.81246706861373
  0
LINE
  8
_2-7_ビス
  6
CONTINUOUS
 62
    7
 10
881.26487338302081
 20
983.81246706861373
 11
881.21436418960991
 21
983.80582574593905
  0
LINE
  8
_2-7_ビス
  6
CONTINUOUS
 62
    7
 10
881.21436418960991
 20
983.80582574593905
 11
881.16567131435249
 21
983.78964253669449
  0
LINE
  8
_2-7_ビス
  6
CONTINUOUS
 62
    7
 10
881.16567131435249
 20
983.78964253669449
 11
881.12027426562338
 21
983.76440915950354
  0
LINE
  8
_2-7_ビス
  6
CONTINUOUS
 62
    7
 10
881.12027426562338
 20
983.76440915950354
 11
881.07955240977628
 21
983.73089231776373
  0
LINE
  8
_2-7_ビス
  6
CONTINUOUS
 62
    7
 10
881.07955240977628
 20
983.73089231776373
 11
881.04474305979488
 21
983.69011040375085
  0
LINE
  8
_2-7_ビス
  6
CONTINUOUS
 62
    7
 10
881.04474305979488
 20
983.69011040375085
 11
881.01690388016391
 21
983.64330255528557
  0
LINE
  8
_2-7_ビス
  6
CONTINUOUS
 62
    7
 10
881.01690388016391
 20
983.64330255528557
 11
880.99688075026916
 21
983.59189100515766
  0
LINE
  8
_2-7_ビス
  6
CONTINUOUS
 62
    7
 10
880.99688075026916
 20
983.59189100515766
 11
880.98528206278036
 21
983.53743786730206
  0
LINE
  8
_2-7_ビス
  6
CONTINUOUS
 62
    7
 10
880.98528206278036
 20
983.53743786730206
 11
880.98246023794763
 21
983.48159767275808
  0
LINE
  8
_2-7_ビス
  6
CONTINUOUS
 62
    7
 10
880.98246023794763
 20
983.48159767275808
 11
880.98246023794763
 21
983.48159767275797
  0
LINE
  8
_2-7_ビス
  6
CONTINUOUS
 62
    7
 10
876.28010798794639
 20
1020.4696504595988
 11
876.28010798794639
 21
1024.5651356325111
  0
LINE
  8
_2-7_ビス
  6
CONTINUOUS
 62
    7
 10
876.28010798794639
 20
1024.5651356325111
 11
879.28010798794708
 21
1024.5651356325111
  0
LINE
  8
_2-7_ビス
  6
CONTINUOUS
 62
    7
 10
876.28010798794639
 20
1020.4696504595988
 11
875.53010798794708
 21
1019.645089539395
  0
LINE
  8
_2-7_ビス
  6
CONTINUOUS
 62
    7
 10
875.53010798794708
 20
1019.645089539395
 11
875.53010798794708
 21
1017.5464838122803
  0
LINE
  8
_2-7_ビス
  6
CONTINUOUS
 62
    7
 10
875.53010798794708
 20
1017.5464838122803
 11
876.07832723794763
 21
1013.4288904990312
  0
LINE
  8
_2-7_ビス
  6
CONTINUOUS
 62
    7
 10
876.07832723794763
 20
1013.4288904990312
 11
876.32025098794747
 21
1013.0212759905105
  0
LINE
  8
_2-7_ビス
  6
CONTINUOUS
 62
    7
 10
876.32025098794747
 20
1013.0212759905105
 11
876.28010798794639
 21
1013.0212759905105
  0
LINE
  8
_2-7_ビス
  6
CONTINUOUS
 62
    7
 10
876.28010798794639
 20
1013.0212759905105
 11
876.28010798794639
 21
1011.2072409039108
  0
LINE
  8
_2-7_ビス
  6
CONTINUOUS
 62
    7
 10
876.28010798794639
 20
1011.2072409039108
 11
876.71312054851433
 21
1010.3826795009109
  0
LINE
  8
_2-7_ビス
  6
CONTINUOUS
 62
    7
 10
876.58321673794694
 20
1010.1353110800101
 11
875.60510798794758
 21
1010.1353110800101
  0
LINE
  8
_2-7_ビス
  6
CONTINUOUS
 62
    7
 10
875.60510798794758
 20
1010.1353110800101
 11
875.60510798794758
 21
1005.9019204861311
  0
LINE
  8
_2-7_ビス
  6
CONTINUOUS
 62
    7
 10
875.60510798794758
 20
1005.9019204861311
 11
876.10657748794756
 21
1004.9405742411107
  0
LINE
  8
_2-7_ビス
  6
CONTINUOUS
 62
    7
 10
876.10657748794756
 20
1004.9405742411107
 11
876.11135798794726
 21
1004.9405742411107
  0
LINE
  8
_2-7_ビス
  6
CONTINUOUS
 62
    7
 10
876.11136216123191
 20
1004.9405745948927
 11
876.11135798794726
 21
1004.9405742411107
  0
LINE
  8
_2-7_ビス
  6
CONTINUOUS
 62
    7
 10
876.11136216123191
 20
1004.9405745948927
 11
876.11135798794726
 21
1004.9405742411107
  0
LINE
  8
_2-7_ビス
  6
CONTINUOUS
 62
    7
 10
876.14394923794725
 20
1003.868644417211
 11
875.60510798794758
 21
1003.868644417211
  0
LINE
  8
_2-7_ビス
  6
CONTINUOUS
 62
    7
 10
875.60510798794758
 20
1003.868644417211
 11
875.60510798794758
 21
998.07141128043713
  0
LINE
  8
_2-7_ビス
  6
CONTINUOUS
 62
    7
 10
875.60510798794758
 20
998.07141128043713
 11
876.11135517500861
 21
997.10725991067238
  0
LINE
  8
_2-7_ビス
  6
CONTINUOUS
 62
    7
 10
876.11135798794726
 20
997.10724091261045
 11
876.11494961830294
 21
997.58469230985088
  0
LINE
  8
_2-7_ビス
  6
CONTINUOUS
 62
    7
 10
876.11494961830294
 20
997.58469230985088
 11
876.43562962592659
 21
997.60197775441088
  0
LINE
  8
_2-7_ビス
  6
CONTINUOUS
 62
    7
 10
876.59429166609448
 20
997.84934617531053
 11
876.14394923794725
 21
998.67390757831049
  0
LINE
  8
_2-7_ビス
  6
CONTINUOUS
 62
    7
 10
876.14394923794725
 20
998.67390757831049
 11
876.14394908582403
 21
999.1513590473055
  0
LINE
  8
_2-7_ビス
  6
CONTINUOUS
 62
    7
 10
876.14394908582403
 20
999.1513590473055
 11
876.49198148794744
 21
999.16864442011092
  0
LINE
  8
_2-7_ビス
  6
CONTINUOUS
 62
    7
 10
876.65157123766767
 20
999.41601284101057
 11
876.14394923794725
 21
1000.2405742440105
  0
LINE
  8
_2-7_ビス
  6
CONTINUOUS
 62
    7
 10
876.14394923794725
 20
1000.2405742440105
 11
876.14394923794725
 21
1000.7180258051192
  0
LINE
  8
_2-7_ビス
  6
CONTINUOUS
 62
    7
 10
876.14394923794725
 20
1000.7180258051192
 11
876.49198148794744
 21
1000.735311085811
  0
LINE
  8
_2-7_ビス
  6
CONTINUOUS
 62
    7
 10
876.65157123766767
 20
1000.9826795067106
 11
876.14394923794725
 21
1001.8072409097106
  0
LINE
  8
_2-7_ビス
  6
CONTINUOUS
 62
    7
 10
876.14394923794725
 20
1001.8072409097106
 11
876.14394923794725
 21
1002.2846924708192
  0
LINE
  8
_2-7_ビス
  6
CONTINUOUS
 62
    7
 10
876.14394923794725
 20
1002.2846924708192
 11
876.49198148794744
 21
1002.301977751511
  0
LINE
  8
_2-7_ビス
  6
CONTINUOUS
 62
    7
 10
876.65157123766767
 20
1002.5493461724107
 11
876.14394908582403
 21
1003.3739075754106
  0
LINE
  8
_2-7_ビス
  6
CONTINUOUS
 62
    7
 10
876.14394908582403
 20
1003.3739075754106
 11
876.14394923794725
 21
1003.868644417211
  0
LINE
  8
_2-7_ビス
  6
CONTINUOUS
 62
    7
 10
876.11136216123191
 20
1004.9405745948927
 11
876.1150473624773
 21
1005.4180260638866
  0
LINE
  8
_2-7_ビス
  6
CONTINUOUS
 62
    7
 10
876.1150473624773
 20
1005.4180260638866
 11
876.43249223794646
 21
1005.4353110829111
  0
LINE
  8
_2-7_ビス
  6
CONTINUOUS
 62
    7
 10
876.59458437826834
 20
1005.6826795038107
 11
876.14394908582403
 21
1006.5072409068107
  0
LINE
  8
_2-7_ビス
  6
CONTINUOUS
 62
    7
 10
876.14394908582403
 20
1006.5072409068107
 11
876.14394908582403
 21
1006.9846923758046
  0
LINE
  8
_2-7_ビス
  6
CONTINUOUS
 62
    7
 10
876.14394908582403
 20
1006.9846923758046
 11
876.49198148794744
 21
1007.0019777486111
  0
LINE
  8
_2-7_ビス
  6
CONTINUOUS
 62
    7
 10
876.65157123766767
 20
1007.2493461695108
 11
876.14394923794725
 21
1008.0739075725107
  0
LINE
  8
_2-7_ビス
  6
CONTINUOUS
 62
    7
 10
876.14394923794725
 20
1008.0739075725107
 11
876.14394908582403
 21
1008.5513590415046
  0
LINE
  8
_2-7_ビス
  6
CONTINUOUS
 62
    7
 10
876.14394908582403
 20
1008.5513590415046
 11
876.49286758043536
 21
1008.5688759954705
  0
LINE
  8
_2-7_ビス
  6
CONTINUOUS
 62
    7
 10
876.65157123766767
 20
1008.8160128352108
 11
876.14394908582403
 21
1009.6405742382108
  0
LINE
  8
_2-7_ビス
  6
CONTINUOUS
 62
    7
 10
876.14394908582403
 20
1009.6405742382108
 11
876.14394924345424
 21
1010.1353110800101
  0
LINE
  8
_2-7_ビス
  6
CONTINUOUS
 62
    7
 10
876.14394923794725
 20
996.03531108871084
 11
875.60510798794758
 21
996.03531108871084
  0
LINE
  8
_2-7_ビス
  6
CONTINUOUS
 62
    7
 10
875.60510798794758
 20
996.03531108871084
 11
875.60510798794758
 21
992.78706935387322
  0
LINE
  8
_2-7_ビス
  6
CONTINUOUS
 62
    7
 10
875.60510798794758
 20
992.78706935387322
 11
876.11089373794675
 21
989.27390758411025
  0
LINE
  8
_2-7_ビス
  6
CONTINUOUS
 62
    7
 10
876.11089373794675
 20
989.27390758411025
 11
876.11162825561087
 21
989.75135866825144
  0
LINE
  8
_2-7_ビス
  6
CONTINUOUS
 62
    7
 10
876.11162825561087
 20
989.75135866825144
 11
876.42031673794781
 21
989.76864442591068
  0
LINE
  8
_2-7_ビス
  6
CONTINUOUS
 62
    7
 10
876.11089373794675
 20
989.27390758411025
 11
876.54437054851405
 21
988.44934618111029
  0
LINE
  8
_2-7_ビス
  6
CONTINUOUS
 62
    7
 10
876.56487330273512
 20
990.01601284681033
 11
876.11427096927491
 21
990.84057424981029
  0
LINE
  8
_2-7_ビス
  6
CONTINUOUS
 62
    7
 10
876.11427096927491
 20
990.84057424981029
 11
876.1163558735368
 21
991.31802533395035
  0
LINE
  8
_2-7_ビス
  6
CONTINUOUS
 62
    7
 10
876.1163558735368
 20
991.31802533395035
 11
876.43868273794715
 21
991.33531109161072
  0
LINE
  8
_2-7_ビス
  6
CONTINUOUS
 62
    7
 10
876.5871882337658
 20
991.58267951251037
 11
876.12332037444139
 21
992.40724053065651
  0
LINE
  8
_2-7_ビス
  6
CONTINUOUS
 62
    7
 10
876.12332037444139
 20
992.40724053065651
 11
876.1273832151378
 21
992.88469199965152
  0
LINE
  8
_2-7_ビス
  6
CONTINUOUS
 62
    7
 10
876.1273832151378
 20
992.88469199965152
 11
876.46203657040678
 21
992.90197775731076
  0
LINE
  8
_2-7_ビス
  6
CONTINUOUS
 62
    7
 10
876.61929118657417
 20
993.14934617821041
 11
876.13908856236867
 21
993.97390719635655
  0
LINE
  8
_2-7_ビス
  6
CONTINUOUS
 62
    7
 10
876.13908856236867
 20
993.97390719635655
 11
876.14394923794725
 21
994.45135914231901
  0
LINE
  8
_2-7_ビス
  6
CONTINUOUS
 62
    7
 10
876.14394923794725
 20
994.45135914231901
 11
876.49198148794744
 21
994.4686444230108
  0
LINE
  8
_2-7_ビス
  6
CONTINUOUS
 62
    7
 10
876.65157123766767
 20
994.71601284391045
 11
876.14394908582403
 21
995.54057424691041
  0
LINE
  8
_2-7_ビス
  6
CONTINUOUS
 62
    7
 10
876.14394908582403
 20
995.54057424691041
 11
876.14394923794725
 21
996.03531108871084
  0
LINE
  8
_2-7_ビス
  6
CONTINUOUS
 62
    7
 10
876.41446673794781
 20
988.20197776021064
 11
876.28010798794639
 21
988.20197776021064
  0
LINE
  8
_2-7_ビス
  6
CONTINUOUS
 62
    7
 10
876.28010798794639
 20
988.20197776021064
 11
876.28010798794639
 21
987.41864442736005
  0
LINE
  8
_2-7_ビス
  6
CONTINUOUS
 62
    7
 10
876.28010798794639
 20
987.41864442736005
 11
876.43010798794739
 21
987.41864442736005
  0
LINE
  8
_2-7_ビス
  6
CONTINUOUS
 62
    7
 10
876.43010798794739
 20
987.41864442736005
 11
876.43010798794739
 21
985.81074969151064
  0
LINE
  8
_2-7_ビス
  6
CONTINUOUS
 62
    7
 10
876.43010798794739
 20
985.81074969151064
 11
876.4365747987481
 21
985.81074969151064
  0
LINE
  8
_2-7_ビス
  6
CONTINUOUS
 62
    7
 10
876.4868499879467
 20
985.48092513031111
 11
876.48685013448562
 21
979.53048353749114
  0
LINE
  8
_2-7_ビス
  6
CONTINUOUS
 62
    7
 10
876.48685013448562
 20
979.53048353749114
 11
876.92728748794684
 21
978.87906271333168
  0
LINE
  8
_2-7_ビス
  6
CONTINUOUS
 62
    7
 10
876.92728748794684
 20
978.87906271333168
 11
877.93010798794717
 21
977.56513566151102
  0
LINE
  8
_2-7_ビス
  6
CONTINUOUS
 62
    7
 10
877.93010798794717
 20
977.56513566151102
 11
878.07948646744171
 21
977.56513566151102
  0
LINE
  8
_2-7_ビス
  6
CONTINUOUS
 62
    7
 10
878.07948646744171
 20
977.56513566151102
 11
876.99439235812724
 21
979.53048353749114
  0
LINE
  8
_2-7_ビス
  6
CONTINUOUS
 62
    7
 10
876.99439235812724
 20
979.53048353749114
 11
876.99439223794661
 21
983.50197776311052
  0
LINE
  8
_2-7_ビス
  6
CONTINUOUS
 62
    7
 10
877.57775573794652
 20
983.50197776311052
 11
877.57775546451489
 21
979.53048369018961
  0
LINE
  8
_2-7_ビス
  6
CONTINUOUS
 62
    7
 10
877.57775546451489
 20
979.53048369018961
 11
878.66284982974867
 21
977.56513566151102
  0
LINE
  8
_2-7_ビス
  6
CONTINUOUS
 62
    7
 10
878.66284982974867
 20
977.56513566151102
 11
879.28010798794708
 21
977.56513566151102
  0
LINE
  8
_2-7_ビス
  6
CONTINUOUS
 62
    7
 10
876.58321673794694
 20
1010.1353110800101
 11
876.58321673794694
 21
1010.1353110800101
  0
LINE
  8
_2-7_ビス
  6
CONTINUOUS
 62
    7
 10
876.58321673794694
 20
1010.1353110800101
 11
876.61017518884751
 21
1010.1399648647252
  0
LINE
  8
_2-7_ビス
  6
CONTINUOUS
 62
    7
 10
876.61017518884751
 20
1010.1399648647252
 11
876.6359890338606
 21
1010.1496946248552
  0
LINE
  8
_2-7_ビス
  6
CONTINUOUS
 62
    7
 10
876.6359890338606
 20
1010.1496946248552
 11
876.65987393236799
 21
1010.1642047265618
  0
LINE
  8
_2-7_ビス
  6
CONTINUOUS
 62
    7
 10
876.65987393236799
 20
1010.1642047265618
 11
876.68110415381477
 21
1010.183054287747
  0
LINE
  8
_2-7_ビス
  6
CONTINUOUS
 62
    7
 10
876.68110415381477
 20
1010.183054287747
 11
876.69903462866534
 21
1010.2056705740329
  0
LINE
  8
_2-7_ビス
  6
CONTINUOUS
 62
    7
 10
876.69903462866534
 20
1010.2056705740329
 11
876.71312054851467
 21
1010.2313664010047
  0
LINE
  8
_2-7_ビス
  6
CONTINUOUS
 62
    7
 10
876.71312054851467
 20
1010.2313664010047
 11
876.72293391981589
 21
1010.2593610139628
  0
LINE
  8
_2-7_ビス
  6
CONTINUOUS
 62
    7
 10
876.72293391981589
 20
1010.2593610139628
 11
876.72817656824782
 21
1010.2888038107584
  0
LINE
  8
_2-7_ビス
  6
CONTINUOUS
 62
    7
 10
876.72817656824782
 20
1010.2888038107584
 11
876.72868919859081
 21
1010.3188001869096
  0
LINE
  8
_2-7_ビス
  6
CONTINUOUS
 62
    7
 10
876.72868919859081
 20
1010.3188001869096
 11
876.72445623483122
 21
1010.348438717706
  0
LINE
  8
_2-7_ビス
  6
CONTINUOUS
 62
    7
 10
876.72445623483122
 20
1010.348438717706
 11
876.71560629343105
 21
1010.376818851387
  0
LINE
  8
_2-7_ビス
  6
CONTINUOUS
 62
    7
 10
876.71560629343105
 20
1010.376818851387
 11
876.70240827538123
 21
1010.403078271952
  0
LINE
  8
_2-7_ビス
  6
CONTINUOUS
 62
    7
 10
876.70240827538123
 20
1010.403078271952
 11
876.70240788286389
 21
1010.4030789135762
  0
LINE
  8
_2-7_ビス
  6
CONTINUOUS
 62
    7
 10
876.49198148794767
 20
1008.5686444143105
 11
876.49198148794767
 21
1008.5686444143105
  0
LINE
  8
_2-7_ビス
  6
CONTINUOUS
 62
    7
 10
876.49198148794767
 20
1008.5686444143105
 11
876.52650471628272
 21
1008.5811579645696
  0
LINE
  8
_2-7_ビス
  6
CONTINUOUS
 62
    7
 10
876.52650471628272
 20
1008.5811579645696
 11
876.55852699463583
 21
1008.6000722853477
  0
LINE
  8
_2-7_ビス
  6
CONTINUOUS
 62
    7
 10
876.55852699463583
 20
1008.6000722853477
 11
876.58707534228336
 21
1008.6248126745792
  0
LINE
  8
_2-7_ビス
  6
CONTINUOUS
 62
    7
 10
876.58707534228336
 20
1008.6248126745792
 11
876.61128233212821
 21
1008.6546274080563
  0
LINE
  8
_2-7_ビス
  6
CONTINUOUS
 62
    7
 10
876.61128233212821
 20
1008.6546274080563
 11
876.63041244703322
 21
1008.6886105801896
  0
LINE
  8
_2-7_ビス
  6
CONTINUOUS
 62
    7
 10
876.63041244703322
 20
1008.6886105801896
 11
876.64388442813743
 21
1008.7257296294899
  0
LINE
  8
_2-7_ビス
  6
CONTINUOUS
 62
    7
 10
876.64388442813743
 20
1008.7257296294899
 11
876.65128893611211
 21
1008.7648567124274
  0
LINE
  8
_2-7_ビス
  6
CONTINUOUS
 62
    7
 10
876.65128893611211
 20
1008.7648567124274
 11
876.65240098872914
 21
1008.8048029723865
  0
LINE
  8
_2-7_ビス
  6
CONTINUOUS
 62
    7
 10
876.65240098872914
 20
1008.8048029723865
 11
876.65157123766835
 21
1008.8160128352105
  0
LINE
  8
_2-7_ビス
  6
CONTINUOUS
 62
    7
 10
876.49198148794767
 20
1007.0019777486104
 11
876.49198148794767
 21
1007.0019777486104
  0
LINE
  8
_2-7_ビス
  6
CONTINUOUS
 62
    7
 10
876.49198148794767
 20
1007.0019777486104
 11
876.52650471628272
 21
1007.0144912988695
  0
LINE
  8
_2-7_ビス
  6
CONTINUOUS
 62
    7
 10
876.52650471628272
 20
1007.0144912988695
 11
876.55852699463583
 21
1007.0334056196476
  0
LINE
  8
_2-7_ビス
  6
CONTINUOUS
 62
    7
 10
876.55852699463583
 20
1007.0334056196476
 11
876.58707534228336
 21
1007.0581460088791
  0
LINE
  8
_2-7_ビス
  6
CONTINUOUS
 62
    7
 10
876.58707534228336
 20
1007.0581460088791
 11
876.61128233212821
 21
1007.0879607423562
  0
LINE
  8
_2-7_ビス
  6
CONTINUOUS
 62
    7
 10
876.61128233212821
 20
1007.0879607423562
 11
876.63041244703322
 21
1007.1219439144895
  0
LINE
  8
_2-7_ビス
  6
CONTINUOUS
 62
    7
 10
876.63041244703322
 20
1007.1219439144895
 11
876.64388442813743
 21
1007.1590629637899
  0
LINE
  8
_2-7_ビス
  6
CONTINUOUS
 62
    7
 10
876.64388442813743
 20
1007.1590629637899
 11
876.65128893611211
 21
1007.1981900467274
  0
LINE
  8
_2-7_ビス
  6
CONTINUOUS
 62
    7
 10
876.65128893611211
 20
1007.1981900467274
 11
876.65240098872914
 21
1007.2381363066864
  0
LINE
  8
_2-7_ビス
  6
CONTINUOUS
 62
    7
 10
876.65240098872914
 20
1007.2381363066864
 11
876.65157123766835
 21
1007.2493461695104
  0
LINE
  8
_2-7_ビス
  6
CONTINUOUS
 62
    7
 10
876.43499462854606
 20
1005.4353110829104
 11
876.43499462854606
 21
1005.4353110829104
  0
LINE
  8
_2-7_ビス
  6
CONTINUOUS
 62
    7
 10
876.43499462854606
 20
1005.4353110829104
 11
876.46951785688111
 21
1005.4478246331695
  0
LINE
  8
_2-7_ビス
  6
CONTINUOUS
 62
    7
 10
876.46951785688111
 20
1005.4478246331695
 11
876.50154013523422
 21
1005.4667389539476
  0
LINE
  8
_2-7_ビス
  6
CONTINUOUS
 62
    7
 10
876.50154013523422
 20
1005.4667389539476
 11
876.53008848288175
 21
1005.4914793431791
  0
LINE
  8
_2-7_ビス
  6
CONTINUOUS
 62
    7
 10
876.53008848288175
 20
1005.4914793431791
 11
876.55429547272661
 21
1005.5212940766562
  0
LINE
  8
_2-7_ビス
  6
CONTINUOUS
 62
    7
 10
876.55429547272661
 20
1005.5212940766562
 11
876.57342558763162
 21
1005.5552772487895
  0
LINE
  8
_2-7_ビス
  6
CONTINUOUS
 62
    7
 10
876.57342558763162
 20
1005.5552772487895
 11
876.58689756873582
 21
1005.5923962980899
  0
LINE
  8
_2-7_ビス
  6
CONTINUOUS
 62
    7
 10
876.58689756873582
 20
1005.5923962980899
 11
876.59430207671051
 21
1005.6315233810274
  0
LINE
  8
_2-7_ビス
  6
CONTINUOUS
 62
    7
 10
876.59430207671051
 20
1005.6315233810274
 11
876.59541412932754
 21
1005.6714696409864
  0
LINE
  8
_2-7_ビス
  6
CONTINUOUS
 62
    7
 10
876.59541412932754
 20
1005.6714696409864
 11
876.59458437826675
 21
1005.6826795038104
  0
LINE
  8
_2-7_ビス
  6
CONTINUOUS
 62
    7
 10
876.49198148794767
 20
1002.3019777515103
 11
876.49198148794767
 21
1002.3019777515103
  0
LINE
  8
_2-7_ビス
  6
CONTINUOUS
 62
    7
 10
876.49198148794767
 20
1002.3019777515103
 11
876.52650471628272
 21
1002.3144913017694
  0
LINE
  8
_2-7_ビス
  6
CONTINUOUS
 62
    7
 10
876.52650471628272
 20
1002.3144913017694
 11
876.55852699463583
 21
1002.3334056225475
  0
LINE
  8
_2-7_ビス
  6
CONTINUOUS
 62
    7
 10
876.55852699463583
 20
1002.3334056225475
 11
876.58707534228336
 21
1002.358146011779
  0
LINE
  8
_2-7_ビス
  6
CONTINUOUS
 62
    7
 10
876.58707534228336
 20
1002.358146011779
 11
876.61128233212821
 21
1002.3879607452561
  0
LINE
  8
_2-7_ビス
  6
CONTINUOUS
 62
    7
 10
876.61128233212821
 20
1002.3879607452561
 11
876.63041244703322
 21
1002.4219439173894
  0
LINE
  8
_2-7_ビス
  6
CONTINUOUS
 62
    7
 10
876.63041244703322
 20
1002.4219439173894
 11
876.64388442813743
 21
1002.4590629666898
  0
LINE
  8
_2-7_ビス
  6
CONTINUOUS
 62
    7
 10
876.64388442813743
 20
1002.4590629666898
 11
876.65128893611211
 21
1002.4981900496273
  0
LINE
  8
_2-7_ビス
  6
CONTINUOUS
 62
    7
 10
876.65128893611211
 20
1002.4981900496273
 11
876.65240098872914
 21
1002.5381363095863
  0
LINE
  8
_2-7_ビス
  6
CONTINUOUS
 62
    7
 10
876.65240098872914
 20
1002.5381363095863
 11
876.65157123766835
 21
1002.5493461724103
  0
LINE
  8
_2-7_ビス
  6
CONTINUOUS
 62
    7
 10
876.49198148794767
 20
1000.7353110858103
 11
876.49198148794767
 21
1000.7353110858103
  0
LINE
  8
_2-7_ビス
  6
CONTINUOUS
 62
    7
 10
876.49198148794767
 20
1000.7353110858103
 11
876.52650471628272
 21
1000.7478246360694
  0
LINE
  8
_2-7_ビス
  6
CONTINUOUS
 62
    7
 10
876.52650471628272
 20
1000.7478246360694
 11
876.55852699463583
 21
1000.7667389568475
  0
LINE
  8
_2-7_ビス
  6
CONTINUOUS
 62
    7
 10
876.55852699463583
 20
1000.7667389568475
 11
876.58707534228336
 21
1000.791479346079
  0
LINE
  8
_2-7_ビス
  6
CONTINUOUS
 62
    7
 10
876.58707534228336
 20
1000.791479346079
 11
876.61128233212821
 21
1000.8212940795561
  0
LINE
  8
_2-7_ビス
  6
CONTINUOUS
 62
    7
 10
876.61128233212821
 20
1000.8212940795561
 11
876.63041244703322
 21
1000.8552772516894
  0
LINE
  8
_2-7_ビス
  6
CONTINUOUS
 62
    7
 10
876.63041244703322
 20
1000.8552772516894
 11
876.64388442813743
 21
1000.8923963009897
  0
LINE
  8
_2-7_ビス
  6
CONTINUOUS
 62
    7
 10
876.64388442813743
 20
1000.8923963009897
 11
876.65128893611211
 21
1000.9315233839272
  0
LINE
  8
_2-7_ビス
  6
CONTINUOUS
 62
    7
 10
876.65128893611211
 20
1000.9315233839272
 11
876.65240098872914
 21
1000.9714696438863
  0
LINE
  8
_2-7_ビス
  6
CONTINUOUS
 62
    7
 10
876.65240098872914
 20
1000.9714696438863
 11
876.65157123766835
 21
1000.9826795067103
  0
LINE
  8
_2-7_ビス
  6
CONTINUOUS
 62
    7
 10
876.49198148794767
 20
999.16864442011024
 11
876.49198148794767
 21
999.16864442011024
  0
LINE
  8
_2-7_ビス
  6
CONTINUOUS
 62
    7
 10
876.49198148794767
 20
999.16864442011024
 11
876.52650471628272
 21
999.18115797036933
  0
LINE
  8
_2-7_ビス
  6
CONTINUOUS
 62
    7
 10
876.52650471628272
 20
999.18115797036933
 11
876.55852699463583
 21
999.20007229114742
  0
LINE
  8
_2-7_ビス
  6
CONTINUOUS
 62
    7
 10
876.55852699463583
 20
999.20007229114742
 11
876.58707534228336
 21
999.22481268037893
  0
LINE
  8
_2-7_ビス
  6
CONTINUOUS
 62
    7
 10
876.58707534228336
 20
999.22481268037893
 11
876.61128233212821
 21
999.25462741385604
  0
LINE
  8
_2-7_ビス
  6
CONTINUOUS
 62
    7
 10
876.61128233212821
 20
999.25462741385604
 11
876.63041244703322
 21
999.28861058598932
  0
LINE
  8
_2-7_ビス
  6
CONTINUOUS
 62
    7
 10
876.63041244703322
 20
999.28861058598932
 11
876.64388442813743
 21
999.32572963528969
  0
LINE
  8
_2-7_ビス
  6
CONTINUOUS
 62
    7
 10
876.64388442813743
 20
999.32572963528969
 11
876.65128893611211
 21
999.3648567182272
  0
LINE
  8
_2-7_ビス
  6
CONTINUOUS
 62
    7
 10
876.65128893611211
 20
999.3648567182272
 11
876.65240098872914
 21
999.40480297818624
  0
LINE
  8
_2-7_ビス
  6
CONTINUOUS
 62
    7
 10
876.65240098872914
 20
999.40480297818624
 11
876.65157123766835
 21
999.41601284101023
  0
LINE
  8
_2-7_ビス
  6
CONTINUOUS
 62
    7
 10
876.43470191637334
 20
997.6019777544102
 11
876.43470191637334
 21
997.6019777544102
  0
LINE
  8
_2-7_ビス
  6
CONTINUOUS
 62
    7
 10
876.43470191637334
 20
997.6019777544102
 11
876.46922514470839
 21
997.61449130466929
  0
LINE
  8
_2-7_ビス
  6
CONTINUOUS
 62
    7
 10
876.46922514470839
 20
997.61449130466929
 11
876.5012474230615
 21
997.63340562544738
  0
LINE
  8
_2-7_ビス
  6
CONTINUOUS
 62
    7
 10
876.5012474230615
 20
997.63340562544738
 11
876.52979577070903
 21
997.65814601467889
  0
LINE
  8
_2-7_ビス
  6
CONTINUOUS
 62
    7
 10
876.52979577070903
 20
997.65814601467889
 11
876.55400276055389
 21
997.687960748156
  0
LINE
  8
_2-7_ビス
  6
CONTINUOUS
 62
    7
 10
876.55400276055389
 20
997.687960748156
 11
876.5731328754589
 21
997.72194392028928
  0
LINE
  8
_2-7_ビス
  6
CONTINUOUS
 62
    7
 10
876.5731328754589
 20
997.72194392028928
 11
876.5866048565631
 21
997.75906296958965
  0
LINE
  8
_2-7_ビス
  6
CONTINUOUS
 62
    7
 10
876.5866048565631
 20
997.75906296958965
 11
876.59400936453778
 21
997.79819005252716
  0
LINE
  8
_2-7_ビス
  6
CONTINUOUS
 62
    7
 10
876.59400936453778
 20
997.79819005252716
 11
876.59512141715481
 21
997.8381363124862
  0
LINE
  8
_2-7_ビス
  6
CONTINUOUS
 62
    7
 10
876.59512141715481
 20
997.8381363124862
 11
876.59429166609402
 21
997.84934617531019
  0
LINE
  8
_2-7_ビス
  6
CONTINUOUS
 62
    7
 10
876.49198148794767
 20
994.46864442301012
 11
876.49198148794767
 21
994.46864442301012
  0
LINE
  8
_2-7_ビス
  6
CONTINUOUS
 62
    7
 10
876.49198148794767
 20
994.46864442301012
 11
876.52650471628272
 21
994.48115797326921
  0
LINE
  8
_2-7_ビス
  6
CONTINUOUS
 62
    7
 10
876.52650471628272
 20
994.48115797326921
 11
876.55852699463583
 21
994.5000722940473
  0
LINE
  8
_2-7_ビス
  6
CONTINUOUS
 62
    7
 10
876.55852699463583
 20
994.5000722940473
 11
876.58707534228336
 21
994.52481268327881
  0
LINE
  8
_2-7_ビス
  6
CONTINUOUS
 62
    7
 10
876.58707534228336
 20
994.52481268327881
 11
876.61128233212821
 21
994.55462741675592
  0
LINE
  8
_2-7_ビス
  6
CONTINUOUS
 62
    7
 10
876.61128233212821
 20
994.55462741675592
 11
876.63041244703322
 21
994.5886105888892
  0
LINE
  8
_2-7_ビス
  6
CONTINUOUS
 62
    7
 10
876.63041244703322
 20
994.5886105888892
 11
876.64388442813743
 21
994.62572963818957
  0
LINE
  8
_2-7_ビス
  6
CONTINUOUS
 62
    7
 10
876.64388442813743
 20
994.62572963818957
 11
876.65128893611211
 21
994.66485672112708
  0
LINE
  8
_2-7_ビス
  6
CONTINUOUS
 62
    7
 10
876.65128893611211
 20
994.66485672112708
 11
876.65240098872914
 21
994.70480298108612
  0
LINE
  8
_2-7_ビス
  6
CONTINUOUS
 62
    7
 10
876.65240098872914
 20
994.70480298108612
 11
876.65157123766835
 21
994.71601284391011
  0
LINE
  8
_2-7_ビス
  6
CONTINUOUS
 62
    7
 10
876.45970143685304
 20
992.90197775731008
 11
876.45970143685304
 21
992.90197775731008
  0
LINE
  8
_2-7_ビス
  6
CONTINUOUS
 62
    7
 10
876.45970143685304
 20
992.90197775731008
 11
876.49422466518809
 21
992.91449130756916
  0
LINE
  8
_2-7_ビス
  6
CONTINUOUS
 62
    7
 10
876.49422466518809
 20
992.91449130756916
 11
876.5262469435412
 21
992.93340562834726
  0
LINE
  8
_2-7_ビス
  6
CONTINUOUS
 62
    7
 10
876.5262469435412
 20
992.93340562834726
 11
876.55479529118873
 21
992.95814601757877
  0
LINE
  8
_2-7_ビス
  6
CONTINUOUS
 62
    7
 10
876.55479529118873
 20
992.95814601757877
 11
876.57900228103358
 21
992.98796075105588
  0
LINE
  8
_2-7_ビス
  6
CONTINUOUS
 62
    7
 10
876.57900228103358
 20
992.98796075105588
 11
876.59813239593859
 21
993.02194392318916
  0
LINE
  8
_2-7_ビス
  6
CONTINUOUS
 62
    7
 10
876.59813239593859
 20
993.02194392318916
 11
876.6116043770428
 21
993.05906297248953
  0
LINE
  8
_2-7_ビス
  6
CONTINUOUS
 62
    7
 10
876.6116043770428
 20
993.05906297248953
 11
876.61900888501748
 21
993.09819005542704
  0
LINE
  8
_2-7_ビス
  6
CONTINUOUS
 62
    7
 10
876.61900888501748
 20
993.09819005542704
 11
876.62012093763451
 21
993.13813631538608
  0
LINE
  8
_2-7_ビス
  6
CONTINUOUS
 62
    7
 10
876.62012093763451
 20
993.13813631538608
 11
876.61929118657372
 21
993.14934617821007
  0
LINE
  8
_2-7_ビス
  6
CONTINUOUS
 62
    7
 10
876.42759848404467
 20
991.33531109161004
 11
876.42759848404467
 21
991.33531109161004
  0
LINE
  8
_2-7_ビス
  6
CONTINUOUS
 62
    7
 10
876.42759848404467
 20
991.33531109161004
 11
876.46212171237971
 21
991.34782464186912
  0
LINE
  8
_2-7_ビス
  6
CONTINUOUS
 62
    7
 10
876.46212171237971
 20
991.34782464186912
 11
876.49414399073282
 21
991.36673896264722
  0
LINE
  8
_2-7_ビス
  6
CONTINUOUS
 62
    7
 10
876.49414399073282
 20
991.36673896264722
 11
876.52269233838035
 21
991.39147935187873
  0
LINE
  8
_2-7_ビス
  6
CONTINUOUS
 62
    7
 10
876.52269233838035
 20
991.39147935187873
 11
876.54689932822521
 21
991.42129408535584
  0
LINE
  8
_2-7_ビス
  6
CONTINUOUS
 62
    7
 10
876.54689932822521
 20
991.42129408535584
 11
876.56602944313022
 21
991.45527725748912
  0
LINE
  8
_2-7_ビス
  6
CONTINUOUS
 62
    7
 10
876.56602944313022
 20
991.45527725748912
 11
876.57950142423442
 21
991.49239630678949
  0
LINE
  8
_2-7_ビス
  6
CONTINUOUS
 62
    7
 10
876.57950142423442
 20
991.49239630678949
 11
876.58690593220911
 21
991.531523389727
  0
LINE
  8
_2-7_ビス
  6
CONTINUOUS
 62
    7
 10
876.58690593220911
 20
991.531523389727
 11
876.58801798482614
 21
991.57146964968604
  0
LINE
  8
_2-7_ビス
  6
CONTINUOUS
 62
    7
 10
876.58801798482614
 20
991.57146964968604
 11
876.58718823376535
 21
991.58267951251003
  0
LINE
  8
_2-7_ビス
  6
CONTINUOUS
 62
    7
 10
876.40528355301512
 20
989.76864442591113
 11
876.40528355301512
 21
989.76864442591113
  0
LINE
  8
_2-7_ビス
  6
CONTINUOUS
 62
    7
 10
876.40528355301512
 20
989.76864442591113
 11
876.43980678135017
 21
989.78115797617022
  0
LINE
  8
_2-7_ビス
  6
CONTINUOUS
 62
    7
 10
876.43980678135017
 20
989.78115797617022
 11
876.47182905970328
 21
989.80007229694831
  0
LINE
  8
_2-7_ビス
  6
CONTINUOUS
 62
    7
 10
876.47182905970328
 20
989.80007229694831
 11
876.50037740735081
 21
989.82481268617983
  0
LINE
  8
_2-7_ビス
  6
CONTINUOUS
 62
    7
 10
876.50037740735081
 20
989.82481268617983
 11
876.52458439719567
 21
989.85462741965694
  0
LINE
  8
_2-7_ビス
  6
CONTINUOUS
 62
    7
 10
876.52458439719567
 20
989.85462741965694
 11
876.54371451210068
 21
989.88861059179021
  0
LINE
  8
_2-7_ビス
  6
CONTINUOUS
 62
    7
 10
876.54371451210068
 20
989.88861059179021
 11
876.55718649320488
 21
989.92572964109058
  0
LINE
  8
_2-7_ビス
  6
CONTINUOUS
 62
    7
 10
876.55718649320488
 20
989.92572964109058
 11
876.56459100117956
 21
989.9648567240281
  0
LINE
  8
_2-7_ビス
  6
CONTINUOUS
 62
    7
 10
876.56459100117956
 20
989.9648567240281
 11
876.5657030537966
 21
990.00480298398713
  0
LINE
  8
_2-7_ビス
  6
CONTINUOUS
 62
    7
 10
876.5657030537966
 20
990.00480298398713
 11
876.5648733027358
 21
990.01601284681112
  0
LINE
  8
_2-7_ビス
  6
CONTINUOUS
 62
    7
 10
876.41446673794712
 20
988.20197776021098
 11
876.41446673794712
 21
988.20197776021098
  0
LINE
  8
_2-7_ビス
  6
CONTINUOUS
 62
    7
 10
876.41446673794712
 20
988.20197776021098
 11
876.44161267388608
 21
988.20707357905974
  0
LINE
  8
_2-7_ビス
  6
CONTINUOUS
 62
    7
 10
876.44161267388608
 20
988.20707357905974
 11
876.46754133811783
 21
988.21727445087129
  0
LINE
  8
_2-7_ビス
  6
CONTINUOUS
 62
    7
 10
876.46754133811783
 20
988.21727445087129
 11
876.49146490130033
 21
988.23227042731764
  0
LINE
  8
_2-7_ビス
  6
CONTINUOUS
 62
    7
 10
876.49146490130033
 20
988.23227042731764
 11
876.51265645807223
 21
988.25160586324273
  0
LINE
  8
_2-7_ビス
  6
CONTINUOUS
 62
    7
 10
876.51265645807223
 20
988.25160586324273
 11
876.53047211370426
 21
988.27469326121025
  0
LINE
  8
_2-7_ビス
  6
CONTINUOUS
 62
    7
 10
876.53047211370426
 20
988.27469326121025
 11
876.5443705485153
 21
988.30083112231569
  0
LINE
  8
_2-7_ビス
  6
CONTINUOUS
 62
    7
 10
876.5443705485153
 20
988.30083112231569
 11
876.55392946559664
 21
988.32922526087577
  0
LINE
  8
_2-7_ビス
  6
CONTINUOUS
 62
    7
 10
876.55392946559664
 20
988.32922526087577
 11
876.55885842208977
 21
988.35901293535846
  0
LINE
  8
_2-7_ビス
  6
CONTINUOUS
 62
    7
 10
876.55885842208977
 20
988.35901293535846
 11
876.55900765414572
 21
988.38928906234798
  0
LINE
  8
_2-7_ビス
  6
CONTINUOUS
 62
    7
 10
876.55900765414572
 20
988.38928906234798
 11
876.55437262742407
 21
988.41913371704607
  0
LINE
  8
_2-7_ビス
  6
CONTINUOUS
 62
    7
 10
876.55437262742407
 20
988.41913371704607
 11
876.54509417486634
 21
988.44764008472191
  0
LINE
  8
_2-7_ビス
  6
CONTINUOUS
 62
    7
 10
876.54509417486634
 20
988.44764008472191
 11
876.53145421755835
 21
988.4739420138186
  0
LINE
  8
_2-7_ビス
  6
CONTINUOUS
 62
    7
 10
876.53145421755835
 20
988.4739420138186
 11
876.53137072380127
 21
988.47407450208038
  0
LINE
  8
_2-7_ビス
  6
CONTINUOUS
 62
    7
 10
876.11135798794749
 20
996.03531108871061
 11
876.11135798794749
 21
996.03531108871061
  0
LINE
  8
_2-7_ビス
  6
CONTINUOUS
 62
    7
 10
876.11135798794749
 20
996.03531108871061
 11
876.19568381874114
 21
996.04757104535838
  0
LINE
  8
_2-7_ビス
  6
CONTINUOUS
 62
    7
 10
876.19568381874114
 20
996.04757104535838
 11
876.27679214019952
 21
996.07574351206551
  0
LINE
  8
_2-7_ビス
  6
CONTINUOUS
 62
    7
 10
876.27679214019952
 20
996.07574351206551
 11
876.3522185170176
 21
996.11897248268701
  0
LINE
  8
_2-7_ビス
  6
CONTINUOUS
 62
    7
 10
876.3522185170176
 20
996.11897248268701
 11
876.41967115690352
 21
996.17594446682551
  0
LINE
  8
_2-7_ビス
  6
CONTINUOUS
 62
    7
 10
876.41967115690352
 20
996.17594446682551
 11
876.47710054552692
 21
996.24492839957225
  0
LINE
  8
_2-7_ビス
  6
CONTINUOUS
 62
    7
 10
876.47710054552692
 20
996.24492839957225
 11
876.52276171997516
 21
996.32382823903811
  0
LINE
  8
_2-7_ビス
  6
CONTINUOUS
 62
    7
 10
876.52276171997516
 20
996.32382823903811
 11
876.55526728856842
 21
996.41024665352631
  0
LINE
  8
_2-7_ビス
  6
CONTINUOUS
 62
    7
 10
876.55526728856842
 20
996.41024665352631
 11
876.57362958605347
 21
996.5015578632424
  0
LINE
  8
_2-7_ビス
  6
CONTINUOUS
 62
    7
 10
876.57362958605347
 20
996.5015578632424
 11
876.57729068331309
 21
996.59498742328492
  0
LINE
  8
_2-7_ビス
  6
CONTINUOUS
 62
    7
 10
876.57729068331309
 20
996.59498742328492
 11
876.56613933975962
 21
996.68769652374954
  0
LINE
  8
_2-7_ビス
  6
CONTINUOUS
 62
    7
 10
876.56613933975962
 20
996.68769652374954
 11
876.54051438332408
 21
996.77686824553166
  0
LINE
  8
_2-7_ビス
  6
CONTINUOUS
 62
    7
 10
876.54051438332408
 20
996.77686824553166
 11
876.50119441534093
 21
996.85979315098814
  0
LINE
  8
_2-7_ビス
  6
CONTINUOUS
 62
    7
 10
876.50119441534093
 20
996.85979315098814
 11
876.44937415314041
 21
996.93395160882858
  0
LINE
  8
_2-7_ビス
  6
CONTINUOUS
 62
    7
 10
876.44937415314041
 20
996.93395160882858
 11
876.38662812916721
 21
996.99709035183764
  0
LINE
  8
_2-7_ビス
  6
CONTINUOUS
 62
    7
 10
876.38662812916721
 20
996.99709035183764
 11
876.31486284960863
 21
997.04729094125855
  0
LINE
  8
_2-7_ビス
  6
CONTINUOUS
 62
    7
 10
876.31486284960863
 20
997.04729094125855
 11
876.23625886616935
 21
997.08302805758467
  0
LINE
  8
_2-7_ビス
  6
CONTINUOUS
 62
    7
 10
876.23625886616935
 20
997.08302805758467
 11
876.1532045211103
 21
997.10321584662006
  0
LINE
  8
_2-7_ビス
  6
CONTINUOUS
 62
    7
 10
876.1532045211103
 20
997.10321584662006
 11
876.11135798794749
 21
997.10724091261068
  0
LINE
  8
_2-7_ビス
  6
CONTINUOUS
 62
    7
 10
876.11135798794749
 20
1003.8686444172108
 11
876.11135798794749
 21
1003.8686444172108
  0
LINE
  8
_2-7_ビス
  6
CONTINUOUS
 62
    7
 10
876.11135798794749
 20
1003.8686444172108
 11
876.19568381874114
 21
1003.8809043738586
  0
LINE
  8
_2-7_ビス
  6
CONTINUOUS
 62
    7
 10
876.19568381874114
 20
1003.8809043738586
 11
876.27679214019952
 21
1003.9090768405657
  0
LINE
  8
_2-7_ビス
  6
CONTINUOUS
 62
    7
 10
876.27679214019952
 20
1003.9090768405657
 11
876.3522185170176
 21
1003.9523058111872
  0
LINE
  8
_2-7_ビス
  6
CONTINUOUS
 62
    7
 10
876.3522185170176
 20
1003.9523058111872
 11
876.41967115690352
 21
1004.0092777953257
  0
LINE
  8
_2-7_ビス
  6
CONTINUOUS
 62
    7
 10
876.41967115690352
 20
1004.0092777953257
 11
876.47710054552692
 21
1004.0782617280724
  0
LINE
  8
_2-7_ビス
  6
CONTINUOUS
 62
    7
 10
876.47710054552692
 20
1004.0782617280724
 11
876.52276171997516
 21
1004.1571615675383
  0
LINE
  8
_2-7_ビス
  6
CONTINUOUS
 62
    7
 10
876.52276171997516
 20
1004.1571615675383
 11
876.55526728856842
 21
1004.2435799820265
  0
LINE
  8
_2-7_ビス
  6
CONTINUOUS
 62
    7
 10
876.55526728856842
 20
1004.2435799820265
 11
876.57362958605347
 21
1004.3348911917426
  0
LINE
  8
_2-7_ビス
  6
CONTINUOUS
 62
    7
 10
876.57362958605347
 20
1004.3348911917426
 11
876.57729068331309
 21
1004.4283207517851
  0
LINE
  8
_2-7_ビス
  6
CONTINUOUS
 62
    7
 10
876.57729068331309
 20
1004.4283207517851
 11
876.56613933975962
 21
1004.5210298522497
  0
LINE
  8
_2-7_ビス
  6
CONTINUOUS
 62
    7
 10
876.56613933975962
 20
1004.5210298522497
 11
876.54051438332408
 21
1004.6102015740319
  0
LINE
  8
_2-7_ビス
  6
CONTINUOUS
 62
    7
 10
876.54051438332408
 20
1004.6102015740319
 11
876.50119441534093
 21
1004.6931264794883
  0
LINE
  8
_2-7_ビス
  6
CONTINUOUS
 62
    7
 10
876.50119441534093
 20
1004.6931264794883
 11
876.44937415314041
 21
1004.7672849373288
  0
LINE
  8
_2-7_ビス
  6
CONTINUOUS
 62
    7
 10
876.44937415314041
 20
1004.7672849373288
 11
876.38662812916721
 21
1004.8304236803378
  0
LINE
  8
_2-7_ビス
  6
CONTINUOUS
 62
    7
 10
876.38662812916721
 20
1004.8304236803378
 11
876.31486284960863
 21
1004.8806242697588
  0
LINE
  8
_2-7_ビス
  6
CONTINUOUS
 62
    7
 10
876.31486284960863
 20
1004.8806242697588
 11
876.23625886616935
 21
1004.9163613860849
  0
LINE
  8
_2-7_ビス
  6
CONTINUOUS
 62
    7
 10
876.23625886616935
 20
1004.9163613860849
 11
876.1532045211103
 21
1004.9365491751203
  0
LINE
  8
_2-7_ビス
  6
CONTINUOUS
 62
    7
 10
876.1532045211103
 20
1004.9365491751203
 11
876.11135798794749
 21
1004.9405742411109
  0
LINE
  8
_2-7_ビス
  6
CONTINUOUS
 62
    7
 10
876.48685013183695
 20
985.48092513031031
 11
876.48685013183695
 21
985.48092513031031
  0
LINE
  8
_2-7_ビス
  6
CONTINUOUS
 62
    7
 10
876.48685013183695
 20
985.48092513031031
 11
876.48144620741073
 21
985.62018075222556
  0
LINE
  8
_2-7_ビス
  6
CONTINUOUS
 62
    7
 10
876.48144620741073
 20
985.62018075222556
 11
876.45412951939136
 21
985.75628909730835
  0
LINE
  8
_2-7_ビス
  6
CONTINUOUS
 62
    7
 10
876.45412951939136
 20
985.75628909730835
 11
876.43657479874878
 21
985.8107496915103
  0
LINE
  8
_2-7_ビス
  6
CONTINUOUS
 62
    7
 10
877.57775573794652
 20
983.48159767275797
 11
877.57775573794652
 21
983.48159767275797
  0
LINE
  8
_2-7_ビス
  6
CONTINUOUS
 62
    7
 10
877.57775573794652
 20
983.48159767275797
 11
877.5749339131138
 21
983.53743786730195
  0
LINE
  8
_2-7_ビス
  6
CONTINUOUS
 62
    7
 10
877.5749339131138
 20
983.53743786730195
 11
877.563335225625
 21
983.59189100515755
  0
LINE
  8
_2-7_ビス
  6
CONTINUOUS
 62
    7
 10
877.563335225625
 20
983.59189100515755
 11
877.54331209573024
 21
983.64330255528557
  0
LINE
  8
_2-7_ビス
  6
CONTINUOUS
 62
    7
 10
877.54331209573024
 20
983.64330255528557
 11
877.51547291609927
 21
983.69011040375085
  0
LINE
  8
_2-7_ビス
  6
CONTINUOUS
 62
    7
 10
877.51547291609927
 20
983.69011040375085
 11
877.48066356611787
 21
983.73089231776373
  0
LINE
  8
_2-7_ビス
  6
CONTINUOUS
 62
    7
 10
877.48066356611787
 20
983.73089231776373
 11
877.43994171027077
 21
983.76440915950354
  0
LINE
  8
_2-7_ビス
  6
CONTINUOUS
 62
    7
 10
877.43994171027077
 20
983.76440915950354
 11
877.39454466154177
 21
983.78964253669437
  0
LINE
  8
_2-7_ビス
  6
CONTINUOUS
 62
    7
 10
877.39454466154177
 20
983.78964253669437
 11
877.34585178628424
 21
983.80582574593905
  0
LINE
  8
_2-7_ビス
  6
CONTINUOUS
 62
    7
 10
877.34585178628424
 20
983.80582574593905
 11
877.29534259287334
 21
983.81246706861373
  0
LINE
  8
_2-7_ビス
  6
CONTINUOUS
 62
    7
 10
877.29534259287334
 20
983.81246706861373
 11
877.24455177759194
 21
983.80936471148948
  0
LINE
  8
_2-7_ビス
  6
CONTINUOUS
 62
    7
 10
877.24455177759194
 20
983.80936471148948
 11
877.19502259366084
 21
983.79661293811785
  0
LINE
  8
_2-7_ビス
  6
CONTINUOUS
 62
    7
 10
877.19502259366084
 20
983.79661293811785
 11
877.14825996027082
 21
983.77459920467993
  0
LINE
  8
_2-7_ビス
  6
CONTINUOUS
 62
    7
 10
877.14825996027082
 20
983.77459920467993
 11
877.10568473637454
 21
983.74399238732678
  0
LINE
  8
_2-7_ビス
  6
CONTINUOUS
 62
    7
 10
877.10568473637454
 20
983.74399238732678
 11
877.06859054860593
 21
983.70572245871585
  0
LINE
  8
_2-7_ビス
  6
CONTINUOUS
 62
    7
 10
877.06859054860593
 20
983.70572245871585
 11
877.03810448508966
 21
983.66095223126251
  0
LINE
  8
_2-7_ビス
  6
CONTINUOUS
 62
    7
 10
877.03810448508966
 20
983.66095223126251
 11
877.01515284943912
 21
983.61104202567299
  0
LINE
  8
_2-7_ビス
  6
CONTINUOUS
 62
    7
 10
877.01515284943912
 20
983.61104202567299
 11
877.00043301548942
 21
983.55750833828847
  0
LINE
  8
_2-7_ビス
  6
CONTINUOUS
 62
    7
 10
877.00043301548942
 20
983.55750833828847
 11
876.99439223794661
 21
983.50197776311074
  0
LINE
  8
_2-7_ビス
  6
CONTINUOUS
 62
    7
 10
876.99439223794661
 20
983.50197776311074
 11
876.99439223794661
 21
983.50197776311063
  0
LINE
  8
_2-6_鋼板__アングル
  6
CONTINUOUS
 62
    2
 10
855.28010798794617
 20
1068.0162844194369
 11
856.60918663865891
 21
1052.8248459275544
  0
LINE
  8
_2-6_鋼板__アングル
  6
CONTINUOUS
 62
    2
 10
856.58967818921815
 20
1066.8162844194255
 11
857.81377044367878
 21
1052.8248459275544
  0
LINE
  8
_2-6_鋼板__アングル
  6
CONTINUOUS
 62
    2
 10
856.60918663865891
 20
1052.8248459275544
 11
857.81377044367878
 21
1052.8248459275544
  0
LINE
  8
_2-6_鋼板__アングル
  6
CONTINUOUS
 62
    2
 10
856.58967818921815
 20
1066.8162844194255
 11
872.28305171310672
 21
1066.8162844194255
  0
LINE
  8
_2-6_鋼板__アングル
  6
CONTINUOUS
 62
    2
 10
885.13309483395437
 20
1067.5185819932874
 11
882.53010798794753
 21
1065.5162844194369
  0
ARC
  8
_2-6_鋼板__アングル
  6
CONTINUOUS
 62
    2
 10
886.59640065999361
 20
1065.6162844194369
 40
2.3999999999999999
 50
90
 51
127.56859202882603
  0
LINE
  8
_2-6_鋼板__アングル
  6
CONTINUOUS
 62
    2
 10
873.42712114193978
 20
1067.5185819932874
 11
876.03010798794662
 21
1065.5162844194369
  0
ARC
  8
_2-6_鋼板__アングル
  6
CONTINUOUS
 62
    2
 10
871.96381531590055
 20
1065.6162844194369
 40
2.3999999999999999
 50
52.431407971173961
 51
90
  0
LINE
  8
_2-6_鋼板__アングル
  6
CONTINUOUS
 62
    4
 10
886.59640065999361
 20
1068.0162844194369
 11
871.96381531590055
 21
1068.0162844194369
  0
LINE
  8
_2-6_鋼板__アングル
  6
CONTINUOUS
 62
    2
 10
882.53010798794753
 20
1065.5162844194369
 11
883.26176090096601
 21
1064.5651356325111
  0
LINE
  8
_2-6_鋼板__アングル
  6
CONTINUOUS
 62
    2
 10
876.03010798794662
 20
1065.5162844194369
 11
875.29845507492814
 21
1064.5651356325111
  0
LINE
  8
_2-6_鋼板__アングル
  6
CONTINUOUS
 62
    4
 10
875.29845507492814
 20
1064.5651356325111
 11
883.26176090096601
 21
1064.5651356325111
  0
LINE
  8
_2-6_鋼板__アングル
  6
CONTINUOUS
 62
    2
 10
885.86474774697285
 20
1066.5674332063627
 11
883.26176090096601
 21
1064.5651356325111
  0
ARC
  8
_2-6_鋼板__アングル
  6
CONTINUOUS
 62
    2
 10
886.59640065999361
 20
1065.6162844194369
 40
1.2
 50
90
 51
127.56859202882507
  0
LINE
  8
_2-6_鋼板__アングル
  6
CONTINUOUS
 62
    2
 10
872.6954682289213
 20
1066.5674332063627
 11
875.29845507492814
 21
1064.5651356325111
  0
ARC
  8
_2-6_鋼板__アングル
  6
CONTINUOUS
 62
    2
 10
871.96381531590055
 20
1065.6162844194369
 40
1.2
 50
52.431407971171978
 51
90.000000000000057
  0
LINE
  8
_2-6_鋼板__アングル
  6
CONTINUOUS
 62
    2
 10
855.28010798794617
 20
1068.0162844194369
 11
871.96381531590055
 21
1068.0162844194369
  0
LINE
  8
_2-6_鋼板__アングル
  6
CONTINUOUS
 62
    2
 10
900.222367770152
 20
1066.4581492651671
 11
902.5019482412265
 21
1064.5162844194367
  0
ARC
  8
_2-6_鋼板__アングル
  6
CONTINUOUS
 62
    2
 10
899.24966808675413
 20
1065.3162844194371
 40
2.7000000000000002
 50
49.573921259901446
 51
90
  0
ARC
  8
_2-6_鋼板__アングル
  6
CONTINUOUS
 62
    2
 10
899.24966808675413
 20
1065.3162844194371
 40
1.5000000000000002
 50
49.573921259901446
 51
90
  0
LINE
  8
_2-6_鋼板__アングル
  6
CONTINUOUS
 62
    2
 10
903.28010798794799
 20
1065.4297762960214
 11
902.5019482412265
 21
1064.5162844194367
  0
LINE
  8
_2-6_鋼板__アングル
  6
CONTINUOUS
 62
    2
 10
886.59640065999361
 20
1068.0162844194369
 11
899.24966808675413
 21
1068.0162844194369
  0
LINE
  8
_2-6_鋼板__アングル
  6
CONTINUOUS
 62
    2
 10
886.277164262817
 20
1066.8162844194255
 11
899.24966808675413
 21
1066.8162844194255
  0
LINE
  8
_2-6_鋼板__アングル
  6
CONTINUOUS
 62
    2
 10
901.00052751687349
 20
1067.3716411417506
 11
903.28010798794799
 21
1065.4297762960214
  0
LINE
  8
_2-2_in_line
  6
CONTINUOUS
 62
    7
 10
903.28010798794799
 20
1065.4297762960214
 11
904.29512094076449
 21
1064.5651356325111
  0
LINE
  8
_2-2_in_line
  6
CONTINUOUS
 62
    7
 10
881.28010798794526
 20
1059.5651356325111
 11
1355.2801079879473
 21
1059.5651356325111
  0
LINE
  8
_2-2_in_line
  6
CONTINUOUS
 62
    7
 10
881.28010798794526
 20
1054.5651356325111
 11
1355.2801079879473
 21
1054.5651356325111
  0
LINE
  8
_2-2_in_line
  6
CONTINUOUS
 62
    7
 10
857.6657887505869
 20
1054.5651356325111
 11
877.28010798794662
 21
1054.5651356325111
  0
LINE
  8
_2-2_in_line
  6
CONTINUOUS
 62
    7
 10
857.22834543295653
 20
1059.5651356325111
 11
877.28010798794662
 21
1059.5651356325111
  0
LINE
  8
_2-6_鋼板__アングル
  6
CONTINUOUS
 62
    2
 10
902.08470621305287
 20
1073.0162844194369
 11
906.13605478901127
 21
1069.5651356325111
  0
LINE
  8
_2-4_out_line
  6
CONTINUOUS
 62
    2
 10
860.28010798794617
 20
1076.0162844194365
 11
860.28010798794617
 21
1299.5651356325111
  0
ARC
  8
_2-2_in_line
  6
CONTINUOUS
 62
    7
 10
863.28010798794571
 20
1076.0162844194365
 40
8
 50
180
 51
270
  0
ARC
  8
_2-4_out_line
  6
CONTINUOUS
 62
    2
 10
863.28010798794571
 20
1076.0162844194365
 40
3
 50
180
 51
270
  0
LINE
  8
_2-4_out_line
  6
CONTINUOUS
 62
    2
 10
863.28010798794571
 20
1073.0162844194369
 11
902.08470621305287
 21
1073.0162844194369
  0
LINE
  8
_2-d_ハッチ他
  6
CONTINUOUS
 62
    4
 10
881.28010798794526
 20
1046.5675340426224
 11
903.28250639806106
 21
1024.5651356325088
  0
LINE
  8
_2-d_ハッチ他
  6
CONTINUOUS
 62
    4
 10
881.28010798794526
 20
1036.3712990530421
 11
899.47394456741426
 21
1054.5651356325111
  0
LINE
  8
_2-d_ハッチ他
  6
CONTINUOUS
 62
    4
 10
869.47394456741426
 20
1024.5651356325088
 11
877.28010798794662
 21
1032.3712990530412
  0
LINE
  8
_2-d_ハッチ他
  6
CONTINUOUS
 62
    4
 10
873.28250639806106
 20
1054.5651356325088
 11
877.28010798794662
 21
1050.5675340426233
  0
ARC
  8
_2-d_ハッチ他
  6
CONTINUOUS
 62
    4
 10
882.13205282390823
 20
1056.1068023045987
 40
1.2083333333333179
 50
225.16578656793283
 51
52.476486801880824
  0
ARC
  8
_2-d_ハッチ他
  6
CONTINUOUS
 62
    4
 10
876.24421224651746
 20
1056.1068023039654
 40
1.2083333333333179
 50
127.52351320610693
 51
329.01398939785133
  0
LINE
  8
_2-4_out_line
  6
CONTINUOUS
 62
    2
 10
949.29512094076449
 20
1069.5651356325111
 11
949.29512094076449
 21
1064.5651356325111
  0
LINE
  8
_2-4_out_line
  6
CONTINUOUS
 62
    2
 10
949.29512094076449
 20
1064.5651356325111
 11
1355.2801079879473
 21
1064.5651356325111
  0
LINE
  8
_2-2_in_line
  6
CONTINUOUS
 62
    7
 10
943.29798887383254
 20
1069.5651356325111
 11
943.31620766135507
 21
1069.6960405791929
  0
LINE
  8
_2-2_in_line
  6
CONTINUOUS
 62
    7
 10
943.31620766135507
 20
1069.6960405791929
 11
943.34927444101572
 21
1069.9211145142117
  0
LINE
  8
_2-2_in_line
  6
CONTINUOUS
 62
    7
 10
943.34927444101572
 20
1069.9211145142117
 11
943.38693865688333
 21
1070.1444544244696
  0
LINE
  8
_2-2_in_line
  6
CONTINUOUS
 62
    7
 10
943.38693865688333
 20
1070.1444544244696
 11
943.43211007870627
 21
1070.3649628259409
  0
LINE
  8
_2-2_in_line
  6
CONTINUOUS
 62
    7
 10
943.43211007870627
 20
1070.3649628259409
 11
943.48769847623521
 21
1070.5815422346
  0
LINE
  8
_2-2_in_line
  6
CONTINUOUS
 62
    7
 10
943.48769847623521
 20
1070.5815422346
 11
943.55661361922535
 21
1070.7930951664189
  0
LINE
  8
_2-2_in_line
  6
CONTINUOUS
 62
    7
 10
943.55661361922535
 20
1070.7930951664189
 11
943.60383731751858
 21
1070.9130602694113
  0
LINE
  8
_2-2_in_line
  6
CONTINUOUS
 62
    7
 10
943.60383731751858
 20
1070.9130602694113
 11
943.64477837878189
 21
1071.0051771090007
  0
LINE
  8
_2-2_in_line
  6
CONTINUOUS
 62
    7
 10
943.64477837878189
 20
1071.0051771090007
 11
943.72319355146351
 21
1071.1608914120147
  0
LINE
  8
_2-2_in_line
  6
CONTINUOUS
 62
    7
 10
943.72319355146351
 20
1071.1608914120147
 11
943.8103005657897
 21
1071.3128950148944
  0
LINE
  8
_2-2_in_line
  6
CONTINUOUS
 62
    7
 10
943.8103005657897
 20
1071.3128950148944
 11
943.90468555493703
 21
1071.4614475306944
  0
LINE
  8
_2-2_in_line
  6
CONTINUOUS
 62
    7
 10
943.90468555493703
 20
1071.4614475306944
 11
944.00493465208206
 21
1071.6068085724673
  0
LINE
  8
_2-2_in_line
  6
CONTINUOUS
 62
    7
 10
944.00493465208206
 20
1071.6068085724673
 11
944.10963399039906
 21
1071.7492377532635
  0
LINE
  8
_2-2_in_line
  6
CONTINUOUS
 62
    7
 10
944.10963399039906
 20
1071.7492377532635
 11
944.17184157007773
 21
1071.8306056004672
  0
LINE
  8
_2-2_in_line
  6
CONTINUOUS
 62
    7
 10
944.17184157007773
 20
1071.8306056004672
 11
944.24605784401342
 21
1071.9252891932711
  0
LINE
  8
_2-2_in_line
  6
CONTINUOUS
 62
    7
 10
944.24605784401342
 20
1071.9252891932711
 11
944.37628278411671
 21
1072.0860079871322
  0
LINE
  8
_2-2_in_line
  6
CONTINUOUS
 62
    7
 10
944.37628278411671
 20
1072.0860079871322
 11
944.509134603338
 21
1072.2438747495225
  0
LINE
  8
_2-2_in_line
  6
CONTINUOUS
 62
    7
 10
944.509134603338
 20
1072.2438747495225
 11
944.64433274146563
 21
1072.399295242988
  0
LINE
  8
_2-2_in_line
  6
CONTINUOUS
 62
    7
 10
944.64433274146563
 20
1072.399295242988
 11
944.78159663829024
 21
1072.5526752300771
  0
LINE
  8
_2-2_in_line
  6
CONTINUOUS
 62
    7
 10
944.78159663829024
 20
1072.5526752300771
 11
944.92064573359789
 21
1072.7044204733311
  0
LINE
  8
_2-2_in_line
  6
CONTINUOUS
 62
    7
 10
944.92064573359789
 20
1072.7044204733311
 11
945.00200163151226
 21
1072.7918435663382
  0
LINE
  8
_2-2_in_line
  6
CONTINUOUS
 62
    7
 10
945.00200163151226
 20
1072.7918435663382
 11
945.08763670492476
 21
1072.882913740737
  0
LINE
  8
_2-2_in_line
  6
CONTINUOUS
 62
    7
 10
945.08763670492476
 20
1072.882913740737
 11
945.23683406323221
 21
1073.0386154895705
  0
LINE
  8
_2-2_in_line
  6
CONTINUOUS
 62
    7
 10
945.23683406323221
 20
1073.0386154895705
 11
945.38858427680429
 21
1073.1919614679696
  0
LINE
  8
_2-2_in_line
  6
CONTINUOUS
 62
    7
 10
945.38858427680429
 20
1073.1919614679696
 11
945.54357335630561
 21
1073.3421491068889
  0
LINE
  8
_2-2_in_line
  6
CONTINUOUS
 62
    7
 10
945.54357335630561
 20
1073.3421491068889
 11
945.70248731241213
 21
1073.4883758372875
  0
LINE
  8
_2-2_in_line
  6
CONTINUOUS
 62
    7
 10
945.70248731241213
 20
1073.4883758372875
 11
945.86601215579526
 21
1073.6298390901156
  0
LINE
  8
_2-2_in_line
  6
CONTINUOUS
 62
    7
 10
945.86601215579526
 20
1073.6298390901156
 11
945.96323959738106
 21
1073.7093888973964
  0
LINE
  8
_2-2_in_line
  6
CONTINUOUS
 62
    7
 10
945.96323959738106
 20
1073.7093888973964
 11
946.05089329692169
 21
1073.7781142498925
  0
LINE
  8
_2-2_in_line
  6
CONTINUOUS
 62
    7
 10
946.05089329692169
 20
1073.7781142498925
 11
946.20550639684302
 21
1073.8923270176911
  0
LINE
  8
_2-2_in_line
  6
CONTINUOUS
 62
    7
 10
946.20550639684302
 20
1073.8923270176911
 11
946.3644715400344
 21
1074.0002997066226
  0
LINE
  8
_2-2_in_line
  6
CONTINUOUS
 62
    7
 10
946.3644715400344
 20
1074.0002997066226
 11
946.5277181972599
 21
1074.1010749380489
  0
LINE
  8
_2-2_in_line
  6
CONTINUOUS
 62
    7
 10
946.5277181972599
 20
1074.1010749380489
 11
946.69517583929041
 21
1074.1936953333361
  0
LINE
  8
_2-2_in_line
  6
CONTINUOUS
 62
    7
 10
946.69517583929041
 20
1074.1936953333361
 11
946.86677393689456
 21
1074.277203513846
  0
LINE
  8
_2-2_in_line
  6
CONTINUOUS
 62
    7
 10
946.86677393689456
 20
1074.277203513846
 11
946.96817019806281
 21
1074.3210857847685
  0
LINE
  8
_2-2_in_line
  6
CONTINUOUS
 62
    7
 10
946.96817019806281
 20
1074.3210857847685
 11
947.08207569080264
 21
1074.3656144980314
  0
LINE
  8
_2-2_in_line
  6
CONTINUOUS
 62
    7
 10
947.08207569080264
 20
1074.3656144980314
 11
947.28196414865783
 21
1074.4329251264439
  0
LINE
  8
_2-2_in_line
  6
CONTINUOUS
 62
    7
 10
947.28196414865783
 20
1074.4329251264439
 11
947.48566624751425
 21
1074.4895286779438
  0
LINE
  8
_2-2_in_line
  6
CONTINUOUS
 62
    7
 10
947.48566624751425
 20
1074.4895286779438
 11
947.69246532432339
 21
1074.5369035516733
  0
LINE
  8
_2-2_in_line
  6
CONTINUOUS
 62
    7
 10
947.69246532432339
 20
1074.5369035516733
 11
947.90164471603225
 21
1074.5765281467839
  0
LINE
  8
_2-2_in_line
  6
CONTINUOUS
 62
    7
 10
947.90164471603225
 20
1074.5765281467839
 11
948.11248775958779
 21
1074.6098808624179
  0
LINE
  8
_2-2_in_line
  6
CONTINUOUS
 62
    7
 10
948.11248775958779
 20
1074.6098808624179
 11
948.23525660761993
 21
1074.6269342284522
  0
LINE
  8
_2-2_in_line
  6
CONTINUOUS
 62
    7
 10
948.23525660761993
 20
1074.6269342284522
 11
948.38371357770234
 21
1074.6456512277205
  0
LINE
  8
_2-2_in_line
  6
CONTINUOUS
 62
    7
 10
948.38371357770234
 20
1074.6456512277205
 11
948.6400338429869
 21
1074.6725579888089
  0
LINE
  8
_2-2_in_line
  6
CONTINUOUS
 62
    7
 10
948.6400338429869
 20
1074.6725579888089
 11
948.89642917156812
 21
1074.6914162361081
  0
LINE
  8
_2-2_in_line
  6
CONTINUOUS
 62
    7
 10
948.89642917156812
 20
1074.6914162361081
 11
949.15245700819901
 21
1074.7007623272957
  0
LINE
  8
_2-2_in_line
  6
CONTINUOUS
 62
    7
 10
949.15245700819901
 20
1074.7007623272957
 11
949.40767479763258
 21
1074.6991326200491
  0
LINE
  8
_2-2_in_line
  6
CONTINUOUS
 62
    7
 10
949.40767479763258
 20
1074.6991326200491
 11
949.66163998462412
 21
1074.6850634720458
  0
LINE
  8
_2-2_in_line
  6
CONTINUOUS
 62
    7
 10
949.66163998462412
 20
1074.6850634720458
 11
949.80819146085855
 21
1074.6706268632652
  0
LINE
  8
_2-2_in_line
  6
CONTINUOUS
 62
    7
 10
949.80819146085855
 20
1074.6706268632652
 11
949.91553565242816
 21
1074.6569370771799
  0
LINE
  8
_2-2_in_line
  6
CONTINUOUS
 62
    7
 10
949.91553565242816
 20
1074.6569370771799
 11
950.09998571319761
 21
1074.6279774459395
  0
LINE
  8
_2-2_in_line
  6
CONTINUOUS
 62
    7
 10
950.09998571319761
 20
1074.6279774459395
 11
950.28395657063561
 21
1074.5936619644003
  0
LINE
  8
_2-2_in_line
  6
CONTINUOUS
 62
    7
 10
950.28395657063561
 20
1074.5936619644003
 11
950.46781260649573
 21
1074.5556471383729
  0
LINE
  8
_2-2_in_line
  6
CONTINUOUS
 62
    7
 10
950.46781260649573
 20
1074.5556471383729
 11
950.65191820251562
 21
1074.5155894736677
  0
LINE
  8
_2-2_in_line
  6
CONTINUOUS
 62
    7
 10
950.65191820251562
 20
1074.5155894736677
 11
950.83663774044203
 21
1074.4751454760903
  0
LINE
  8
_2-2_in_line
  6
CONTINUOUS
 62
    7
 10
950.83663774044203
 20
1074.4751454760903
 11
950.94419996597912
 21
1074.452163689205
  0
LINE
  8
_2-2_in_line
  6
CONTINUOUS
 62
    7
 10
950.94419996597912
 20
1074.452163689205
 11
951.06631119730741
 21
1074.4268899677063
  0
LINE
  8
_2-2_in_line
  6
CONTINUOUS
 62
    7
 10
951.06631119730741
 20
1074.4268899677063
 11
951.27710922087067
 21
1074.3835404514703
  0
LINE
  8
_2-2_in_line
  6
CONTINUOUS
 62
    7
 10
951.27710922087067
 20
1074.3835404514703
 11
951.48681444470844
 21
1074.337407293322
  0
LINE
  8
_2-2_in_line
  6
CONTINUOUS
 62
    7
 10
951.48681444470844
 20
1074.337407293322
 11
951.69377139397716
 21
1074.2849212516198
  0
LINE
  8
_2-2_in_line
  6
CONTINUOUS
 62
    7
 10
951.69377139397716
 20
1074.2849212516198
 11
951.89632459383097
 21
1074.2225130847196
  0
LINE
  8
_2-2_in_line
  6
CONTINUOUS
 62
    7
 10
951.89632459383097
 20
1074.2225130847196
 11
952.09281856943085
 21
1074.1466135509863
  0
LINE
  8
_2-2_in_line
  6
CONTINUOUS
 62
    7
 10
952.09281856943085
 20
1074.1466135509863
 11
952.20335639555037
 21
1074.0950036103304
  0
LINE
  8
_2-2_in_line
  6
CONTINUOUS
 62
    7
 10
952.20335639555037
 20
1074.0950036103304
 11
952.30267862673122
 21
1074.0419181384054
  0
LINE
  8
_2-2_in_line
  6
CONTINUOUS
 62
    7
 10
952.30267862673122
 20
1074.0419181384054
 11
952.46810254192246
 21
1073.938631857307
  0
LINE
  8
_2-2_in_line
  6
CONTINUOUS
 62
    7
 10
952.46810254192246
 20
1073.938631857307
 11
952.6261541132792
 21
1073.8220822255748
  0
LINE
  8
_2-2_in_line
  6
CONTINUOUS
 62
    7
 10
952.6261541132792
 20
1073.8220822255748
 11
952.7768291596974
 21
1073.6941555522599
  0
LINE
  8
_2-2_in_line
  6
CONTINUOUS
 62
    7
 10
952.7768291596974
 20
1073.6941555522599
 11
952.92012350006394
 21
1073.556738146413
  0
LINE
  8
_2-2_in_line
  6
CONTINUOUS
 62
    7
 10
952.92012350006394
 20
1073.556738146413
 11
953.05603295326796
 21
1073.4117163170849
  0
LINE
  8
_2-2_in_line
  6
CONTINUOUS
 62
    7
 10
953.05603295326796
 20
1073.4117163170849
 11
953.13147503325331
 21
1073.3248626130858
  0
LINE
  8
_2-2_in_line
  6
CONTINUOUS
 62
    7
 10
953.13147503325331
 20
1073.3248626130858
 11
953.2157700576247
 21
1073.2222952250963
  0
LINE
  8
_2-2_in_line
  6
CONTINUOUS
 62
    7
 10
953.2157700576247
 20
1073.2222952250963
 11
953.35394191689352
 21
1073.0410102153592
  0
LINE
  8
_2-2_in_line
  6
CONTINUOUS
 62
    7
 10
953.35394191689352
 20
1073.0410102153592
 11
953.48405218391213
 21
1072.8547855407401
  0
LINE
  8
_2-2_in_line
  6
CONTINUOUS
 62
    7
 10
953.48405218391213
 20
1072.8547855407401
 11
953.60727208589856
 21
1072.66441947965
  0
LINE
  8
_2-2_in_line
  6
CONTINUOUS
 62
    7
 10
953.60727208589856
 20
1072.66441947965
 11
953.72477285006858
 21
1072.4707103105065
  0
LINE
  8
_2-2_in_line
  6
CONTINUOUS
 62
    7
 10
953.72477285006858
 20
1072.4707103105065
 11
953.83772570363567
 21
1072.274456311723
  0
LINE
  8
_2-2_in_line
  6
CONTINUOUS
 62
    7
 10
953.83772570363567
 20
1072.274456311723
 11
953.90161603049569
 21
1072.1597775146943
  0
LINE
  8
_2-2_in_line
  6
CONTINUOUS
 62
    7
 10
953.90161603049569
 20
1072.1597775146943
 11
953.96888339800375
 21
1072.0367109225576
  0
LINE
  8
_2-2_in_line
  6
CONTINUOUS
 62
    7
 10
953.96888339800375
 20
1072.0367109225576
 11
954.08286463921036
 21
1071.8235041661892
  0
LINE
  8
_2-2_in_line
  6
CONTINUOUS
 62
    7
 10
954.08286463921036
 20
1071.8235041661892
 11
954.1949791875752
 21
1071.6092071666531
  0
LINE
  8
_2-2_in_line
  6
CONTINUOUS
 62
    7
 10
954.1949791875752
 20
1071.6092071666531
 11
954.30599579682371
 21
1071.3940579055798
  0
LINE
  8
_2-2_in_line
  6
CONTINUOUS
 62
    7
 10
954.30599579682371
 20
1071.3940579055798
 11
954.41668322068131
 21
1071.1782943645976
  0
LINE
  8
_2-2_in_line
  6
CONTINUOUS
 62
    7
 10
954.41668322068131
 20
1071.1782943645976
 11
954.52781021287797
 21
1070.9621545253417
  0
LINE
  8
_2-2_in_line
  6
CONTINUOUS
 62
    7
 10
954.52781021287797
 20
1070.9621545253417
 11
954.59276820751006
 21
1070.8367147758422
  0
LINE
  8
_2-2_in_line
  6
CONTINUOUS
 62
    7
 10
954.59276820751006
 20
1070.8367147758422
 11
954.68118166168301
 21
1070.6678865928352
  0
LINE
  8
_2-2_in_line
  6
CONTINUOUS
 62
    7
 10
954.68118166168301
 20
1070.6678865928352
 11
954.83768647761485
 21
1070.3784908269477
  0
LINE
  8
_2-2_in_line
  6
CONTINUOUS
 62
    7
 10
954.83768647761485
 20
1070.3784908269477
 11
955.00190807084186
 21
1070.0937826506974
  0
LINE
  8
_2-2_in_line
  6
CONTINUOUS
 62
    7
 10
955.00190807084186
 20
1070.0937826506974
 11
955.17683205822755
 21
1069.8167292226781
  0
LINE
  8
_2-2_in_line
  6
CONTINUOUS
 62
    7
 10
955.17683205822755
 20
1069.8167292226781
 11
955.3654440566263
 21
1069.5502977014921
  0
LINE
  8
_2-2_in_line
  6
CONTINUOUS
 62
    7
 10
955.3654440566263
 20
1069.5502977014921
 11
955.57072968290163
 21
1069.2974552457354
  0
LINE
  8
_2-2_in_line
  6
CONTINUOUS
 62
    7
 10
955.57072968290163
 20
1069.2974552457354
 11
955.69861169072942
 21
1069.158202345955
  0
LINE
  8
_2-2_in_line
  6
CONTINUOUS
 62
    7
 10
955.69861169072942
 20
1069.158202345955
 11
955.74482686303531
 21
1069.1110973400446
  0
LINE
  8
_2-2_in_line
  6
CONTINUOUS
 62
    7
 10
955.74482686303531
 20
1069.1110973400446
 11
955.826526124574
 21
1069.0317522450077
  0
LINE
  8
_2-2_in_line
  6
CONTINUOUS
 62
    7
 10
955.826526124574
 20
1069.0317522450077
 11
955.91072851690319
 21
1068.9549521355666
  0
LINE
  8
_2-2_in_line
  6
CONTINUOUS
 62
    7
 10
955.91072851690319
 20
1068.9549521355666
 11
955.99737449240115
 21
1068.8809032322415
  0
LINE
  8
_2-2_in_line
  6
CONTINUOUS
 62
    7
 10
955.99737449240115
 20
1068.8809032322415
 11
956.08640450343705
 21
1068.8098117555505
  0
LINE
  8
_2-2_in_line
  6
CONTINUOUS
 62
    7
 10
956.08640450343705
 20
1068.8098117555505
 11
956.17775900238689
 21
1068.7418839260208
  0
LINE
  8
_2-2_in_line
  6
CONTINUOUS
 62
    7
 10
956.17775900238689
 20
1068.7418839260208
 11
956.23178622728324
 21
1068.7040166296315
  0
LINE
  8
_2-2_in_line
  6
CONTINUOUS
 62
    7
 10
956.23178622728324
 20
1068.7040166296315
 11
956.32138763836997
 21
1068.6447239392537
  0
LINE
  8
_2-2_in_line
  6
CONTINUOUS
 62
    7
 10
956.32138763836997
 20
1068.6447239392537
 11
956.47957908254034
 21
1068.548310675058
  0
LINE
  8
_2-2_in_line
  6
CONTINUOUS
 62
    7
 10
956.47957908254034
 20
1068.548310675058
 11
956.64099036957145
 21
1068.4569822659869
  0
LINE
  8
_2-2_in_line
  6
CONTINUOUS
 62
    7
 10
956.64099036957145
 20
1068.4569822659869
 11
956.80391031786462
 21
1068.3680915575364
  0
LINE
  8
_2-2_in_line
  6
CONTINUOUS
 62
    7
 10
956.80391031786462
 20
1068.3680915575364
 11
956.96662774581887
 21
1068.2789913952006
  0
LINE
  8
_2-2_in_line
  6
CONTINUOUS
 62
    7
 10
956.96662774581887
 20
1068.2789913952006
 11
957.12743147183096
 21
1068.1870346244755
  0
LINE
  8
_2-2_in_line
  6
CONTINUOUS
 62
    7
 10
957.12743147183096
 20
1068.1870346244755
 11
957.21914648015832
 21
1068.1313476829637
  0
LINE
  8
_2-2_in_line
  6
CONTINUOUS
 62
    7
 10
957.21914648015832
 20
1068.1313476829637
 11
957.31155747255548
 21
1068.0719829130912
  0
LINE
  8
_2-2_in_line
  6
CONTINUOUS
 62
    7
 10
957.31155747255548
 20
1068.0719829130912
 11
957.46750047471073
 21
1067.9644811513235
  0
LINE
  8
_2-2_in_line
  6
CONTINUOUS
 62
    7
 10
957.46750047471073
 20
1067.9644811513235
 11
957.61982301693229
 21
1067.851497961356
  0
LINE
  8
_2-2_in_line
  6
CONTINUOUS
 62
    7
 10
957.61982301693229
 20
1067.851497961356
 11
957.76929950566659
 21
1067.7342379089605
  0
LINE
  8
_2-2_in_line
  6
CONTINUOUS
 62
    7
 10
957.76929950566659
 20
1067.7342379089605
 11
957.91670434736011
 21
1067.613905559911
  0
LINE
  8
_2-2_in_line
  6
CONTINUOUS
 62
    7
 10
957.91670434736011
 20
1067.613905559911
 11
958.06281194845474
 21
1067.4917054799862
  0
LINE
  8
_2-2_in_line
  6
CONTINUOUS
 62
    7
 10
958.06281194845474
 20
1067.4917054799862
 11
958.14726511785898
 21
1067.4204483008934
  0
LINE
  8
_2-2_in_line
  6
CONTINUOUS
 62
    7
 10
958.14726511785898
 20
1067.4204483008934
 11
958.25310698147609
 21
1067.3309677169941
  0
LINE
  8
_2-2_in_line
  6
CONTINUOUS
 62
    7
 10
958.25310698147609
 20
1067.3309677169941
 11
958.4346797597866
 21
1067.1758846631978
  0
LINE
  8
_2-2_in_line
  6
CONTINUOUS
 62
    7
 10
958.4346797597866
 20
1067.1758846631978
 11
958.61385441241259
 21
1067.0184954949564
  0
LINE
  8
_2-2_in_line
  6
CONTINUOUS
 62
    7
 10
958.61385441241259
 20
1067.0184954949564
 11
958.7891865386357
 21
1066.857305297031
  0
LINE
  8
_2-2_in_line
  6
CONTINUOUS
 62
    7
 10
958.7891865386357
 20
1066.857305297031
 11
958.95923173774668
 21
1066.6908191541806
  0
LINE
  8
_2-2_in_line
  6
CONTINUOUS
 62
    7
 10
958.95923173774668
 20
1066.6908191541806
 11
959.12254560902488
 21
1066.5175421511713
  0
LINE
  8
_2-2_in_line
  6
CONTINUOUS
 62
    7
 10
959.12254560902488
 20
1066.5175421511713
 11
959.21361419096434
 21
1066.4133408429602
  0
LINE
  8
_2-2_in_line
  6
CONTINUOUS
 62
    7
 10
959.21361419096434
 20
1066.4133408429602
 11
959.26527346359967
 21
1066.351253567439
  0
LINE
  8
_2-2_in_line
  6
CONTINUOUS
 62
    7
 10
959.26527346359967
 20
1066.351253567439
 11
959.35159857390522
 21
1066.2417808276
  0
LINE
  8
_2-2_in_line
  6
CONTINUOUS
 62
    7
 10
959.35159857390522
 20
1066.2417808276
 11
959.43395844604061
 21
1066.1292795698414
  0
LINE
  8
_2-2_in_line
  6
CONTINUOUS
 62
    7
 10
959.43395844604061
 20
1066.1292795698414
 11
959.51177913678498
 21
1066.0137986371301
  0
LINE
  8
_2-2_in_line
  6
CONTINUOUS
 62
    7
 10
959.51177913678498
 20
1066.0137986371301
 11
959.58448670292887
 21
1065.8953868724375
  0
LINE
  8
_2-2_in_line
  6
CONTINUOUS
 62
    7
 10
959.58448670292887
 20
1065.8953868724375
 11
959.65150720125826
 21
1065.7740931187327
  0
LINE
  8
_2-2_in_line
  6
CONTINUOUS
 62
    7
 10
959.65150720125826
 20
1065.7740931187327
 11
959.68754711234601
 21
1065.7024414608923
  0
LINE
  8
_2-2_in_line
  6
CONTINUOUS
 62
    7
 10
959.68754711234601
 20
1065.7024414608923
 11
959.73419896570226
 21
1065.6009655698408
  0
LINE
  8
_2-2_in_line
  6
CONTINUOUS
 62
    7
 10
959.73419896570226
 20
1065.6009655698408
 11
959.80568572405195
 21
1065.4222011907909
  0
LINE
  8
_2-2_in_line
  6
CONTINUOUS
 62
    7
 10
959.80568572405195
 20
1065.4222011907909
 11
959.86763706267743
 21
1065.2393807726417
  0
LINE
  8
_2-2_in_line
  6
CONTINUOUS
 62
    7
 10
959.86763706267743
 20
1065.2393807726417
 11
959.92213495094552
 21
1065.0533899134512
  0
LINE
  8
_2-2_in_line
  6
CONTINUOUS
 62
    7
 10
959.92213495094552
 20
1065.0533899134512
 11
959.97126135823214
 21
1064.8651142112776
  0
LINE
  8
_2-2_in_line
  6
CONTINUOUS
 62
    7
 10
959.97126135823214
 20
1064.8651142112776
 11
960.01709825390867
 21
1064.6754392641724
  0
LINE
  8
_2-2_in_line
  6
CONTINUOUS
 62
    7
 10
960.01709825390867
 20
1064.6754392641724
 11
960.04299680337886
 21
1064.5651356325111
  0
LINE
  8
_2-2_in_line
  6
CONTINUOUS
 62
    7
 10
856.79090211532844
 20
1064.5651356325111
 11
949.29512094076449
 21
1064.5651356325111
  0
LINE
  8
_2-4_out_line
  6
CONTINUOUS
 62
    2
 10
906.13605478901127
 20
1069.5651356325111
 11
949.29512094076449
 21
1069.5651356325111
  0
LINE
  8
_2-6_鋼板__アングル
  6
CONTINUOUS
 62
    2
 10
858.88619299855668
 20
444.58688907304736
 11
857.76200872657205
 21
445.82349177223182
  0
ARC
  8
_2-4_out_line
  6
CONTINUOUS
 62
    2
 10
869.406415149758
 20
436.06513563250974
 40
3.0000000000000004
 50
189.99999999999807
 51
270
  0
ARC
  8
_2-2_in_line
  6
CONTINUOUS
 62
    7
 10
865.90173078666658
 20
429.10509733260869
 40
9.5480336353873501
 50
192.35613459928888
 51
267.64386540070132
  0
ARC
  8
_2-2_in_line
  6
CONTINUOUS
 62
    7
 10
865.90173078666658
 20
429.10509733260869
 40
4.5480336353873501
 50
192.35613459928888
 51
267.64386540070132
  0
LINE
  8
_2-2_in_line
  6
CONTINUOUS
 62
    7
 10
856.57486405458576
 20
427.0619372154174
 11
855.28010798794617
 21
434.40486375698856
  0
LINE
  8
_2-2_in_line
  6
CONTINUOUS
 62
    7
 10
861.47777326990399
 20
428.05000973506412
 11
860.20414675300776
 21
435.27310464532366
  0
LINE
  8
_2-2_in_line
  6
CONTINUOUS
 62
    7
 10
855.28010798794617
 20
434.40486375698856
 11
860.20414675300776
 21
435.27310464532366
  0
LINE
  8
_2-7_ビス
  6
CONTINUOUS
 62
    7
 10
891.52031315463068
 20
424.5651356325111
 11
887.27031150503285
 21
424.5651356325111
  0
LINE
  8
_2-7_ビス
  6
CONTINUOUS
 62
    7
 10
884.39530820583491
 20
427.44013893170904
 11
887.27031150503285
 21
424.5651356325111
  0
LINE
  8
_2-7_ビス
  6
CONTINUOUS
 62
    7
 10
894.39531645382863
 20
427.44013893170904
 11
884.39530820583491
 21
427.44013893170904
  0
LINE
  8
_2-7_ビス
  6
CONTINUOUS
 62
    7
 10
884.39530820583491
 20
427.94016532529031
 11
884.39530820583491
 21
427.44013893170904
  0
LINE
  8
_2-7_ビス
  6
CONTINUOUS
 62
    7
 10
894.39531645382863
 20
427.44013893170904
 11
894.39531645382863
 21
427.94016532529031
  0
LINE
  8
_2-7_ビス
  6
CONTINUOUS
 62
    7
 10
894.39531645382863
 20
427.94016532529031
 11
884.39530820583491
 21
427.94016532529031
  0
LINE
  8
_2-7_ビス
  6
CONTINUOUS
 62
    7
 10
894.39531645382863
 20
427.44013893170904
 11
891.52031315463068
 21
424.5651356325111
  0
ARC
  8
_2-7_ビス
  6
DASHED3
 62
    7
 10
889.39531232983177
 20
426.67569834365895
 40
1.8403175392666382
 50
217.11750793457031
 51
322.88247680664062
  0
LINE
  8
_2-7_ビス
  6
DASHED3
 62
    7
 10
891.94532816598189
 20
427.44013893170904
 11
890.86280368593384
 21
425.56511418772561
  0
LINE
  8
_2-7_ビス
  6
DASHED3
 62
    7
 10
886.84533360965793
 20
427.44013893170904
 11
887.9278580897037
 21
425.56511418772561
  0
LINE
  8
_2-7_ビス
  6
DASHED3
 62
    7
 10
886.84533360965793
 20
427.44013893170904
 11
886.84533360965793
 21
427.94016532529031
  0
LINE
  8
_2-7_ビス
  6
DASHED3
 62
    7
 10
891.94532816598189
 20
427.44013893170904
 11
891.94532816598189
 21
427.94016532529031
  0
ARC
  8
_2-6_鋼板__アングル
  6
CONTINUOUS
 62
    2
 10
870.25412856783964
 20
437.01628441943672
 40
10.199999999999999
 50
190.00000000000003
 51
270
  0
ARC
  8
_2-6_鋼板__アングル
  6
CONTINUOUS
 62
    2
 10
870.25412856783964
 20
437.01628441943672
 40
9
 50
190.00000000000003
 51
270
  0
LINE
  8
_2-6_鋼板__アングル
  6
CONTINUOUS
 62
    2
 10
859.10016946875635
 20
441.53407094676982
 11
860.20908948711599
 21
435.24507300723417
  0
LINE
  8
_2-6_鋼板__アングル
  6
CONTINUOUS
 62
    2
 10
860.28193877237049
 20
441.74244875996965
 11
861.39085879073014
 21
435.453450820434
  0
ARC
  8
_2-6_鋼板__アングル
  6
CONTINUOUS
 62
    2
 10
854.66853458020046
 20
440.75265414726846
 40
5.700000000000002
 50
10.000000000000218
 51
42.27368900609229
  0
ARC
  8
_2-6_鋼板__アングル
  6
CONTINUOUS
 62
    2
 10
854.66853458020046
 20
440.75265414726846
 40
4.5
 50
10.000000000000014
 51
42.27368900609229
  0
LINE
  8
_2-6_鋼板__アングル
  6
CONTINUOUS
 62
    2
 10
857.99826491048157
 20
443.7796817202518
 11
856.87408063849693
 21
445.01628441943626
  0
LINE
  8
_2-6_鋼板__アングル
  6
CONTINUOUS
 62
    2
 10
857.76200872657205
 20
445.82349177223182
 11
856.87408063849693
 21
445.01628441943626
  0
LINE
  8
_2-6_鋼板__アングル
  6
CONTINUOUS
 62
    2
 10
912.11573185875727
 20
426.45814926516596
 11
914.39531232983177
 21
424.51628441943672
  0
ARC
  8
_2-6_鋼板__アングル
  6
CONTINUOUS
 62
    2
 10
911.14303217535712
 20
425.31628441943712
 40
2.7000000000000002
 50
49.573921259901446
 51
90
  0
ARC
  8
_2-6_鋼板__アングル
  6
CONTINUOUS
 62
    2
 10
911.14303217535712
 20
425.31628441943599
 40
1.5000000000000002
 50
49.573921259901446
 51
90
  0
LINE
  8
_2-6_鋼板__アングル
  6
CONTINUOUS
 62
    2
 10
915.17347207655098
 20
425.42977629602024
 11
914.39531232983177
 21
424.51628441943672
  0
LINE
  8
_2-6_鋼板__アングル
  6
CONTINUOUS
 62
    2
 10
883.54232548382447
 20
427.5185819932874
 11
886.14531232983131
 21
425.51628441943694
  0
ARC
  8
_2-6_鋼板__アングル
  6
CONTINUOUS
 62
    2
 10
882.07901965778524
 20
425.61628441943685
 40
2.3999999999999999
 50
52.431407971173961
 51
90
  0
LINE
  8
_2-6_鋼板__アングル
  6
CONTINUOUS
 62
    2
 10
895.24829917583907
 20
427.5185819932874
 11
892.64531232983222
 21
425.51628441943694
  0
ARC
  8
_2-6_鋼板__アングル
  6
CONTINUOUS
 62
    2
 10
896.7116050018783
 20
425.61628441943685
 40
2.3999999999999999
 50
90
 51
127.56859202882603
  0
LINE
  8
_2-6_鋼板__アングル
  6
CONTINUOUS
 62
    4
 10
882.07901965778524
 20
428.01628441943694
 11
896.7116050018783
 21
428.01628441943694
  0
LINE
  8
_2-6_鋼板__アングル
  6
CONTINUOUS
 62
    2
 10
886.14531232983131
 20
425.51628441943694
 11
885.41365941681283
 21
424.5651356325111
  0
LINE
  8
_2-6_鋼板__アングル
  6
CONTINUOUS
 62
    2
 10
892.64531232983222
 20
425.51628441943694
 11
893.3769652428507
 21
424.5651356325111
  0
LINE
  8
_2-6_鋼板__アングル
  6
CONTINUOUS
 62
    4
 10
893.3769652428507
 20
424.5651356325111
 11
885.41365941681283
 21
424.5651356325111
  0
LINE
  8
_2-6_鋼板__アングル
  6
CONTINUOUS
 62
    2
 10
882.81067257080599
 20
426.56743320636156
 11
885.41365941681283
 21
424.5651356325111
  0
ARC
  8
_2-6_鋼板__アングル
  6
CONTINUOUS
 62
    2
 10
882.07901965778524
 20
425.61628441943685
 40
1.2
 50
52.431407971174927
 51
90
  0
LINE
  8
_2-6_鋼板__アングル
  6
CONTINUOUS
 62
    2
 10
895.97995208885754
 20
426.56743320636156
 11
893.3769652428507
 21
424.5651356325111
  0
ARC
  8
_2-6_鋼板__アングル
  6
CONTINUOUS
 62
    2
 10
896.7116050018783
 20
425.61628441943685
 40
1.2
 50
89.999999999999943
 51
127.56859202882802
  0
LINE
  8
_2-6_鋼板__アングル
  6
CONTINUOUS
 62
    2
 10
870.25412856783964
 20
428.01628441943694
 11
882.07901965778524
 21
428.01628441943694
  0
LINE
  8
_2-6_鋼板__アングル
  6
CONTINUOUS
 62
    2
 10
896.7116050018783
 20
428.01628441943694
 11
911.14303217535712
 21
428.01628441943694
  0
LINE
  8
_2-6_鋼板__アングル
  6
CONTINUOUS
 62
    2
 10
870.25412856783964
 20
426.8162844194369
 11
882.07901965778524
 21
426.8162844194369
  0
LINE
  8
_2-6_鋼板__アングル
  6
CONTINUOUS
 62
    2
 10
896.7116050018783
 20
426.8162844194369
 11
911.14303217535712
 21
426.8162844194369
  0
LINE
  8
_2-4_out_line
  6
CONTINUOUS
 62
    2
 10
866.4519918907215
 20
435.54419109950959
 11
865.20597753743209
 21
442.61068964830474
  0
LINE
  8
_2-6_鋼板__アングル
  6
CONTINUOUS
 62
    2
 10
912.89389160547648
 20
427.37164114175062
 11
915.17347207655098
 21
425.42977629602024
  0
LINE
  8
_2-4_out_line
  6
CONTINUOUS
 62
    2
 10
913.92072322544186
 20
433.06513563251019
 11
918.02941887761313
 21
429.5651356325111
  0
LINE
  8
_2-4_out_line
  6
CONTINUOUS
 62
    2
 10
869.406415149758
 20
433.06513563251019
 11
913.92072322544186
 21
433.06513563251019
  0
LINE
  8
_2-2_in_line
  6
CONTINUOUS
 62
    7
 10
915.17347207655098
 20
425.42977629602024
 11
916.18848502936635
 21
424.5651356325111
  0
LINE
  8
_2-2_in_line
  6
CONTINUOUS
 62
    7
 10
855.28010798794617
 20
419.5651356325111
 11
887.39531232983131
 21
419.5651356325111
  0
LINE
  8
_2-2_in_line
  6
CONTINUOUS
 62
    7
 10
955.19135296243439
 20
429.5651356325111
 11
955.20957174995692
 21
429.69604057919287
  0
LINE
  8
_2-2_in_line
  6
CONTINUOUS
 62
    7
 10
955.20957174995692
 20
429.69604057919287
 11
955.24263852961758
 21
429.92111451421169
  0
LINE
  8
_2-2_in_line
  6
CONTINUOUS
 62
    7
 10
955.24263852961758
 20
429.92111451421169
 11
955.28030274548405
 21
430.14445442446959
  0
LINE
  8
_2-2_in_line
  6
CONTINUOUS
 62
    7
 10
955.28030274548405
 20
430.14445442446959
 11
955.32547416730813
 21
430.36496282594089
  0
LINE
  8
_2-2_in_line
  6
CONTINUOUS
 62
    7
 10
955.32547416730813
 20
430.36496282594089
 11
955.3810625648382
 21
430.58154223459997
  0
LINE
  8
_2-2_in_line
  6
CONTINUOUS
 62
    7
 10
955.3810625648382
 20
430.58154223459997
 11
955.4499777078272
 21
430.79309516641888
  0
LINE
  8
_2-2_in_line
  6
CONTINUOUS
 62
    7
 10
955.4499777078272
 20
430.79309516641888
 11
955.49720140612044
 21
430.91306026941129
  0
LINE
  8
_2-2_in_line
  6
CONTINUOUS
 62
    7
 10
955.49720140612044
 20
430.91306026941129
 11
955.53814246738375
 21
431.00517710900067
  0
LINE
  8
_2-2_in_line
  6
CONTINUOUS
 62
    7
 10
955.53814246738375
 20
431.00517710900067
 11
955.61655764006537
 21
431.16089141201473
  0
LINE
  8
_2-2_in_line
  6
CONTINUOUS
 62
    7
 10
955.61655764006537
 20
431.16089141201473
 11
955.70366465439156
 21
431.31289501489437
  0
LINE
  8
_2-2_in_line
  6
CONTINUOUS
 62
    7
 10
955.70366465439156
 20
431.31289501489437
 11
955.79804964354003
 21
431.46144753069439
  0
LINE
  8
_2-2_in_line
  6
CONTINUOUS
 62
    7
 10
955.79804964354003
 20
431.46144753069439
 11
955.89829874068391
 21
431.60680857246734
  0
LINE
  8
_2-2_in_line
  6
CONTINUOUS
 62
    7
 10
955.89829874068391
 20
431.60680857246734
 11
956.00299807900092
 21
431.74923775326351
  0
LINE
  8
_2-2_in_line
  6
CONTINUOUS
 62
    7
 10
956.00299807900092
 20
431.74923775326351
 11
956.06520565867959
 21
431.83060560046715
  0
LINE
  8
_2-2_in_line
  6
CONTINUOUS
 62
    7
 10
956.06520565867959
 20
431.83060560046715
 11
956.13942193261528
 21
431.92528919327106
  0
LINE
  8
_2-2_in_line
  6
CONTINUOUS
 62
    7
 10
956.13942193261528
 20
431.92528919327106
 11
956.2696468727197
 21
432.08600798713223
  0
LINE
  8
_2-2_in_line
  6
CONTINUOUS
 62
    7
 10
956.2696468727197
 20
432.08600798713223
 11
956.40249869193985
 21
432.24387474952255
  0
LINE
  8
_2-2_in_line
  6
CONTINUOUS
 62
    7
 10
956.40249869193985
 20
432.24387474952255
 11
956.53769683006863
 21
432.39929524298805
  0
LINE
  8
_2-2_in_line
  6
CONTINUOUS
 62
    7
 10
956.53769683006863
 20
432.39929524298805
 11
956.6749607268921
 21
432.55267523007706
  0
LINE
  8
_2-2_in_line
  6
CONTINUOUS
 62
    7
 10
956.6749607268921
 20
432.55267523007706
 11
956.81400982219975
 21
432.70442047333108
  0
LINE
  8
_2-2_in_line
  6
CONTINUOUS
 62
    7
 10
956.81400982219975
 20
432.70442047333108
 11
956.89536572011298
 21
432.79184356633823
  0
LINE
  8
_2-2_in_line
  6
CONTINUOUS
 62
    7
 10
956.89536572011298
 20
432.79184356633823
 11
956.98100079352662
 21
432.88291374073697
  0
LINE
  8
_2-2_in_line
  6
CONTINUOUS
 62
    7
 10
956.98100079352662
 20
432.88291374073697
 11
957.13019815183407
 21
433.03861548957047
  0
LINE
  8
_2-2_in_line
  6
CONTINUOUS
 62
    7
 10
957.13019815183407
 20
433.03861548957047
 11
957.28194836540501
 21
433.19196146796958
  0
LINE
  8
_2-2_in_line
  6
CONTINUOUS
 62
    7
 10
957.28194836540501
 20
433.19196146796958
 11
957.43693744490747
 21
433.34214910688888
  0
LINE
  8
_2-2_in_line
  6
CONTINUOUS
 62
    7
 10
957.43693744490747
 20
433.34214910688888
 11
957.59585140101399
 21
433.48837583728755
  0
LINE
  8
_2-2_in_line
  6
CONTINUOUS
 62
    7
 10
957.59585140101399
 20
433.48837583728755
 11
957.75937624439598
 21
433.62983909011564
  0
LINE
  8
_2-2_in_line
  6
CONTINUOUS
 62
    7
 10
957.75937624439598
 20
433.62983909011564
 11
957.85660368598292
 21
433.70938889739637
  0
LINE
  8
_2-2_in_line
  6
CONTINUOUS
 62
    7
 10
957.85660368598292
 20
433.70938889739637
 11
957.94425738552468
 21
433.7781142498925
  0
LINE
  8
_2-2_in_line
  6
CONTINUOUS
 62
    7
 10
957.94425738552468
 20
433.7781142498925
 11
958.09887048544488
 21
433.89232701769106
  0
LINE
  8
_2-2_in_line
  6
CONTINUOUS
 62
    7
 10
958.09887048544488
 20
433.89232701769106
 11
958.25783562863512
 21
434.00029970662263
  0
LINE
  8
_2-2_in_line
  6
CONTINUOUS
 62
    7
 10
958.25783562863512
 20
434.00029970662263
 11
958.42108228586176
 21
434.1010749380489
  0
LINE
  8
_2-2_in_line
  6
CONTINUOUS
 62
    7
 10
958.42108228586176
 20
434.1010749380489
 11
958.58853992789227
 21
434.19369533333611
  0
LINE
  8
_2-2_in_line
  6
CONTINUOUS
 62
    7
 10
958.58853992789227
 20
434.19369533333611
 11
958.76013802549642
 21
434.27720351384596
  0
LINE
  8
_2-2_in_line
  6
CONTINUOUS
 62
    7
 10
958.76013802549642
 20
434.27720351384596
 11
958.86153428666466
 21
434.32108578476846
  0
LINE
  8
_2-2_in_line
  6
CONTINUOUS
 62
    7
 10
958.86153428666466
 20
434.32108578476846
 11
958.9754397794045
 21
434.36561449803139
  0
LINE
  8
_2-2_in_line
  6
CONTINUOUS
 62
    7
 10
958.9754397794045
 20
434.36561449803139
 11
959.17532823725855
 21
434.43292512644393
  0
LINE
  8
_2-2_in_line
  6
CONTINUOUS
 62
    7
 10
959.17532823725855
 20
434.43292512644393
 11
959.37903033611724
 21
434.48952867794378
  0
LINE
  8
_2-2_in_line
  6
CONTINUOUS
 62
    7
 10
959.37903033611724
 20
434.48952867794378
 11
959.58582941292525
 21
434.53690355167328
  0
LINE
  8
_2-2_in_line
  6
CONTINUOUS
 62
    7
 10
959.58582941292525
 20
434.53690355167328
 11
959.79500880463411
 21
434.57652814678386
  0
LINE
  8
_2-2_in_line
  6
CONTINUOUS
 62
    7
 10
959.79500880463411
 20
434.57652814678386
 11
960.00585184819079
 21
434.60988086241787
  0
LINE
  8
_2-2_in_line
  6
CONTINUOUS
 62
    7
 10
960.00585184819079
 20
434.60988086241787
 11
960.12862069622065
 21
434.62693422845223
  0
LINE
  8
_2-2_in_line
  6
CONTINUOUS
 62
    7
 10
960.12862069622065
 20
434.62693422845223
 11
960.27707766630306
 21
434.64565122772046
  0
LINE
  8
_2-2_in_line
  6
CONTINUOUS
 62
    7
 10
960.27707766630306
 20
434.64565122772046
 11
960.53339793158875
 21
434.67255798880888
  0
LINE
  8
_2-2_in_line
  6
CONTINUOUS
 62
    7
 10
960.53339793158875
 20
434.67255798880888
 11
960.78979326016997
 21
434.69141623610813
  0
LINE
  8
_2-2_in_line
  6
CONTINUOUS
 62
    7
 10
960.78979326016997
 20
434.69141623610813
 11
961.04582109680086
 21
434.70076232729571
  0
LINE
  8
_2-2_in_line
  6
CONTINUOUS
 62
    7
 10
961.04582109680086
 20
434.70076232729571
 11
961.30103888623444
 21
434.69913262004911
  0
LINE
  8
_2-2_in_line
  6
CONTINUOUS
 62
    7
 10
961.30103888623444
 20
434.69913262004911
 11
961.55500407322597
 21
434.68506347204584
  0
LINE
  8
_2-2_in_line
  6
CONTINUOUS
 62
    7
 10
961.55500407322597
 20
434.68506347204584
 11
961.70155554946155
 21
434.67062686326517
  0
LINE
  8
_2-2_in_line
  6
CONTINUOUS
 62
    7
 10
961.70155554946155
 20
434.67062686326517
 11
961.80889974102888
 21
434.65693707717992
  0
LINE
  8
_2-2_in_line
  6
CONTINUOUS
 62
    7
 10
961.80889974102888
 20
434.65693707717992
 11
961.99334980179833
 21
434.62797744593945
  0
LINE
  8
_2-2_in_line
  6
CONTINUOUS
 62
    7
 10
961.99334980179833
 20
434.62797744593945
 11
962.1773206592386
 21
434.59366196440033
  0
LINE
  8
_2-2_in_line
  6
CONTINUOUS
 62
    7
 10
962.1773206592386
 20
434.59366196440033
 11
962.36117669509645
 21
434.55564713837293
  0
LINE
  8
_2-2_in_line
  6
CONTINUOUS
 62
    7
 10
962.36117669509645
 20
434.55564713837293
 11
962.54528229111747
 21
434.51558947366766
  0
LINE
  8
_2-2_in_line
  6
CONTINUOUS
 62
    7
 10
962.54528229111747
 20
434.51558947366766
 11
962.73000182904502
 21
434.47514547609035
  0
LINE
  8
_2-2_in_line
  6
CONTINUOUS
 62
    7
 10
962.73000182904502
 20
434.47514547609035
 11
962.83756405458098
 21
434.45216368920501
  0
LINE
  8
_2-2_in_line
  6
CONTINUOUS
 62
    7
 10
962.83756405458098
 20
434.45216368920501
 11
962.95967528590927
 21
434.4268899677063
  0
LINE
  8
_2-2_in_line
  6
CONTINUOUS
 62
    7
 10
962.95967528590927
 20
434.4268899677063
 11
963.17047330947253
 21
434.38354045147025
  0
LINE
  8
_2-2_in_line
  6
CONTINUOUS
 62
    7
 10
963.17047330947253
 20
434.38354045147025
 11
963.3801785333103
 21
434.33740729332203
  0
LINE
  8
_2-2_in_line
  6
CONTINUOUS
 62
    7
 10
963.3801785333103
 20
434.33740729332203
 11
963.58713548257788
 21
434.28492125161983
  0
LINE
  8
_2-2_in_line
  6
CONTINUOUS
 62
    7
 10
963.58713548257788
 20
434.28492125161983
 11
963.78968868243282
 21
434.22251308471959
  0
LINE
  8
_2-2_in_line
  6
CONTINUOUS
 62
    7
 10
963.78968868243282
 20
434.22251308471959
 11
963.9861826580327
 21
434.14661355098633
  0
LINE
  8
_2-2_in_line
  6
CONTINUOUS
 62
    7
 10
963.9861826580327
 20
434.14661355098633
 11
964.09672048415337
 21
434.09500361033042
  0
LINE
  8
_2-2_in_line
  6
CONTINUOUS
 62
    7
 10
964.09672048415337
 20
434.09500361033042
 11
964.19604271533194
 21
434.04191813840544
  0
LINE
  8
_2-2_in_line
  6
CONTINUOUS
 62
    7
 10
964.19604271533194
 20
434.04191813840544
 11
964.36146663052318
 21
433.93863185730697
  0
LINE
  8
_2-2_in_line
  6
CONTINUOUS
 62
    7
 10
964.36146663052318
 20
433.93863185730697
 11
964.51951820188219
 21
433.82208222557483
  0
LINE
  8
_2-2_in_line
  6
CONTINUOUS
 62
    7
 10
964.51951820188219
 20
433.82208222557483
 11
964.67019324829926
 21
433.69415555225987
  0
LINE
  8
_2-2_in_line
  6
CONTINUOUS
 62
    7
 10
964.67019324829926
 20
433.69415555225987
 11
964.81348758866466
 21
433.55673814641295
  0
LINE
  8
_2-2_in_line
  6
CONTINUOUS
 62
    7
 10
964.81348758866466
 20
433.55673814641295
 11
964.94939704186982
 21
433.41171631708494
  0
LINE
  8
_2-2_in_line
  6
CONTINUOUS
 62
    7
 10
964.94939704186982
 20
433.41171631708494
 11
965.02483912185517
 21
433.32486261308577
  0
LINE
  8
_2-2_in_line
  6
CONTINUOUS
 62
    7
 10
965.02483912185517
 20
433.32486261308577
 11
965.10913414622655
 21
433.22229522509633
  0
LINE
  8
_2-2_in_line
  6
CONTINUOUS
 62
    7
 10
965.10913414622655
 20
433.22229522509633
 11
965.24730600549537
 21
433.04101021535917
  0
LINE
  8
_2-2_in_line
  6
CONTINUOUS
 62
    7
 10
965.24730600549537
 20
433.04101021535917
 11
965.37741627251398
 21
432.85478554074007
  0
LINE
  8
_2-2_in_line
  6
CONTINUOUS
 62
    7
 10
965.37741627251398
 20
432.85478554074007
 11
965.50063617450041
 21
432.66441947964995
  0
LINE
  8
_2-2_in_line
  6
CONTINUOUS
 62
    7
 10
965.50063617450041
 20
432.66441947964995
 11
965.61813693867043
 21
432.47071031050655
  0
LINE
  8
_2-2_in_line
  6
CONTINUOUS
 62
    7
 10
965.61813693867043
 20
432.47071031050655
 11
965.73108979223866
 21
432.27445631172304
  0
LINE
  8
_2-2_in_line
  6
CONTINUOUS
 62
    7
 10
965.73108979223866
 20
432.27445631172304
 11
965.79498011909868
 21
432.15977751469427
  0
LINE
  8
_2-2_in_line
  6
CONTINUOUS
 62
    7
 10
965.79498011909868
 20
432.15977751469427
 11
965.86224748660447
 21
432.03671092255763
  0
LINE
  8
_2-2_in_line
  6
CONTINUOUS
 62
    7
 10
965.86224748660447
 20
432.03671092255763
 11
965.97622872781221
 21
431.8235041661892
  0
LINE
  8
_2-2_in_line
  6
CONTINUOUS
 62
    7
 10
965.97622872781221
 20
431.8235041661892
 11
966.08834327617706
 21
431.60920716665305
  0
LINE
  8
_2-2_in_line
  6
CONTINUOUS
 62
    7
 10
966.08834327617706
 20
431.60920716665305
 11
966.19935988542443
 21
431.39405790557976
  0
LINE
  8
_2-2_in_line
  6
CONTINUOUS
 62
    7
 10
966.19935988542443
 20
431.39405790557976
 11
966.31004730928203
 21
431.1782943645976
  0
LINE
  8
_2-2_in_line
  6
CONTINUOUS
 62
    7
 10
966.31004730928203
 20
431.1782943645976
 11
966.42117430147982
 21
430.9621545253417
  0
LINE
  8
_2-2_in_line
  6
CONTINUOUS
 62
    7
 10
966.42117430147982
 20
430.9621545253417
 11
966.48613229611078
 21
430.83671477584221
  0
LINE
  8
_2-2_in_line
  6
CONTINUOUS
 62
    7
 10
966.48613229611078
 20
430.83671477584221
 11
966.57454575028601
 21
430.6678865928352
  0
LINE
  8
_2-2_in_line
  6
CONTINUOUS
 62
    7
 10
966.57454575028601
 20
430.6678865928352
 11
966.73105056621671
 21
430.37849082694765
  0
LINE
  8
_2-2_in_line
  6
CONTINUOUS
 62
    7
 10
966.73105056621671
 20
430.37849082694765
 11
966.89527215944372
 21
430.09378265069745
  0
LINE
  8
_2-2_in_line
  6
CONTINUOUS
 62
    7
 10
966.89527215944372
 20
430.09378265069745
 11
967.0701961468294
 21
429.81672922267808
  0
LINE
  8
_2-2_in_line
  6
CONTINUOUS
 62
    7
 10
967.0701961468294
 20
429.81672922267808
 11
967.2588081452293
 21
429.55029770149213
  0
LINE
  8
_2-2_in_line
  6
CONTINUOUS
 62
    7
 10
967.2588081452293
 20
429.55029770149213
 11
967.46409377150462
 21
429.29745524573536
  0
LINE
  8
_2-2_in_line
  6
CONTINUOUS
 62
    7
 10
967.46409377150462
 20
429.29745524573536
 11
967.59197577933128
 21
429.15820234595503
  0
LINE
  8
_2-2_in_line
  6
CONTINUOUS
 62
    7
 10
967.59197577933128
 20
429.15820234595503
 11
967.63819095163603
 21
429.11109734004458
  0
LINE
  8
_2-2_in_line
  6
CONTINUOUS
 62
    7
 10
967.63819095163603
 20
429.11109734004458
 11
967.71989021317586
 21
429.03175224500774
  0
LINE
  8
_2-2_in_line
  6
CONTINUOUS
 62
    7
 10
967.71989021317586
 20
429.03175224500774
 11
967.80409260550618
 21
428.9549521355666
  0
LINE
  8
_2-2_in_line
  6
CONTINUOUS
 62
    7
 10
967.80409260550618
 20
428.9549521355666
 11
967.89073858100187
 21
428.88090323224151
  0
LINE
  8
_2-2_in_line
  6
CONTINUOUS
 62
    7
 10
967.89073858100187
 20
428.88090323224151
 11
967.97976859203777
 21
428.80981175555053
  0
LINE
  8
_2-2_in_line
  6
CONTINUOUS
 62
    7
 10
967.97976859203777
 20
428.80981175555053
 11
968.07112309098875
 21
428.74188392602082
  0
LINE
  8
_2-2_in_line
  6
CONTINUOUS
 62
    7
 10
968.07112309098875
 20
428.74188392602082
 11
968.12515031588396
 21
428.7040166296315
  0
LINE
  8
_2-2_in_line
  6
CONTINUOUS
 62
    7
 10
968.12515031588396
 20
428.7040166296315
 11
968.21475172697183
 21
428.64472393925371
  0
LINE
  8
_2-2_in_line
  6
CONTINUOUS
 62
    7
 10
968.21475172697183
 20
428.64472393925371
 11
968.3729431711422
 21
428.54831067505802
  0
LINE
  8
_2-2_in_line
  6
CONTINUOUS
 62
    7
 10
968.3729431711422
 20
428.54831067505802
 11
968.53435445817445
 21
428.45698226598688
  0
LINE
  8
_2-2_in_line
  6
CONTINUOUS
 62
    7
 10
968.53435445817445
 20
428.45698226598688
 11
968.69727440646761
 21
428.36809155753645
  0
LINE
  8
_2-2_in_line
  6
CONTINUOUS
 62
    7
 10
968.69727440646761
 20
428.36809155753645
 11
968.85999183442073
 21
428.27899139520059
  0
LINE
  8
_2-2_in_line
  6
CONTINUOUS
 62
    7
 10
968.85999183442073
 20
428.27899139520059
 11
969.02079556043282
 21
428.18703462447547
  0
LINE
  8
_2-2_in_line
  6
CONTINUOUS
 62
    7
 10
969.02079556043282
 20
428.18703462447547
 11
969.11251056875903
 21
428.13134768296368
  0
LINE
  8
_2-2_in_line
  6
CONTINUOUS
 62
    7
 10
969.11251056875903
 20
428.13134768296368
 11
969.20492156115733
 21
428.07198291309123
  0
LINE
  8
_2-2_in_line
  6
CONTINUOUS
 62
    7
 10
969.20492156115733
 20
428.07198291309123
 11
969.36086456331145
 21
427.96448115132353
  0
LINE
  8
_2-2_in_line
  6
CONTINUOUS
 62
    7
 10
969.36086456331145
 20
427.96448115132353
 11
969.51318710553301
 21
427.85149796135602
  0
LINE
  8
_2-2_in_line
  6
CONTINUOUS
 62
    7
 10
969.51318710553301
 20
427.85149796135602
 11
969.66266359426845
 21
427.73423790896049
  0
LINE
  8
_2-2_in_line
  6
CONTINUOUS
 62
    7
 10
969.66266359426845
 20
427.73423790896049
 11
969.81006843596197
 21
427.61390555991102
  0
LINE
  8
_2-2_in_line
  6
CONTINUOUS
 62
    7
 10
969.81006843596197
 20
427.61390555991102
 11
969.95617603705773
 21
427.49170547998619
  0
LINE
  8
_2-2_in_line
  6
CONTINUOUS
 62
    7
 10
969.95617603705773
 20
427.49170547998619
 11
970.04062920646084
 21
427.42044830089344
  0
LINE
  8
_2-2_in_line
  6
CONTINUOUS
 62
    7
 10
970.04062920646084
 20
427.42044830089344
 11
970.14647107007909
 21
427.33096771699411
  0
LINE
  8
_2-2_in_line
  6
CONTINUOUS
 62
    7
 10
970.14647107007909
 20
427.33096771699411
 11
970.3280438483896
 21
427.17588466319785
  0
LINE
  8
_2-2_in_line
  6
CONTINUOUS
 62
    7
 10
970.3280438483896
 20
427.17588466319785
 11
970.50721850101445
 21
427.01849549495637
  0
LINE
  8
_2-2_in_line
  6
CONTINUOUS
 62
    7
 10
970.50721850101445
 20
427.01849549495637
 11
970.6825506272387
 21
426.85730529703096
  0
LINE
  8
_2-2_in_line
  6
CONTINUOUS
 62
    7
 10
970.6825506272387
 20
426.85730529703096
 11
970.85259582634853
 21
426.69081915418064
  0
LINE
  8
_2-2_in_line
  6
CONTINUOUS
 62
    7
 10
970.85259582634853
 20
426.69081915418064
 11
971.01590969762674
 21
426.51754215117126
  0
LINE
  8
_2-2_in_line
  6
CONTINUOUS
 62
    7
 10
971.01590969762674
 20
426.51754215117126
 11
971.10697827956619
 21
426.41334084296022
  0
LINE
  8
_2-2_in_line
  6
CONTINUOUS
 62
    7
 10
971.10697827956619
 20
426.41334084296022
 11
971.15863755220266
 21
426.35125356743902
  0
LINE
  8
_2-2_in_line
  6
CONTINUOUS
 62
    7
 10
971.15863755220266
 20
426.35125356743902
 11
971.24496266250821
 21
426.2417808276
  0
LINE
  8
_2-2_in_line
  6
CONTINUOUS
 62
    7
 10
971.24496266250821
 20
426.2417808276
 11
971.32732253464133
 21
426.1292795698414
  0
LINE
  8
_2-2_in_line
  6
CONTINUOUS
 62
    7
 10
971.32732253464133
 20
426.1292795698414
 11
971.4051432253857
 21
426.01379863713009
  0
LINE
  8
_2-2_in_line
  6
CONTINUOUS
 62
    7
 10
971.4051432253857
 20
426.01379863713009
 11
971.47785079153073
 21
425.89538687243748
  0
LINE
  8
_2-2_in_line
  6
CONTINUOUS
 62
    7
 10
971.47785079153073
 20
425.89538687243748
 11
971.54487128985897
 21
425.77409311873271
  0
LINE
  8
_2-2_in_line
  6
CONTINUOUS
 62
    7
 10
971.54487128985897
 20
425.77409311873271
 11
971.58091120094673
 21
425.70244146089226
  0
LINE
  8
_2-2_in_line
  6
CONTINUOUS
 62
    7
 10
971.58091120094673
 20
425.70244146089226
 11
971.62756305430412
 21
425.60096556984081
  0
LINE
  8
_2-2_in_line
  6
CONTINUOUS
 62
    7
 10
971.62756305430412
 20
425.60096556984081
 11
971.69904981265495
 21
425.42220119079093
  0
LINE
  8
_2-2_in_line
  6
CONTINUOUS
 62
    7
 10
971.69904981265495
 20
425.42220119079093
 11
971.76100115127815
 21
425.23938077264165
  0
LINE
  8
_2-2_in_line
  6
CONTINUOUS
 62
    7
 10
971.76100115127815
 20
425.23938077264165
 11
971.81549903954738
 21
425.05338991345116
  0
LINE
  8
_2-2_in_line
  6
CONTINUOUS
 62
    7
 10
971.81549903954738
 20
425.05338991345116
 11
971.864625446834
 21
424.86511421127761
  0
LINE
  8
_2-2_in_line
  6
CONTINUOUS
 62
    7
 10
971.864625446834
 20
424.86511421127761
 11
971.91046234251166
 21
424.67543926417238
  0
LINE
  8
_2-2_in_line
  6
CONTINUOUS
 62
    7
 10
971.91046234251166
 20
424.67543926417238
 11
971.93636089198185
 21
424.5651356325111
  0
LINE
  8
_2-2_in_line
  6
CONTINUOUS
 62
    7
 10
865.6308845013607
 20
424.5651356325111
 11
961.18848502936635
 21
424.5651356325111
  0
LINE
  8
_2-4_out_line
  6
CONTINUOUS
 62
    2
 10
918.02941887761313
 20
429.5651356325111
 11
961.18848502936635
 21
429.5651356325111
  0
LINE
  8
_2-7_ビス
  6
CONTINUOUS
 62
    7
 10
892.39531232983245
 20
380.46965045959882
 11
892.39531232983245
 21
384.5651356325111
  0
LINE
  8
_2-7_ビス
  6
CONTINUOUS
 62
    7
 10
892.39531232983245
 20
384.5651356325111
 11
889.39531232983177
 21
384.5651356325111
  0
LINE
  8
_2-7_ビス
  6
CONTINUOUS
 62
    7
 10
892.39531232983245
 20
380.46965045959882
 11
893.14531232983177
 21
379.64508953939503
  0
LINE
  8
_2-7_ビス
  6
CONTINUOUS
 62
    7
 10
893.14531232983177
 20
379.64508953939503
 11
893.14531232983177
 21
377.54648381228026
  0
LINE
  8
_2-7_ビス
  6
CONTINUOUS
 62
    7
 10
893.14531232983177
 20
377.54648381228026
 11
892.59709307983121
 21
373.42889049903124
  0
LINE
  8
_2-7_ビス
  6
CONTINUOUS
 62
    7
 10
892.59709307983121
 20
373.42889049903124
 11
892.35516932983137
 21
373.0212759905105
  0
LINE
  8
_2-7_ビス
  6
CONTINUOUS
 62
    7
 10
892.35516932983137
 20
373.0212759905105
 11
892.39531232983245
 21
373.0212759905105
  0
LINE
  8
_2-7_ビス
  6
CONTINUOUS
 62
    7
 10
892.39531232983245
 20
373.0212759905105
 11
892.39531232983245
 21
371.20724090391082
  0
LINE
  8
_2-7_ビス
  6
CONTINUOUS
 62
    7
 10
892.39531232983245
 20
371.20724090391082
 11
891.96229976926452
 21
370.38267950091085
  0
LINE
  8
_2-7_ビス
  6
CONTINUOUS
 62
    7
 10
892.0922035798319
 20
370.13531108001007
 11
893.07031232983127
 21
370.13531108001007
  0
LINE
  8
_2-7_ビス
  6
CONTINUOUS
 62
    7
 10
893.07031232983127
 20
370.13531108001007
 11
893.07031232983127
 21
365.90192048613108
  0
LINE
  8
_2-7_ビス
  6
CONTINUOUS
 62
    7
 10
893.07031232983127
 20
365.90192048613108
 11
892.56884282983128
 21
364.94057424111065
  0
LINE
  8
_2-7_ビス
  6
CONTINUOUS
 62
    7
 10
892.56884282983128
 20
364.94057424111065
 11
892.56406232983159
 21
364.94057424111065
  0
LINE
  8
_2-7_ビス
  6
CONTINUOUS
 62
    7
 10
892.56405815654693
 20
364.94057459489272
 11
892.56406232983159
 21
364.94057424111065
  0
LINE
  8
_2-7_ビス
  6
CONTINUOUS
 62
    7
 10
892.56405815654693
 20
364.94057459489272
 11
892.56406232983159
 21
364.94057424111065
  0
LINE
  8
_2-7_ビス
  6
CONTINUOUS
 62
    7
 10
892.53147107983159
 20
363.86864441721104
 11
893.07031232983127
 21
363.86864441721104
  0
LINE
  8
_2-7_ビス
  6
CONTINUOUS
 62
    7
 10
893.07031232983127
 20
363.86864441721104
 11
893.07031232983127
 21
358.07141128043713
  0
LINE
  8
_2-7_ビス
  6
CONTINUOUS
 62
    7
 10
893.07031232983127
 20
358.07141128043713
 11
892.56406514277137
 21
357.10725991067238
  0
LINE
  8
_2-7_ビス
  6
CONTINUOUS
 62
    7
 10
892.56406232983159
 20
357.10724091261045
 11
892.5604706994759
 21
357.58469230985088
  0
LINE
  8
_2-7_ビス
  6
CONTINUOUS
 62
    7
 10
892.5604706994759
 20
357.58469230985088
 11
892.23979069185225
 21
357.60197775441088
  0
LINE
  8
_2-7_ビス
  6
CONTINUOUS
 62
    7
 10
892.08112865168437
 20
357.84934617531053
 11
892.53147107983159
 21
358.67390757831049
  0
LINE
  8
_2-7_ビス
  6
CONTINUOUS
 62
    7
 10
892.53147107983159
 20
358.67390757831049
 11
892.53147123195481
 21
359.1513590473055
  0
LINE
  8
_2-7_ビス
  6
CONTINUOUS
 62
    7
 10
892.53147123195481
 20
359.1513590473055
 11
892.18343882983254
 21
359.16864442011092
  0
LINE
  8
_2-7_ビス
  6
CONTINUOUS
 62
    7
 10
892.02384908011118
 20
359.41601284101057
 11
892.53147107983159
 21
360.24057424401053
  0
LINE
  8
_2-7_ビス
  6
CONTINUOUS
 62
    7
 10
892.53147107983159
 20
360.24057424401053
 11
892.53147107983159
 21
360.71802580511917
  0
LINE
  8
_2-7_ビス
  6
CONTINUOUS
 62
    7
 10
892.53147107983159
 20
360.71802580511917
 11
892.18343882983254
 21
360.73531108581096
  0
LINE
  8
_2-7_ビス
  6
CONTINUOUS
 62
    7
 10
892.02384908011118
 20
360.98267950671061
 11
892.53147107983159
 21
361.80724090971057
  0
LINE
  8
_2-7_ビス
  6
CONTINUOUS
 62
    7
 10
892.53147107983159
 20
361.80724090971057
 11
892.53147107983159
 21
362.28469247081921
  0
LINE
  8
_2-7_ビス
  6
CONTINUOUS
 62
    7
 10
892.53147107983159
 20
362.28469247081921
 11
892.18343882983254
 21
362.301977751511
  0
LINE
  8
_2-7_ビス
  6
CONTINUOUS
 62
    7
 10
892.02384908011118
 20
362.54934617241065
 11
892.53147123195481
 21
363.37390757541061
  0
LINE
  8
_2-7_ビス
  6
CONTINUOUS
 62
    7
 10
892.53147123195481
 20
363.37390757541061
 11
892.53147107983159
 21
363.86864441721104
  0
LINE
  8
_2-7_ビス
  6
CONTINUOUS
 62
    7
 10
892.56405815654693
 20
364.94057459489272
 11
892.56037295530155
 21
365.4180260638866
  0
LINE
  8
_2-7_ビス
  6
CONTINUOUS
 62
    7
 10
892.56037295530155
 20
365.4180260638866
 11
892.24292807983238
 21
365.43531108291108
  0
LINE
  8
_2-7_ビス
  6
CONTINUOUS
 62
    7
 10
892.08083593951164
 20
365.68267950381073
 11
892.53147123195481
 21
366.50724090681069
  0
LINE
  8
_2-7_ビス
  6
CONTINUOUS
 62
    7
 10
892.53147123195481
 20
366.50724090681069
 11
892.53147123195481
 21
366.98469237580457
  0
LINE
  8
_2-7_ビス
  6
CONTINUOUS
 62
    7
 10
892.53147123195481
 20
366.98469237580457
 11
892.18343882983254
 21
367.00197774861113
  0
LINE
  8
_2-7_ビス
  6
CONTINUOUS
 62
    7
 10
892.02384908011118
 20
367.24934616951077
 11
892.53147107983159
 21
368.07390757251073
  0
LINE
  8
_2-7_ビス
  6
CONTINUOUS
 62
    7
 10
892.53147107983159
 20
368.07390757251073
 11
892.53147123195481
 21
368.55135904150461
  0
LINE
  8
_2-7_ビス
  6
CONTINUOUS
 62
    7
 10
892.53147123195481
 20
368.55135904150461
 11
892.18255273734349
 21
368.56887599547053
  0
LINE
  8
_2-7_ビス
  6
CONTINUOUS
 62
    7
 10
892.02384908011118
 20
368.81601283521081
 11
892.53147123195481
 21
369.64057423821077
  0
LINE
  8
_2-7_ビス
  6
CONTINUOUS
 62
    7
 10
892.53147123195481
 20
369.64057423821077
 11
892.5314710743246
 21
370.13531108001007
  0
LINE
  8
_2-7_ビス
  6
CONTINUOUS
 62
    7
 10
892.53147107983159
 20
356.03531108871084
 11
893.07031232983127
 21
356.03531108871084
  0
LINE
  8
_2-7_ビス
  6
CONTINUOUS
 62
    7
 10
893.07031232983127
 20
356.03531108871084
 11
893.07031232983127
 21
352.78706935387322
  0
LINE
  8
_2-7_ビス
  6
CONTINUOUS
 62
    7
 10
893.07031232983127
 20
352.78706935387322
 11
892.56452657983209
 21
349.27390758411025
  0
LINE
  8
_2-7_ビス
  6
CONTINUOUS
 62
    7
 10
892.56452657983209
 20
349.27390758411025
 11
892.56379206216798
 21
349.75135866825144
  0
LINE
  8
_2-7_ビス
  6
CONTINUOUS
 62
    7
 10
892.56379206216798
 20
349.75135866825144
 11
892.25510357983103
 21
349.76864442591068
  0
LINE
  8
_2-7_ビス
  6
CONTINUOUS
 62
    7
 10
892.56452657983209
 20
349.27390758411025
 11
892.13104976926479
 21
348.44934618111029
  0
LINE
  8
_2-7_ビス
  6
CONTINUOUS
 62
    7
 10
892.11054701504372
 20
350.01601284681033
 11
892.56114934850393
 21
350.84057424981029
  0
LINE
  8
_2-7_ビス
  6
CONTINUOUS
 62
    7
 10
892.56114934850393
 20
350.84057424981029
 11
892.55906444424204
 21
351.31802533395035
  0
LINE
  8
_2-7_ビス
  6
CONTINUOUS
 62
    7
 10
892.55906444424204
 20
351.31802533395035
 11
892.2367375798317
 21
351.33531109161072
  0
LINE
  8
_2-7_ビス
  6
CONTINUOUS
 62
    7
 10
892.08823208401418
 20
351.58267951251037
 11
892.55209994333745
 21
352.40724053065651
  0
LINE
  8
_2-7_ビス
  6
CONTINUOUS
 62
    7
 10
892.55209994333745
 20
352.40724053065651
 11
892.54803710264105
 21
352.88469199965152
  0
LINE
  8
_2-7_ビス
  6
CONTINUOUS
 62
    7
 10
892.54803710264105
 20
352.88469199965152
 11
892.2133837473732
 21
352.90197775731076
  0
LINE
  8
_2-7_ビス
  6
CONTINUOUS
 62
    7
 10
892.05612913120467
 20
353.14934617821041
 11
892.53633175541017
 21
353.97390719635655
  0
LINE
  8
_2-7_ビス
  6
CONTINUOUS
 62
    7
 10
892.53633175541017
 20
353.97390719635655
 11
892.53147107983159
 21
354.45135914231901
  0
LINE
  8
_2-7_ビス
  6
CONTINUOUS
 62
    7
 10
892.53147107983159
 20
354.45135914231901
 11
892.18343882983254
 21
354.4686444230108
  0
LINE
  8
_2-7_ビス
  6
CONTINUOUS
 62
    7
 10
892.02384908011118
 20
354.71601284391045
 11
892.53147123195481
 21
355.54057424691041
  0
LINE
  8
_2-7_ビス
  6
CONTINUOUS
 62
    7
 10
892.53147123195481
 20
355.54057424691041
 11
892.53147107983159
 21
356.03531108871084
  0
LINE
  8
_2-7_ビス
  6
CONTINUOUS
 62
    7
 10
892.26095357983104
 20
348.20197776021064
 11
892.39531232983245
 21
348.20197776021064
  0
LINE
  8
_2-7_ビス
  6
CONTINUOUS
 62
    7
 10
892.39531232983245
 20
348.20197776021064
 11
892.39531232983245
 21
347.41864442736005
  0
LINE
  8
_2-7_ビス
  6
CONTINUOUS
 62
    7
 10
892.39531232983245
 20
347.41864442736005
 11
892.24531232983145
 21
347.41864442736005
  0
LINE
  8
_2-7_ビス
  6
CONTINUOUS
 62
    7
 10
892.24531232983145
 20
347.41864442736005
 11
892.24531232983145
 21
345.81074969151064
  0
LINE
  8
_2-7_ビス
  6
CONTINUOUS
 62
    7
 10
892.24531232983145
 20
345.81074969151064
 11
892.23884551903075
 21
345.81074969151064
  0
LINE
  8
_2-7_ビス
  6
CONTINUOUS
 62
    7
 10
892.18857032983215
 20
345.48092513031111
 11
892.18857018329322
 21
339.53048353749114
  0
LINE
  8
_2-7_ビス
  6
CONTINUOUS
 62
    7
 10
892.18857018329322
 20
339.53048353749114
 11
891.748132829832
 21
338.87906271333168
  0
LINE
  8
_2-7_ビス
  6
CONTINUOUS
 62
    7
 10
891.748132829832
 20
338.87906271333168
 11
890.74531232983168
 21
337.56513566151102
  0
LINE
  8
_2-7_ビス
  6
CONTINUOUS
 62
    7
 10
890.74531232983168
 20
337.56513566151102
 11
890.59593385033713
 21
337.56513566151102
  0
LINE
  8
_2-7_ビス
  6
CONTINUOUS
 62
    7
 10
890.59593385033713
 20
337.56513566151102
 11
891.6810279596516
 21
339.53048353749114
  0
LINE
  8
_2-7_ビス
  6
CONTINUOUS
 62
    7
 10
891.6810279596516
 20
339.53048353749114
 11
891.68102807983223
 21
343.50197776311052
  0
LINE
  8
_2-7_ビス
  6
CONTINUOUS
 62
    7
 10
891.09766457983233
 20
343.50197776311052
 11
891.09766485326395
 21
339.53048369018961
  0
LINE
  8
_2-7_ビス
  6
CONTINUOUS
 62
    7
 10
891.09766485326395
 20
339.53048369018961
 11
890.01257048803132
 21
337.56513566151102
  0
LINE
  8
_2-7_ビス
  6
CONTINUOUS
 62
    7
 10
890.01257048803132
 20
337.56513566151102
 11
889.39531232983177
 21
337.56513566151102
  0
LINE
  8
_2-7_ビス
  6
CONTINUOUS
 62
    7
 10
891.97301243491495
 20
370.40307891357622
 11
891.97301243491495
 21
370.40307891357622
  0
LINE
  8
_2-7_ビス
  6
CONTINUOUS
 62
    7
 10
891.97301243491495
 20
370.40307891357622
 11
891.9598143095601
 21
370.3768195581996
  0
LINE
  8
_2-7_ビス
  6
CONTINUOUS
 62
    7
 10
891.9598143095601
 20
370.3768195581996
 11
891.95096425218867
 21
370.34843946823071
  0
LINE
  8
_2-7_ビス
  6
CONTINUOUS
 62
    7
 10
891.95096425218867
 20
370.34843946823071
 11
891.94673116731553
 21
370.31880095834225
  0
LINE
  8
_2-7_ビス
  6
CONTINUOUS
 62
    7
 10
891.94673116731553
 20
370.31880095834225
 11
891.94724367508275
 21
370.28880457965937
  0
LINE
  8
_2-7_ビス
  6
CONTINUOUS
 62
    7
 10
891.94724367508275
 20
370.28880457965937
 11
891.95248620320092
 21
370.25936175696944
  0
LINE
  8
_2-7_ビス
  6
CONTINUOUS
 62
    7
 10
891.95248620320092
 20
370.25936175696944
 11
891.96229946010612
 21
370.23136709554109
  0
LINE
  8
_2-7_ビス
  6
CONTINUOUS
 62
    7
 10
891.96229946010612
 20
370.23136709554109
 11
891.97638527495303
 21
370.20567119899584
  0
LINE
  8
_2-7_ビス
  6
CONTINUOUS
 62
    7
 10
891.97638527495303
 20
370.20567119899584
 11
891.9943156573853
 21
370.18305482414746
  0
LINE
  8
_2-7_ビス
  6
CONTINUOUS
 62
    7
 10
891.9943156573853
 20
370.18305482414746
 11
892.01554580180584
 21
370.16420515810137
  0
LINE
  8
_2-7_ビス
  6
CONTINUOUS
 62
    7
 10
892.01554580180584
 20
370.16420515810137
 11
892.03943064101952
 21
370.14969493842187
  0
LINE
  8
_2-7_ビス
  6
CONTINUOUS
 62
    7
 10
892.03943064101952
 20
370.14969493842187
 11
892.06524444627314
 21
370.13996505079149
  0
LINE
  8
_2-7_ビス
  6
CONTINUOUS
 62
    7
 10
892.06524444627314
 20
370.13996505079149
 11
892.0922028781564
 21
370.1353111329222
  0
LINE
  8
_2-7_ビス
  6
CONTINUOUS
 62
    7
 10
892.0922028781564
 20
370.1353111329222
 11
892.0922035798319
 21
370.13531108001007
  0
LINE
  8
_2-7_ビス
  6
CONTINUOUS
 62
    7
 10
892.02384908011049
 20
368.81601283521053
 11
892.02384908011049
 21
368.81601283521053
  0
LINE
  8
_2-7_ビス
  6
CONTINUOUS
 62
    7
 10
892.02384908011049
 20
368.81601283521053
 11
892.02317797452338
 21
368.77605468122221
  0
LINE
  8
_2-7_ビス
  6
CONTINUOUS
 62
    7
 10
892.02317797452338
 20
368.77605468122221
 11
892.02882829308749
 21
368.73657545963994
  0
LINE
  8
_2-7_ビス
  6
CONTINUOUS
 62
    7
 10
892.02882829308749
 20
368.73657545963994
 11
892.04062835373225
 21
368.69877472663404
  0
LINE
  8
_2-7_ビス
  6
CONTINUOUS
 62
    7
 10
892.04062835373225
 20
368.69877472663404
 11
892.05821961758613
 21
368.66380103834882
  0
LINE
  8
_2-7_ビス
  6
CONTINUOUS
 62
    7
 10
892.05821961758613
 20
368.66380103834882
 11
892.08106758299868
 21
368.63271705260536
  0
LINE
  8
_2-7_ビス
  6
CONTINUOUS
 62
    7
 10
892.08106758299868
 20
368.63271705260536
 11
892.10847802610249
 21
368.60646724058108
  0
LINE
  8
_2-7_ビス
  6
CONTINUOUS
 62
    7
 10
892.10847802610249
 20
368.60646724058108
 11
892.13961809445391
 21
368.58584918953136
  0
LINE
  8
_2-7_ビス
  6
CONTINUOUS
 62
    7
 10
892.13961809445391
 20
368.58584918953136
 11
892.17354161283401
 21
368.5714893685041
  0
LINE
  8
_2-7_ビス
  6
CONTINUOUS
 62
    7
 10
892.17354161283401
 20
368.5714893685041
 11
892.18343882983118
 21
368.56864441431054
  0
LINE
  8
_2-7_ビス
  6
CONTINUOUS
 62
    7
 10
892.02384908011049
 20
367.24934616951049
 11
892.02384908011049
 21
367.24934616951049
  0
LINE
  8
_2-7_ビス
  6
CONTINUOUS
 62
    7
 10
892.02384908011049
 20
367.24934616951049
 11
892.02317797452338
 21
367.20938801552217
  0
LINE
  8
_2-7_ビス
  6
CONTINUOUS
 62
    7
 10
892.02317797452338
 20
367.20938801552217
 11
892.02882829308749
 21
367.1699087939399
  0
LINE
  8
_2-7_ビス
  6
CONTINUOUS
 62
    7
 10
892.02882829308749
 20
367.1699087939399
 11
892.04062835373225
 21
367.132108060934
  0
LINE
  8
_2-7_ビス
  6
CONTINUOUS
 62
    7
 10
892.04062835373225
 20
367.132108060934
 11
892.05821961758613
 21
367.09713437264878
  0
LINE
  8
_2-7_ビス
  6
CONTINUOUS
 62
    7
 10
892.05821961758613
 20
367.09713437264878
 11
892.08106758299868
 21
367.06605038690532
  0
LINE
  8
_2-7_ビス
  6
CONTINUOUS
 62
    7
 10
892.08106758299868
 20
367.06605038690532
 11
892.10847802610249
 21
367.03980057488104
  0
LINE
  8
_2-7_ビス
  6
CONTINUOUS
 62
    7
 10
892.10847802610249
 20
367.03980057488104
 11
892.13961809445391
 21
367.01918252383132
  0
LINE
  8
_2-7_ビス
  6
CONTINUOUS
 62
    7
 10
892.13961809445391
 20
367.01918252383132
 11
892.17354161283401
 21
367.00482270280406
  0
LINE
  8
_2-7_ビス
  6
CONTINUOUS
 62
    7
 10
892.17354161283401
 20
367.00482270280406
 11
892.18343882983118
 21
367.0019777486105
  0
LINE
  8
_2-7_ビス
  6
CONTINUOUS
 62
    7
 10
892.0808359395121
 20
365.68267950381045
 11
892.0808359395121
 21
365.68267950381045
  0
LINE
  8
_2-7_ビス
  6
CONTINUOUS
 62
    7
 10
892.0808359395121
 20
365.68267950381045
 11
892.08016483392498
 21
365.64272134982212
  0
LINE
  8
_2-7_ビス
  6
CONTINUOUS
 62
    7
 10
892.08016483392498
 20
365.64272134982212
 11
892.08581515248909
 21
365.60324212823986
  0
LINE
  8
_2-7_ビス
  6
CONTINUOUS
 62
    7
 10
892.08581515248909
 20
365.60324212823986
 11
892.09761521313385
 21
365.56544139523396
  0
LINE
  8
_2-7_ビス
  6
CONTINUOUS
 62
    7
 10
892.09761521313385
 20
365.56544139523396
 11
892.11520647698774
 21
365.53046770694874
  0
LINE
  8
_2-7_ビス
  6
CONTINUOUS
 62
    7
 10
892.11520647698774
 20
365.53046770694874
 11
892.13805444240029
 21
365.49938372120528
  0
LINE
  8
_2-7_ビス
  6
CONTINUOUS
 62
    7
 10
892.13805444240029
 20
365.49938372120528
 11
892.16546488550409
 21
365.473133909181
  0
LINE
  8
_2-7_ビス
  6
CONTINUOUS
 62
    7
 10
892.16546488550409
 20
365.473133909181
 11
892.19660495385551
 21
365.45251585813128
  0
LINE
  8
_2-7_ビス
  6
CONTINUOUS
 62
    7
 10
892.19660495385551
 20
365.45251585813128
 11
892.23052847223562
 21
365.43815603710402
  0
LINE
  8
_2-7_ビス
  6
CONTINUOUS
 62
    7
 10
892.23052847223562
 20
365.43815603710402
 11
892.24042568923278
 21
365.43531108291046
  0
LINE
  8
_2-7_ビス
  6
CONTINUOUS
 62
    7
 10
892.02384908011049
 20
362.54934617241037
 11
892.02384908011049
 21
362.54934617241037
  0
LINE
  8
_2-7_ビス
  6
CONTINUOUS
 62
    7
 10
892.02384908011049
 20
362.54934617241037
 11
892.02317797452338
 21
362.50938801842204
  0
LINE
  8
_2-7_ビス
  6
CONTINUOUS
 62
    7
 10
892.02317797452338
 20
362.50938801842204
 11
892.02882829308749
 21
362.46990879683977
  0
LINE
  8
_2-7_ビス
  6
CONTINUOUS
 62
    7
 10
892.02882829308749
 20
362.46990879683977
 11
892.04062835373225
 21
362.43210806383388
  0
LINE
  8
_2-7_ビス
  6
CONTINUOUS
 62
    7
 10
892.04062835373225
 20
362.43210806383388
 11
892.05821961758613
 21
362.39713437554866
  0
LINE
  8
_2-7_ビス
  6
CONTINUOUS
 62
    7
 10
892.05821961758613
 20
362.39713437554866
 11
892.08106758299868
 21
362.3660503898052
  0
LINE
  8
_2-7_ビス
  6
CONTINUOUS
 62
    7
 10
892.08106758299868
 20
362.3660503898052
 11
892.10847802610249
 21
362.33980057778092
  0
LINE
  8
_2-7_ビス
  6
CONTINUOUS
 62
    7
 10
892.10847802610249
 20
362.33980057778092
 11
892.13961809445391
 21
362.3191825267312
  0
LINE
  8
_2-7_ビス
  6
CONTINUOUS
 62
    7
 10
892.13961809445391
 20
362.3191825267312
 11
892.17354161283401
 21
362.30482270570394
  0
LINE
  8
_2-7_ビス
  6
CONTINUOUS
 62
    7
 10
892.17354161283401
 20
362.30482270570394
 11
892.18343882983118
 21
362.30197775151038
  0
LINE
  8
_2-7_ビス
  6
CONTINUOUS
 62
    7
 10
892.02384908011049
 20
360.98267950671033
 11
892.02384908011049
 21
360.98267950671033
  0
LINE
  8
_2-7_ビス
  6
CONTINUOUS
 62
    7
 10
892.02384908011049
 20
360.98267950671033
 11
892.02317797452338
 21
360.942721352722
  0
LINE
  8
_2-7_ビス
  6
CONTINUOUS
 62
    7
 10
892.02317797452338
 20
360.942721352722
 11
892.02882829308749
 21
360.90324213113973
  0
LINE
  8
_2-7_ビス
  6
CONTINUOUS
 62
    7
 10
892.02882829308749
 20
360.90324213113973
 11
892.04062835373225
 21
360.86544139813384
  0
LINE
  8
_2-7_ビス
  6
CONTINUOUS
 62
    7
 10
892.04062835373225
 20
360.86544139813384
 11
892.05821961758613
 21
360.83046770984862
  0
LINE
  8
_2-7_ビス
  6
CONTINUOUS
 62
    7
 10
892.05821961758613
 20
360.83046770984862
 11
892.08106758299868
 21
360.79938372410516
  0
LINE
  8
_2-7_ビス
  6
CONTINUOUS
 62
    7
 10
892.08106758299868
 20
360.79938372410516
 11
892.10847802610249
 21
360.77313391208088
  0
LINE
  8
_2-7_ビス
  6
CONTINUOUS
 62
    7
 10
892.10847802610249
 20
360.77313391208088
 11
892.13961809445391
 21
360.75251586103116
  0
LINE
  8
_2-7_ビス
  6
CONTINUOUS
 62
    7
 10
892.13961809445391
 20
360.75251586103116
 11
892.17354161283401
 21
360.7381560400039
  0
LINE
  8
_2-7_ビス
  6
CONTINUOUS
 62
    7
 10
892.17354161283401
 20
360.7381560400039
 11
892.18343882983118
 21
360.73531108581034
  0
LINE
  8
_2-7_ビス
  6
CONTINUOUS
 62
    7
 10
892.02384908011049
 20
359.41601284101029
 11
892.02384908011049
 21
359.41601284101029
  0
LINE
  8
_2-7_ビス
  6
CONTINUOUS
 62
    7
 10
892.02384908011049
 20
359.41601284101029
 11
892.02317797452338
 21
359.37605468702196
  0
LINE
  8
_2-7_ビス
  6
CONTINUOUS
 62
    7
 10
892.02317797452338
 20
359.37605468702196
 11
892.02882829308749
 21
359.33657546543969
  0
LINE
  8
_2-7_ビス
  6
CONTINUOUS
 62
    7
 10
892.02882829308749
 20
359.33657546543969
 11
892.04062835373225
 21
359.2987747324338
  0
LINE
  8
_2-7_ビス
  6
CONTINUOUS
 62
    7
 10
892.04062835373225
 20
359.2987747324338
 11
892.05821961758613
 21
359.26380104414858
  0
LINE
  8
_2-7_ビス
  6
CONTINUOUS
 62
    7
 10
892.05821961758613
 20
359.26380104414858
 11
892.08106758299868
 21
359.23271705840511
  0
LINE
  8
_2-7_ビス
  6
CONTINUOUS
 62
    7
 10
892.08106758299868
 20
359.23271705840511
 11
892.10847802610249
 21
359.20646724638084
  0
LINE
  8
_2-7_ビス
  6
CONTINUOUS
 62
    7
 10
892.10847802610249
 20
359.20646724638084
 11
892.13961809445391
 21
359.18584919533112
  0
LINE
  8
_2-7_ビス
  6
CONTINUOUS
 62
    7
 10
892.13961809445391
 20
359.18584919533112
 11
892.17354161283401
 21
359.17148937430386
  0
LINE
  8
_2-7_ビス
  6
CONTINUOUS
 62
    7
 10
892.17354161283401
 20
359.17148937430386
 11
892.18343882983118
 21
359.1686444201103
  0
LINE
  8
_2-7_ビス
  6
CONTINUOUS
 62
    7
 10
892.08112865168482
 20
357.84934617531025
 11
892.08112865168482
 21
357.84934617531025
  0
LINE
  8
_2-7_ビス
  6
CONTINUOUS
 62
    7
 10
892.08112865168482
 20
357.84934617531025
 11
892.0804575460977
 21
357.80938802132192
  0
LINE
  8
_2-7_ビス
  6
CONTINUOUS
 62
    7
 10
892.0804575460977
 20
357.80938802132192
 11
892.08610786466181
 21
357.76990879973965
  0
LINE
  8
_2-7_ビス
  6
CONTINUOUS
 62
    7
 10
892.08610786466181
 20
357.76990879973965
 11
892.09790792530657
 21
357.73210806673376
  0
LINE
  8
_2-7_ビス
  6
CONTINUOUS
 62
    7
 10
892.09790792530657
 20
357.73210806673376
 11
892.11549918916046
 21
357.69713437844854
  0
LINE
  8
_2-7_ビス
  6
CONTINUOUS
 62
    7
 10
892.11549918916046
 20
357.69713437844854
 11
892.13834715457301
 21
357.66605039270507
  0
LINE
  8
_2-7_ビス
  6
CONTINUOUS
 62
    7
 10
892.13834715457301
 20
357.66605039270507
 11
892.16575759767682
 21
357.6398005806808
  0
LINE
  8
_2-7_ビス
  6
CONTINUOUS
 62
    7
 10
892.16575759767682
 20
357.6398005806808
 11
892.19689766602824
 21
357.61918252963108
  0
LINE
  8
_2-7_ビス
  6
CONTINUOUS
 62
    7
 10
892.19689766602824
 20
357.61918252963108
 11
892.23082118440834
 21
357.60482270860382
  0
LINE
  8
_2-7_ビス
  6
CONTINUOUS
 62
    7
 10
892.23082118440834
 20
357.60482270860382
 11
892.2407184014055
 21
357.60197775441026
  0
LINE
  8
_2-7_ビス
  6
CONTINUOUS
 62
    7
 10
892.02384908011049
 20
354.71601284391016
 11
892.02384908011049
 21
354.71601284391016
  0
LINE
  8
_2-7_ビス
  6
CONTINUOUS
 62
    7
 10
892.02384908011049
 20
354.71601284391016
 11
892.02317797452338
 21
354.67605468992184
  0
LINE
  8
_2-7_ビス
  6
CONTINUOUS
 62
    7
 10
892.02317797452338
 20
354.67605468992184
 11
892.02882829308749
 21
354.63657546833957
  0
LINE
  8
_2-7_ビス
  6
CONTINUOUS
 62
    7
 10
892.02882829308749
 20
354.63657546833957
 11
892.04062835373225
 21
354.59877473533368
  0
LINE
  8
_2-7_ビス
  6
CONTINUOUS
 62
    7
 10
892.04062835373225
 20
354.59877473533368
 11
892.05821961758613
 21
354.56380104704846
  0
LINE
  8
_2-7_ビス
  6
CONTINUOUS
 62
    7
 10
892.05821961758613
 20
354.56380104704846
 11
892.08106758299868
 21
354.53271706130499
  0
LINE
  8
_2-7_ビス
  6
CONTINUOUS
 62
    7
 10
892.08106758299868
 20
354.53271706130499
 11
892.10847802610249
 21
354.50646724928072
  0
LINE
  8
_2-7_ビス
  6
CONTINUOUS
 62
    7
 10
892.10847802610249
 20
354.50646724928072
 11
892.13961809445391
 21
354.48584919823099
  0
LINE
  8
_2-7_ビス
  6
CONTINUOUS
 62
    7
 10
892.13961809445391
 20
354.48584919823099
 11
892.17354161283401
 21
354.47148937720374
  0
LINE
  8
_2-7_ビス
  6
CONTINUOUS
 62
    7
 10
892.17354161283401
 20
354.47148937720374
 11
892.18343882983118
 21
354.46864442301018
  0
LINE
  8
_2-7_ビス
  6
CONTINUOUS
 62
    7
 10
892.05612913120513
 20
353.14934617821012
 11
892.05612913120513
 21
353.14934617821012
  0
LINE
  8
_2-7_ビス
  6
CONTINUOUS
 62
    7
 10
892.05612913120513
 20
353.14934617821012
 11
892.05545802561801
 21
353.1093880242218
  0
LINE
  8
_2-7_ビス
  6
CONTINUOUS
 62
    7
 10
892.05545802561801
 20
353.1093880242218
 11
892.06110834418212
 21
353.06990880263953
  0
LINE
  8
_2-7_ビス
  6
CONTINUOUS
 62
    7
 10
892.06110834418212
 20
353.06990880263953
 11
892.07290840482688
 21
353.03210806963364
  0
LINE
  8
_2-7_ビス
  6
CONTINUOUS
 62
    7
 10
892.07290840482688
 20
353.03210806963364
 11
892.09049966868076
 21
352.99713438134842
  0
LINE
  8
_2-7_ビス
  6
CONTINUOUS
 62
    7
 10
892.09049966868076
 20
352.99713438134842
 11
892.11334763409332
 21
352.96605039560495
  0
LINE
  8
_2-7_ビス
  6
CONTINUOUS
 62
    7
 10
892.11334763409332
 20
352.96605039560495
 11
892.14075807719712
 21
352.93980058358068
  0
LINE
  8
_2-7_ビス
  6
CONTINUOUS
 62
    7
 10
892.14075807719712
 20
352.93980058358068
 11
892.17189814554854
 21
352.91918253253095
  0
LINE
  8
_2-7_ビス
  6
CONTINUOUS
 62
    7
 10
892.17189814554854
 20
352.91918253253095
 11
892.20582166392865
 21
352.9048227115037
  0
LINE
  8
_2-7_ビス
  6
CONTINUOUS
 62
    7
 10
892.20582166392865
 20
352.9048227115037
 11
892.21571888092581
 21
352.90197775731014
  0
LINE
  8
_2-7_ビス
  6
CONTINUOUS
 62
    7
 10
892.0882320840135
 20
351.58267951251008
 11
892.0882320840135
 21
351.58267951251008
  0
LINE
  8
_2-7_ビス
  6
CONTINUOUS
 62
    7
 10
892.0882320840135
 20
351.58267951251008
 11
892.08756097842638
 21
351.54272135852176
  0
LINE
  8
_2-7_ビス
  6
CONTINUOUS
 62
    7
 10
892.08756097842638
 20
351.54272135852176
 11
892.09321129699049
 21
351.50324213693949
  0
LINE
  8
_2-7_ビス
  6
CONTINUOUS
 62
    7
 10
892.09321129699049
 20
351.50324213693949
 11
892.10501135763525
 21
351.4654414039336
  0
LINE
  8
_2-7_ビス
  6
CONTINUOUS
 62
    7
 10
892.10501135763525
 20
351.4654414039336
 11
892.12260262148914
 21
351.43046771564838
  0
LINE
  8
_2-7_ビス
  6
CONTINUOUS
 62
    7
 10
892.12260262148914
 20
351.43046771564838
 11
892.14545058690169
 21
351.39938372990491
  0
LINE
  8
_2-7_ビス
  6
CONTINUOUS
 62
    7
 10
892.14545058690169
 20
351.39938372990491
 11
892.17286103000549
 21
351.37313391788064
  0
LINE
  8
_2-7_ビス
  6
CONTINUOUS
 62
    7
 10
892.17286103000549
 20
351.37313391788064
 11
892.20400109835691
 21
351.35251586683091
  0
LINE
  8
_2-7_ビス
  6
CONTINUOUS
 62
    7
 10
892.20400109835691
 20
351.35251586683091
 11
892.23792461673702
 21
351.33815604580366
  0
LINE
  8
_2-7_ビス
  6
CONTINUOUS
 62
    7
 10
892.23792461673702
 20
351.33815604580366
 11
892.24782183373418
 21
351.33531109161009
  0
LINE
  8
_2-7_ビス
  6
CONTINUOUS
 62
    7
 10
892.11054701504304
 20
350.01601284681118
 11
892.11054701504304
 21
350.01601284681118
  0
LINE
  8
_2-7_ビス
  6
CONTINUOUS
 62
    7
 10
892.11054701504304
 20
350.01601284681118
 11
892.10987590945592
 21
349.97605469282286
  0
LINE
  8
_2-7_ビス
  6
CONTINUOUS
 62
    7
 10
892.10987590945592
 20
349.97605469282286
 11
892.11552622802003
 21
349.93657547124059
  0
LINE
  8
_2-7_ビス
  6
CONTINUOUS
 62
    7
 10
892.11552622802003
 20
349.93657547124059
 11
892.12732628866479
 21
349.89877473823469
  0
LINE
  8
_2-7_ビス
  6
CONTINUOUS
 62
    7
 10
892.12732628866479
 20
349.89877473823469
 11
892.14491755251868
 21
349.86380104994947
  0
LINE
  8
_2-7_ビス
  6
CONTINUOUS
 62
    7
 10
892.14491755251868
 20
349.86380104994947
 11
892.16776551793123
 21
349.83271706420601
  0
LINE
  8
_2-7_ビス
  6
CONTINUOUS
 62
    7
 10
892.16776551793123
 20
349.83271706420601
 11
892.19517596103503
 21
349.80646725218173
  0
LINE
  8
_2-7_ビス
  6
CONTINUOUS
 62
    7
 10
892.19517596103503
 20
349.80646725218173
 11
892.22631602938645
 21
349.78584920113201
  0
LINE
  8
_2-7_ビス
  6
CONTINUOUS
 62
    7
 10
892.22631602938645
 20
349.78584920113201
 11
892.26023954776656
 21
349.77148938010475
  0
LINE
  8
_2-7_ビス
  6
CONTINUOUS
 62
    7
 10
892.26023954776656
 20
349.77148938010475
 11
892.27013676476372
 21
349.76864442591119
  0
LINE
  8
_2-7_ビス
  6
CONTINUOUS
 62
    7
 10
892.14404959397757
 20
348.47407450208044
 11
892.14404959397757
 21
348.47407450208044
  0
LINE
  8
_2-7_ビス
  6
CONTINUOUS
 62
    7
 10
892.14404959397757
 20
348.47407450208044
 11
892.13038744222752
 21
348.44778650010323
  0
LINE
  8
_2-7_ビス
  6
CONTINUOUS
 62
    7
 10
892.13038744222752
 20
348.44778650010323
 11
892.12108493267908
 21
348.41928961078969
  0
LINE
  8
_2-7_ビス
  6
CONTINUOUS
 62
    7
 10
892.12108493267908
 20
348.41928961078969
 11
892.11642471737764
 21
348.38944969770137
  0
LINE
  8
_2-7_ビス
  6
CONTINUOUS
 62
    7
 10
892.11642471737764
 20
348.38944969770137
 11
892.11654839460687
 21
348.35917343149771
  0
LINE
  8
_2-7_ビス
  6
CONTINUOUS
 62
    7
 10
892.11654839460687
 20
348.35917343149771
 11
892.12145220649666
 21
348.32938074120688
  0
LINE
  8
_2-7_ビス
  6
CONTINUOUS
 62
    7
 10
892.12145220649666
 20
348.32938074120688
 11
892.13098715320439
 21
348.30097686264747
  0
LINE
  8
_2-7_ビス
  6
CONTINUOUS
 62
    7
 10
892.13098715320439
 20
348.30097686264747
 11
892.14486352019912
 21
348.27482483329646
  0
LINE
  8
_2-7_ビス
  6
CONTINUOUS
 62
    7
 10
892.14486352019912
 20
348.27482483329646
 11
892.16265968109144
 21
348.25171926933217
  0
LINE
  8
_2-7_ビス
  6
CONTINUOUS
 62
    7
 10
892.16265968109144
 20
348.25171926933217
 11
892.18383490853819
 21
348.23236222162359
  0
LINE
  8
_2-7_ビス
  6
CONTINUOUS
 62
    7
 10
892.18383490853819
 20
348.23236222162359
 11
892.20774580396835
 21
348.21734184427021
  0
LINE
  8
_2-7_ビス
  6
CONTINUOUS
 62
    7
 10
892.20774580396835
 20
348.21734184427021
 11
892.23366584692383
 21
348.20711452383733
  0
LINE
  8
_2-7_ビス
  6
CONTINUOUS
 62
    7
 10
892.23366584692383
 20
348.20711452383733
 11
892.26080747001549
 21
348.20199101228093
  0
LINE
  8
_2-7_ビス
  6
CONTINUOUS
 62
    7
 10
892.26080747001549
 20
348.20199101228093
 11
892.26095357983172
 21
348.20197776021098
  0
LINE
  8
_2-7_ビス
  6
CONTINUOUS
 62
    7
 10
892.5640623298325
 20
357.10724091261062
 11
892.5640623298325
 21
357.10724091261062
  0
LINE
  8
_2-7_ビス
  6
CONTINUOUS
 62
    7
 10
892.5640623298325
 20
357.10724091261062
 11
892.47973649903872
 21
357.09498095596291
  0
LINE
  8
_2-7_ビス
  6
CONTINUOUS
 62
    7
 10
892.47973649903872
 20
357.09498095596291
 11
892.39862817758046
 21
357.06680848925583
  0
LINE
  8
_2-7_ビス
  6
CONTINUOUS
 62
    7
 10
892.39862817758046
 20
357.06680848925583
 11
892.32320180076238
 21
357.02357951863428
  0
LINE
  8
_2-7_ビス
  6
CONTINUOUS
 62
    7
 10
892.32320180076238
 20
357.02357951863428
 11
892.25574916087646
 21
356.96660753449578
  0
LINE
  8
_2-7_ビス
  6
CONTINUOUS
 62
    7
 10
892.25574916087646
 20
356.96660753449578
 11
892.19831977225306
 21
356.8976236017491
  0
LINE
  8
_2-7_ビス
  6
CONTINUOUS
 62
    7
 10
892.19831977225306
 20
356.8976236017491
 11
892.15265859780482
 21
356.81872376228318
  0
LINE
  8
_2-7_ビス
  6
CONTINUOUS
 62
    7
 10
892.15265859780482
 20
356.81872376228318
 11
892.12015302921156
 21
356.73230534779498
  0
LINE
  8
_2-7_ビス
  6
CONTINUOUS
 62
    7
 10
892.12015302921156
 20
356.73230534779498
 11
892.10179073172651
 21
356.6409941380789
  0
LINE
  8
_2-7_ビス
  6
CONTINUOUS
 62
    7
 10
892.10179073172651
 20
356.6409941380789
 11
892.09812963446689
 21
356.54756457803637
  0
LINE
  8
_2-7_ビス
  6
CONTINUOUS
 62
    7
 10
892.09812963446689
 20
356.54756457803637
 11
892.10928097802037
 21
356.45485547757181
  0
LINE
  8
_2-7_ビス
  6
CONTINUOUS
 62
    7
 10
892.10928097802037
 20
356.45485547757181
 11
892.1349059344559
 21
356.36568375578963
  0
LINE
  8
_2-7_ビス
  6
CONTINUOUS
 62
    7
 10
892.1349059344559
 20
356.36568375578963
 11
892.17422590243905
 21
356.28275885033315
  0
LINE
  8
_2-7_ビス
  6
CONTINUOUS
 62
    7
 10
892.17422590243905
 20
356.28275885033315
 11
892.22604616463957
 21
356.20860039249271
  0
LINE
  8
_2-7_ビス
  6
CONTINUOUS
 62
    7
 10
892.22604616463957
 20
356.20860039249271
 11
892.28879218861277
 21
356.14546164948371
  0
LINE
  8
_2-7_ビス
  6
CONTINUOUS
 62
    7
 10
892.28879218861277
 20
356.14546164948371
 11
892.36055746817135
 21
356.09526106006274
  0
LINE
  8
_2-7_ビス
  6
CONTINUOUS
 62
    7
 10
892.36055746817135
 20
356.09526106006274
 11
892.43916145161063
 21
356.05952394373668
  0
LINE
  8
_2-7_ビス
  6
CONTINUOUS
 62
    7
 10
892.43916145161063
 20
356.05952394373668
 11
892.52221579666968
 21
356.03933615470118
  0
LINE
  8
_2-7_ビス
  6
CONTINUOUS
 62
    7
 10
892.52221579666968
 20
356.03933615470118
 11
892.5640623298325
 21
356.03531108871067
  0
LINE
  8
_2-7_ビス
  6
CONTINUOUS
 62
    7
 10
892.5640623298325
 20
364.94057424111082
 11
892.5640623298325
 21
364.94057424111082
  0
LINE
  8
_2-7_ビス
  6
CONTINUOUS
 62
    7
 10
892.5640623298325
 20
364.94057424111082
 11
892.47973649903872
 21
364.92831428446311
  0
LINE
  8
_2-7_ビス
  6
CONTINUOUS
 62
    7
 10
892.47973649903872
 20
364.92831428446311
 11
892.39862817758046
 21
364.90014181775604
  0
LINE
  8
_2-7_ビス
  6
CONTINUOUS
 62
    7
 10
892.39862817758046
 20
364.90014181775604
 11
892.32320180076238
 21
364.85691284713448
  0
LINE
  8
_2-7_ビス
  6
CONTINUOUS
 62
    7
 10
892.32320180076238
 20
364.85691284713448
 11
892.25574916087646
 21
364.79994086299598
  0
LINE
  8
_2-7_ビス
  6
CONTINUOUS
 62
    7
 10
892.25574916087646
 20
364.79994086299598
 11
892.19831977225306
 21
364.73095693024931
  0
LINE
  8
_2-7_ビス
  6
CONTINUOUS
 62
    7
 10
892.19831977225306
 20
364.73095693024931
 11
892.15265859780482
 21
364.65205709078339
  0
LINE
  8
_2-7_ビス
  6
CONTINUOUS
 62
    7
 10
892.15265859780482
 20
364.65205709078339
 11
892.12015302921156
 21
364.56563867629518
  0
LINE
  8
_2-7_ビス
  6
CONTINUOUS
 62
    7
 10
892.12015302921156
 20
364.56563867629518
 11
892.10179073172651
 21
364.4743274665791
  0
LINE
  8
_2-7_ビス
  6
CONTINUOUS
 62
    7
 10
892.10179073172651
 20
364.4743274665791
 11
892.09812963446689
 21
364.38089790653657
  0
LINE
  8
_2-7_ビス
  6
CONTINUOUS
 62
    7
 10
892.09812963446689
 20
364.38089790653657
 11
892.10928097802037
 21
364.28818880607201
  0
LINE
  8
_2-7_ビス
  6
CONTINUOUS
 62
    7
 10
892.10928097802037
 20
364.28818880607201
 11
892.1349059344559
 21
364.19901708428984
  0
LINE
  8
_2-7_ビス
  6
CONTINUOUS
 62
    7
 10
892.1349059344559
 20
364.19901708428984
 11
892.17422590243905
 21
364.11609217883336
  0
LINE
  8
_2-7_ビス
  6
CONTINUOUS
 62
    7
 10
892.17422590243905
 20
364.11609217883336
 11
892.22604616463957
 21
364.04193372099292
  0
LINE
  8
_2-7_ビス
  6
CONTINUOUS
 62
    7
 10
892.22604616463957
 20
364.04193372099292
 11
892.28879218861277
 21
363.97879497798391
  0
LINE
  8
_2-7_ビス
  6
CONTINUOUS
 62
    7
 10
892.28879218861277
 20
363.97879497798391
 11
892.36055746817135
 21
363.92859438856294
  0
LINE
  8
_2-7_ビス
  6
CONTINUOUS
 62
    7
 10
892.36055746817135
 20
363.92859438856294
 11
892.43916145161063
 21
363.89285727223688
  0
LINE
  8
_2-7_ビス
  6
CONTINUOUS
 62
    7
 10
892.43916145161063
 20
363.89285727223688
 11
892.52221579666968
 21
363.87266948320138
  0
LINE
  8
_2-7_ビス
  6
CONTINUOUS
 62
    7
 10
892.52221579666968
 20
363.87266948320138
 11
892.5640623298325
 21
363.86864441721087
  0
LINE
  8
_2-7_ビス
  6
CONTINUOUS
 62
    7
 10
892.23884551903006
 20
345.8107496915103
 11
892.23884551903006
 21
345.8107496915103
  0
LINE
  8
_2-7_ビス
  6
CONTINUOUS
 62
    7
 10
892.23884551903006
 20
345.8107496915103
 11
892.20266030512823
 21
345.67716536474313
  0
LINE
  8
_2-7_ビス
  6
CONTINUOUS
 62
    7
 10
892.20266030512823
 20
345.67716536474313
 11
892.18812392918699
 21
345.53870231252768
  0
LINE
  8
_2-7_ビス
  6
CONTINUOUS
 62
    7
 10
892.18812392918699
 20
345.53870231252768
 11
892.1885701859419
 21
345.48092513031031
  0
LINE
  8
_2-7_ビス
  6
CONTINUOUS
 62
    7
 10
891.68102807983223
 20
343.50197776311069
 11
891.68102807983223
 21
343.50197776311069
  0
LINE
  8
_2-7_ビス
  6
CONTINUOUS
 62
    7
 10
891.68102807983223
 20
343.50197776311069
 11
891.67498730228942
 21
343.55750833828841
  0
LINE
  8
_2-7_ビス
  6
CONTINUOUS
 62
    7
 10
891.67498730228942
 20
343.55750833828841
 11
891.66026746833973
 21
343.61104202567293
  0
LINE
  8
_2-7_ビス
  6
CONTINUOUS
 62
    7
 10
891.66026746833973
 20
343.61104202567293
 11
891.63731583268918
 21
343.66095223126246
  0
LINE
  8
_2-7_ビス
  6
CONTINUOUS
 62
    7
 10
891.63731583268918
 20
343.66095223126246
 11
891.60682976917303
 21
343.7057224587158
  0
LINE
  8
_2-7_ビス
  6
CONTINUOUS
 62
    7
 10
891.60682976917303
 20
343.7057224587158
 11
891.56973558140442
 21
343.74399238732673
  0
LINE
  8
_2-7_ビス
  6
CONTINUOUS
 62
    7
 10
891.56973558140442
 20
343.74399238732673
 11
891.52716035750814
 21
343.77459920467993
  0
LINE
  8
_2-7_ビス
  6
CONTINUOUS
 62
    7
 10
891.52716035750814
 20
343.77459920467993
 11
891.48039772411812
 21
343.79661293811785
  0
LINE
  8
_2-7_ビス
  6
CONTINUOUS
 62
    7
 10
891.48039772411812
 20
343.79661293811785
 11
891.43086854018702
 21
343.80936471148948
  0
LINE
  8
_2-7_ビス
  6
CONTINUOUS
 62
    7
 10
891.43086854018702
 20
343.80936471148948
 11
891.3800777249055
 21
343.81246706861367
  0
LINE
  8
_2-7_ビス
  6
CONTINUOUS
 62
    7
 10
891.3800777249055
 20
343.81246706861367
 11
891.3295685314946
 21
343.80582574593905
  0
LINE
  8
_2-7_ビス
  6
CONTINUOUS
 62
    7
 10
891.3295685314946
 20
343.80582574593905
 11
891.28087565623719
 21
343.78964253669443
  0
LINE
  8
_2-7_ビス
  6
CONTINUOUS
 62
    7
 10
891.28087565623719
 20
343.78964253669443
 11
891.23547860750807
 21
343.7644091595036
  0
LINE
  8
_2-7_ビス
  6
CONTINUOUS
 62
    7
 10
891.23547860750807
 20
343.7644091595036
 11
891.19475675166098
 21
343.73089231776379
  0
LINE
  8
_2-7_ビス
  6
CONTINUOUS
 62
    7
 10
891.19475675166098
 20
343.73089231776379
 11
891.15994740167957
 21
343.69011040375091
  0
LINE
  8
_2-7_ビス
  6
CONTINUOUS
 62
    7
 10
891.15994740167957
 20
343.69011040375091
 11
891.1321082220486
 21
343.64330255528563
  0
LINE
  8
_2-7_ビス
  6
CONTINUOUS
 62
    7
 10
891.1321082220486
 20
343.64330255528563
 11
891.11208509215385
 21
343.59189100515761
  0
LINE
  8
_2-7_ビス
  6
CONTINUOUS
 62
    7
 10
891.11208509215385
 20
343.59189100515761
 11
891.10048640466505
 21
343.53743786730206
  0
LINE
  8
_2-7_ビス
  6
CONTINUOUS
 62
    7
 10
891.10048640466505
 20
343.53743786730206
 11
891.09766457983233
 21
343.48159767275803
  0
LINE
  8
_2-7_ビス
  6
CONTINUOUS
 62
    7
 10
891.09766457983233
 20
343.48159767275803
 11
891.09766457983233
 21
343.48159767275797
  0
LINE
  8
_2-7_ビス
  6
CONTINUOUS
 62
    7
 10
886.39531232983109
 20
380.46965045959882
 11
886.39531232983109
 21
384.5651356325111
  0
LINE
  8
_2-7_ビス
  6
CONTINUOUS
 62
    7
 10
886.39531232983109
 20
384.5651356325111
 11
889.39531232983177
 21
384.5651356325111
  0
LINE
  8
_2-7_ビス
  6
CONTINUOUS
 62
    7
 10
886.39531232983109
 20
380.46965045959882
 11
885.64531232983177
 21
379.64508953939503
  0
LINE
  8
_2-7_ビス
  6
CONTINUOUS
 62
    7
 10
885.64531232983177
 20
379.64508953939503
 11
885.64531232983177
 21
377.54648381228026
  0
LINE
  8
_2-7_ビス
  6
CONTINUOUS
 62
    7
 10
885.64531232983177
 20
377.54648381228026
 11
886.19353157983232
 21
373.42889049903124
  0
LINE
  8
_2-7_ビス
  6
CONTINUOUS
 62
    7
 10
886.19353157983232
 20
373.42889049903124
 11
886.43545532983217
 21
373.0212759905105
  0
LINE
  8
_2-7_ビス
  6
CONTINUOUS
 62
    7
 10
886.43545532983217
 20
373.0212759905105
 11
886.39531232983109
 21
373.0212759905105
  0
LINE
  8
_2-7_ビス
  6
CONTINUOUS
 62
    7
 10
886.39531232983109
 20
373.0212759905105
 11
886.39531232983109
 21
371.20724090391082
  0
LINE
  8
_2-7_ビス
  6
CONTINUOUS
 62
    7
 10
886.39531232983109
 20
371.20724090391082
 11
886.82832489039902
 21
370.38267950091085
  0
LINE
  8
_2-7_ビス
  6
CONTINUOUS
 62
    7
 10
886.69842107983163
 20
370.13531108001007
 11
885.72031232983227
 21
370.13531108001007
  0
LINE
  8
_2-7_ビス
  6
CONTINUOUS
 62
    7
 10
885.72031232983227
 20
370.13531108001007
 11
885.72031232983227
 21
365.90192048613108
  0
LINE
  8
_2-7_ビス
  6
CONTINUOUS
 62
    7
 10
885.72031232983227
 20
365.90192048613108
 11
886.22178182983225
 21
364.94057424111065
  0
LINE
  8
_2-7_ビス
  6
CONTINUOUS
 62
    7
 10
886.22178182983225
 20
364.94057424111065
 11
886.22656232983195
 21
364.94057424111065
  0
LINE
  8
_2-7_ビス
  6
CONTINUOUS
 62
    7
 10
886.2265665031166
 20
364.94057459489272
 11
886.22656232983195
 21
364.94057424111065
  0
LINE
  8
_2-7_ビス
  6
CONTINUOUS
 62
    7
 10
886.2265665031166
 20
364.94057459489272
 11
886.22656232983195
 21
364.94057424111065
  0
LINE
  8
_2-7_ビス
  6
CONTINUOUS
 62
    7
 10
886.25915357983195
 20
363.86864441721104
 11
885.72031232983227
 21
363.86864441721104
  0
LINE
  8
_2-7_ビス
  6
CONTINUOUS
 62
    7
 10
885.72031232983227
 20
363.86864441721104
 11
885.72031232983227
 21
358.07141128043713
  0
LINE
  8
_2-7_ビス
  6
CONTINUOUS
 62
    7
 10
885.72031232983227
 20
358.07141128043713
 11
886.2265595168933
 21
357.10725991067238
  0
LINE
  8
_2-7_ビス
  6
CONTINUOUS
 62
    7
 10
886.22656232983195
 20
357.10724091261045
 11
886.23015396018764
 21
357.58469230985088
  0
LINE
  8
_2-7_ビス
  6
CONTINUOUS
 62
    7
 10
886.23015396018764
 20
357.58469230985088
 11
886.55083396781129
 21
357.60197775441088
  0
LINE
  8
_2-7_ビス
  6
CONTINUOUS
 62
    7
 10
886.70949600797917
 20
357.84934617531053
 11
886.25915357983195
 21
358.67390757831049
  0
LINE
  8
_2-7_ビス
  6
CONTINUOUS
 62
    7
 10
886.25915357983195
 20
358.67390757831049
 11
886.25915342770872
 21
359.1513590473055
  0
LINE
  8
_2-7_ビス
  6
CONTINUOUS
 62
    7
 10
886.25915342770872
 20
359.1513590473055
 11
886.60718582983213
 21
359.16864442011092
  0
LINE
  8
_2-7_ビス
  6
CONTINUOUS
 62
    7
 10
886.76677557955236
 20
359.41601284101057
 11
886.25915357983195
 21
360.24057424401053
  0
LINE
  8
_2-7_ビス
  6
CONTINUOUS
 62
    7
 10
886.25915357983195
 20
360.24057424401053
 11
886.25915357983195
 21
360.71802580511917
  0
LINE
  8
_2-7_ビス
  6
CONTINUOUS
 62
    7
 10
886.25915357983195
 20
360.71802580511917
 11
886.60718582983213
 21
360.73531108581096
  0
LINE
  8
_2-7_ビス
  6
CONTINUOUS
 62
    7
 10
886.76677557955236
 20
360.98267950671061
 11
886.25915357983195
 21
361.80724090971057
  0
LINE
  8
_2-7_ビス
  6
CONTINUOUS
 62
    7
 10
886.25915357983195
 20
361.80724090971057
 11
886.25915357983195
 21
362.28469247081921
  0
LINE
  8
_2-7_ビス
  6
CONTINUOUS
 62
    7
 10
886.25915357983195
 20
362.28469247081921
 11
886.60718582983213
 21
362.301977751511
  0
LINE
  8
_2-7_ビス
  6
CONTINUOUS
 62
    7
 10
886.76677557955236
 20
362.54934617241065
 11
886.25915342770872
 21
363.37390757541061
  0
LINE
  8
_2-7_ビス
  6
CONTINUOUS
 62
    7
 10
886.25915342770872
 20
363.37390757541061
 11
886.25915357983195
 21
363.86864441721104
  0
LINE
  8
_2-7_ビス
  6
CONTINUOUS
 62
    7
 10
886.2265665031166
 20
364.94057459489272
 11
886.23025170436199
 21
365.4180260638866
  0
LINE
  8
_2-7_ビス
  6
CONTINUOUS
 62
    7
 10
886.23025170436199
 20
365.4180260638866
 11
886.54769657983115
 21
365.43531108291108
  0
LINE
  8
_2-7_ビス
  6
CONTINUOUS
 62
    7
 10
886.70978872015303
 20
365.68267950381073
 11
886.25915342770872
 21
366.50724090681069
  0
LINE
  8
_2-7_ビス
  6
CONTINUOUS
 62
    7
 10
886.25915342770872
 20
366.50724090681069
 11
886.25915342770872
 21
366.98469237580457
  0
LINE
  8
_2-7_ビス
  6
CONTINUOUS
 62
    7
 10
886.25915342770872
 20
366.98469237580457
 11
886.60718582983213
 21
367.00197774861113
  0
LINE
  8
_2-7_ビス
  6
CONTINUOUS
 62
    7
 10
886.76677557955236
 20
367.24934616951077
 11
886.25915357983195
 21
368.07390757251073
  0
LINE
  8
_2-7_ビス
  6
CONTINUOUS
 62
    7
 10
886.25915357983195
 20
368.07390757251073
 11
886.25915342770872
 21
368.55135904150461
  0
LINE
  8
_2-7_ビス
  6
CONTINUOUS
 62
    7
 10
886.25915342770872
 20
368.55135904150461
 11
886.60807192232005
 21
368.56887599547053
  0
LINE
  8
_2-7_ビス
  6
CONTINUOUS
 62
    7
 10
886.76677557955236
 20
368.81601283521081
 11
886.25915342770872
 21
369.64057423821077
  0
LINE
  8
_2-7_ビス
  6
CONTINUOUS
 62
    7
 10
886.25915342770872
 20
369.64057423821077
 11
886.25915358533894
 21
370.13531108001007
  0
LINE
  8
_2-7_ビス
  6
CONTINUOUS
 62
    7
 10
886.25915357983195
 20
356.03531108871084
 11
885.72031232983227
 21
356.03531108871084
  0
LINE
  8
_2-7_ビス
  6
CONTINUOUS
 62
    7
 10
885.72031232983227
 20
356.03531108871084
 11
885.72031232983227
 21
352.78706935387322
  0
LINE
  8
_2-7_ビス
  6
CONTINUOUS
 62
    7
 10
885.72031232983227
 20
352.78706935387322
 11
886.22609807983144
 21
349.27390758411025
  0
LINE
  8
_2-7_ビス
  6
CONTINUOUS
 62
    7
 10
886.22609807983144
 20
349.27390758411025
 11
886.22683259749556
 21
349.75135866825144
  0
LINE
  8
_2-7_ビス
  6
CONTINUOUS
 62
    7
 10
886.22683259749556
 20
349.75135866825144
 11
886.53552107983251
 21
349.76864442591068
  0
LINE
  8
_2-7_ビス
  6
CONTINUOUS
 62
    7
 10
886.22609807983144
 20
349.27390758411025
 11
886.65957489039874
 21
348.44934618111029
  0
LINE
  8
_2-7_ビス
  6
CONTINUOUS
 62
    7
 10
886.68007764461981
 20
350.01601284681033
 11
886.2294753111596
 21
350.84057424981029
  0
LINE
  8
_2-7_ビス
  6
CONTINUOUS
 62
    7
 10
886.2294753111596
 20
350.84057424981029
 11
886.2315602154215
 21
351.31802533395035
  0
LINE
  8
_2-7_ビス
  6
CONTINUOUS
 62
    7
 10
886.2315602154215
 20
351.31802533395035
 11
886.55388707983184
 21
351.33531109161072
  0
LINE
  8
_2-7_ビス
  6
CONTINUOUS
 62
    7
 10
886.70239257565049
 20
351.58267951251037
 11
886.23852471632608
 21
352.40724053065651
  0
LINE
  8
_2-7_ビス
  6
CONTINUOUS
 62
    7
 10
886.23852471632608
 20
352.40724053065651
 11
886.24258755702249
 21
352.88469199965152
  0
LINE
  8
_2-7_ビス
  6
CONTINUOUS
 62
    7
 10
886.24258755702249
 20
352.88469199965152
 11
886.57724091229147
 21
352.90197775731076
  0
LINE
  8
_2-7_ビス
  6
CONTINUOUS
 62
    7
 10
886.73449552845887
 20
353.14934617821041
 11
886.25429290425336
 21
353.97390719635655
  0
LINE
  8
_2-7_ビス
  6
CONTINUOUS
 62
    7
 10
886.25429290425336
 20
353.97390719635655
 11
886.25915357983195
 21
354.45135914231901
  0
LINE
  8
_2-7_ビス
  6
CONTINUOUS
 62
    7
 10
886.25915357983195
 20
354.45135914231901
 11
886.60718582983213
 21
354.4686444230108
  0
LINE
  8
_2-7_ビス
  6
CONTINUOUS
 62
    7
 10
886.76677557955236
 20
354.71601284391045
 11
886.25915342770872
 21
355.54057424691041
  0
LINE
  8
_2-7_ビス
  6
CONTINUOUS
 62
    7
 10
886.25915342770872
 20
355.54057424691041
 11
886.25915357983195
 21
356.03531108871084
  0
LINE
  8
_2-7_ビス
  6
CONTINUOUS
 62
    7
 10
886.5296710798325
 20
348.20197776021064
 11
886.39531232983109
 21
348.20197776021064
  0
LINE
  8
_2-7_ビス
  6
CONTINUOUS
 62
    7
 10
886.39531232983109
 20
348.20197776021064
 11
886.39531232983109
 21
347.41864442736005
  0
LINE
  8
_2-7_ビス
  6
CONTINUOUS
 62
    7
 10
886.39531232983109
 20
347.41864442736005
 11
886.54531232983209
 21
347.41864442736005
  0
LINE
  8
_2-7_ビス
  6
CONTINUOUS
 62
    7
 10
886.54531232983209
 20
347.41864442736005
 11
886.54531232983209
 21
345.81074969151064
  0
LINE
  8
_2-7_ビス
  6
CONTINUOUS
 62
    7
 10
886.54531232983209
 20
345.81074969151064
 11
886.55177914063279
 21
345.81074969151064
  0
LINE
  8
_2-7_ビス
  6
CONTINUOUS
 62
    7
 10
886.60205432983139
 20
345.48092513031111
 11
886.60205447637031
 21
339.53048353749114
  0
LINE
  8
_2-7_ビス
  6
CONTINUOUS
 62
    7
 10
886.60205447637031
 20
339.53048353749114
 11
887.04249182983153
 21
338.87906271333168
  0
LINE
  8
_2-7_ビス
  6
CONTINUOUS
 62
    7
 10
887.04249182983153
 20
338.87906271333168
 11
888.04531232983186
 21
337.56513566151102
  0
LINE
  8
_2-7_ビス
  6
CONTINUOUS
 62
    7
 10
888.04531232983186
 20
337.56513566151102
 11
888.1946908093264
 21
337.56513566151102
  0
LINE
  8
_2-7_ビス
  6
CONTINUOUS
 62
    7
 10
888.1946908093264
 20
337.56513566151102
 11
887.10959670001193
 21
339.53048353749114
  0
LINE
  8
_2-7_ビス
  6
CONTINUOUS
 62
    7
 10
887.10959670001193
 20
339.53048353749114
 11
887.1095965798313
 21
343.50197776311052
  0
LINE
  8
_2-7_ビス
  6
CONTINUOUS
 62
    7
 10
887.69296007983121
 20
343.50197776311052
 11
887.69295980639959
 21
339.53048369018961
  0
LINE
  8
_2-7_ビス
  6
CONTINUOUS
 62
    7
 10
887.69295980639959
 20
339.53048369018961
 11
888.77805417163336
 21
337.56513566151102
  0
LINE
  8
_2-7_ビス
  6
CONTINUOUS
 62
    7
 10
888.77805417163336
 20
337.56513566151102
 11
889.39531232983177
 21
337.56513566151102
  0
LINE
  8
_2-7_ビス
  6
CONTINUOUS
 62
    7
 10
886.69842107983163
 20
370.13531108001007
 11
886.69842107983163
 21
370.13531108001007
  0
LINE
  8
_2-7_ビス
  6
CONTINUOUS
 62
    7
 10
886.69842107983163
 20
370.13531108001007
 11
886.7253795307322
 21
370.1399648647253
  0
LINE
  8
_2-7_ビス
  6
CONTINUOUS
 62
    7
 10
886.7253795307322
 20
370.1399648647253
 11
886.75119337574529
 21
370.14969462485521
  0
LINE
  8
_2-7_ビス
  6
CONTINUOUS
 62
    7
 10
886.75119337574529
 20
370.14969462485521
 11
886.77507827425268
 21
370.16420472656176
  0
LINE
  8
_2-7_ビス
  6
CONTINUOUS
 62
    7
 10
886.77507827425268
 20
370.16420472656176
 11
886.79630849569946
 21
370.1830542877471
  0
LINE
  8
_2-7_ビス
  6
CONTINUOUS
 62
    7
 10
886.79630849569946
 20
370.1830542877471
 11
886.81423897055004
 21
370.20567057403287
  0
LINE
  8
_2-7_ビス
  6
CONTINUOUS
 62
    7
 10
886.81423897055004
 20
370.20567057403287
 11
886.82832489039936
 21
370.23136640100472
  0
LINE
  8
_2-7_ビス
  6
CONTINUOUS
 62
    7
 10
886.82832489039936
 20
370.23136640100472
 11
886.83813826170058
 21
370.2593610139628
  0
LINE
  8
_2-7_ビス
  6
CONTINUOUS
 62
    7
 10
886.83813826170058
 20
370.2593610139628
 11
886.84338091013251
 21
370.2888038107584
  0
LINE
  8
_2-7_ビス
  6
CONTINUOUS
 62
    7
 10
886.84338091013251
 20
370.2888038107584
 11
886.84389354047551
 21
370.31880018690958
  0
LINE
  8
_2-7_ビス
  6
CONTINUOUS
 62
    7
 10
886.84389354047551
 20
370.31880018690958
 11
886.83966057671591
 21
370.34843871770596
  0
LINE
  8
_2-7_ビス
  6
CONTINUOUS
 62
    7
 10
886.83966057671591
 20
370.34843871770596
 11
886.83081063531574
 21
370.37681885138704
  0
LINE
  8
_2-7_ビス
  6
CONTINUOUS
 62
    7
 10
886.83081063531574
 20
370.37681885138704
 11
886.81761261726592
 21
370.40307827195204
  0
LINE
  8
_2-7_ビス
  6
CONTINUOUS
 62
    7
 10
886.81761261726592
 20
370.40307827195204
 11
886.81761222474859
 21
370.40307891357622
  0
LINE
  8
_2-7_ビス
  6
CONTINUOUS
 62
    7
 10
886.60718582983236
 20
368.56864441431054
 11
886.60718582983236
 21
368.56864441431054
  0
LINE
  8
_2-7_ビス
  6
CONTINUOUS
 62
    7
 10
886.60718582983236
 20
368.56864441431054
 11
886.64170905816741
 21
368.58115796456957
  0
LINE
  8
_2-7_ビス
  6
CONTINUOUS
 62
    7
 10
886.64170905816741
 20
368.58115796456957
 11
886.67373133652052
 21
368.60007228534772
  0
LINE
  8
_2-7_ビス
  6
CONTINUOUS
 62
    7
 10
886.67373133652052
 20
368.60007228534772
 11
886.70227968416805
 21
368.62481267457912
  0
LINE
  8
_2-7_ビス
  6
CONTINUOUS
 62
    7
 10
886.70227968416805
 20
368.62481267457912
 11
886.7264866740129
 21
368.65462740805634
  0
LINE
  8
_2-7_ビス
  6
CONTINUOUS
 62
    7
 10
886.7264866740129
 20
368.65462740805634
 11
886.74561678891791
 21
368.68861058018956
  0
LINE
  8
_2-7_ビス
  6
CONTINUOUS
 62
    7
 10
886.74561678891791
 20
368.68861058018956
 11
886.75908877002212
 21
368.72572962948988
  0
LINE
  8
_2-7_ビス
  6
CONTINUOUS
 62
    7
 10
886.75908877002212
 20
368.72572962948988
 11
886.7664932779968
 21
368.76485671242745
  0
LINE
  8
_2-7_ビス
  6
CONTINUOUS
 62
    7
 10
886.7664932779968
 20
368.76485671242745
 11
886.76760533061383
 21
368.80480297238648
  0
LINE
  8
_2-7_ビス
  6
CONTINUOUS
 62
    7
 10
886.76760533061383
 20
368.80480297238648
 11
886.76677557955304
 21
368.81601283521053
  0
LINE
  8
_2-7_ビス
  6
CONTINUOUS
 62
    7
 10
886.60718582983236
 20
367.0019777486105
 11
886.60718582983236
 21
367.0019777486105
  0
LINE
  8
_2-7_ビス
  6
CONTINUOUS
 62
    7
 10
886.60718582983236
 20
367.0019777486105
 11
886.64170905816741
 21
367.01449129886953
  0
LINE
  8
_2-7_ビス
  6
CONTINUOUS
 62
    7
 10
886.64170905816741
 20
367.01449129886953
 11
886.67373133652052
 21
367.03340561964768
  0
LINE
  8
_2-7_ビス
  6
CONTINUOUS
 62
    7
 10
886.67373133652052
 20
367.03340561964768
 11
886.70227968416805
 21
367.05814600887908
  0
LINE
  8
_2-7_ビス
  6
CONTINUOUS
 62
    7
 10
886.70227968416805
 20
367.05814600887908
 11
886.7264866740129
 21
367.0879607423563
  0
LINE
  8
_2-7_ビス
  6
CONTINUOUS
 62
    7
 10
886.7264866740129
 20
367.0879607423563
 11
886.74561678891791
 21
367.12194391448952
  0
LINE
  8
_2-7_ビス
  6
CONTINUOUS
 62
    7
 10
886.74561678891791
 20
367.12194391448952
 11
886.75908877002212
 21
367.15906296378984
  0
LINE
  8
_2-7_ビス
  6
CONTINUOUS
 62
    7
 10
886.75908877002212
 20
367.15906296378984
 11
886.7664932779968
 21
367.1981900467274
  0
LINE
  8
_2-7_ビス
  6
CONTINUOUS
 62
    7
 10
886.7664932779968
 20
367.1981900467274
 11
886.76760533061383
 21
367.23813630668644
  0
LINE
  8
_2-7_ビス
  6
CONTINUOUS
 62
    7
 10
886.76760533061383
 20
367.23813630668644
 11
886.76677557955304
 21
367.24934616951049
  0
LINE
  8
_2-7_ビス
  6
CONTINUOUS
 62
    7
 10
886.55019897043076
 20
365.43531108291046
 11
886.55019897043076
 21
365.43531108291046
  0
LINE
  8
_2-7_ビス
  6
CONTINUOUS
 62
    7
 10
886.55019897043076
 20
365.43531108291046
 11
886.5847221987658
 21
365.44782463316949
  0
LINE
  8
_2-7_ビス
  6
CONTINUOUS
 62
    7
 10
886.5847221987658
 20
365.44782463316949
 11
886.61674447711891
 21
365.46673895394764
  0
LINE
  8
_2-7_ビス
  6
CONTINUOUS
 62
    7
 10
886.61674447711891
 20
365.46673895394764
 11
886.64529282476644
 21
365.49147934317904
  0
LINE
  8
_2-7_ビス
  6
CONTINUOUS
 62
    7
 10
886.64529282476644
 20
365.49147934317904
 11
886.6694998146113
 21
365.52129407665626
  0
LINE
  8
_2-7_ビス
  6
CONTINUOUS
 62
    7
 10
886.6694998146113
 20
365.52129407665626
 11
886.68862992951631
 21
365.55527724878948
  0
LINE
  8
_2-7_ビス
  6
CONTINUOUS
 62
    7
 10
886.68862992951631
 20
365.55527724878948
 11
886.70210191062051
 21
365.5923962980898
  0
LINE
  8
_2-7_ビス
  6
CONTINUOUS
 62
    7
 10
886.70210191062051
 20
365.5923962980898
 11
886.7095064185952
 21
365.63152338102736
  0
LINE
  8
_2-7_ビス
  6
CONTINUOUS
 62
    7
 10
886.7095064185952
 20
365.63152338102736
 11
886.71061847121223
 21
365.6714696409864
  0
LINE
  8
_2-7_ビス
  6
CONTINUOUS
 62
    7
 10
886.71061847121223
 20
365.6714696409864
 11
886.70978872015144
 21
365.68267950381045
  0
LINE
  8
_2-7_ビス
  6
CONTINUOUS
 62
    7
 10
886.60718582983236
 20
362.30197775151038
 11
886.60718582983236
 21
362.30197775151038
  0
LINE
  8
_2-7_ビス
  6
CONTINUOUS
 62
    7
 10
886.60718582983236
 20
362.30197775151038
 11
886.64170905816741
 21
362.31449130176941
  0
LINE
  8
_2-7_ビス
  6
CONTINUOUS
 62
    7
 10
886.64170905816741
 20
362.31449130176941
 11
886.67373133652052
 21
362.33340562254756
  0
LINE
  8
_2-7_ビス
  6
CONTINUOUS
 62
    7
 10
886.67373133652052
 20
362.33340562254756
 11
886.70227968416805
 21
362.35814601177896
  0
LINE
  8
_2-7_ビス
  6
CONTINUOUS
 62
    7
 10
886.70227968416805
 20
362.35814601177896
 11
886.7264866740129
 21
362.38796074525618
  0
LINE
  8
_2-7_ビス
  6
CONTINUOUS
 62
    7
 10
886.7264866740129
 20
362.38796074525618
 11
886.74561678891791
 21
362.4219439173894
  0
LINE
  8
_2-7_ビス
  6
CONTINUOUS
 62
    7
 10
886.74561678891791
 20
362.4219439173894
 11
886.75908877002212
 21
362.45906296668971
  0
LINE
  8
_2-7_ビス
  6
CONTINUOUS
 62
    7
 10
886.75908877002212
 20
362.45906296668971
 11
886.7664932779968
 21
362.49819004962728
  0
LINE
  8
_2-7_ビス
  6
CONTINUOUS
 62
    7
 10
886.7664932779968
 20
362.49819004962728
 11
886.76760533061383
 21
362.53813630958632
  0
LINE
  8
_2-7_ビス
  6
CONTINUOUS
 62
    7
 10
886.76760533061383
 20
362.53813630958632
 11
886.76677557955304
 21
362.54934617241037
  0
LINE
  8
_2-7_ビス
  6
CONTINUOUS
 62
    7
 10
886.60718582983236
 20
360.73531108581034
 11
886.60718582983236
 21
360.73531108581034
  0
LINE
  8
_2-7_ビス
  6
CONTINUOUS
 62
    7
 10
886.60718582983236
 20
360.73531108581034
 11
886.64170905816741
 21
360.74782463606937
  0
LINE
  8
_2-7_ビス
  6
CONTINUOUS
 62
    7
 10
886.64170905816741
 20
360.74782463606937
 11
886.67373133652052
 21
360.76673895684752
  0
LINE
  8
_2-7_ビス
  6
CONTINUOUS
 62
    7
 10
886.67373133652052
 20
360.76673895684752
 11
886.70227968416805
 21
360.79147934607892
  0
LINE
  8
_2-7_ビス
  6
CONTINUOUS
 62
    7
 10
886.70227968416805
 20
360.79147934607892
 11
886.7264866740129
 21
360.82129407955614
  0
LINE
  8
_2-7_ビス
  6
CONTINUOUS
 62
    7
 10
886.7264866740129
 20
360.82129407955614
 11
886.74561678891791
 21
360.85527725168936
  0
LINE
  8
_2-7_ビス
  6
CONTINUOUS
 62
    7
 10
886.74561678891791
 20
360.85527725168936
 11
886.75908877002212
 21
360.89239630098967
  0
LINE
  8
_2-7_ビス
  6
CONTINUOUS
 62
    7
 10
886.75908877002212
 20
360.89239630098967
 11
886.7664932779968
 21
360.93152338392724
  0
LINE
  8
_2-7_ビス
  6
CONTINUOUS
 62
    7
 10
886.7664932779968
 20
360.93152338392724
 11
886.76760533061383
 21
360.97146964388628
  0
LINE
  8
_2-7_ビス
  6
CONTINUOUS
 62
    7
 10
886.76760533061383
 20
360.97146964388628
 11
886.76677557955304
 21
360.98267950671033
  0
LINE
  8
_2-7_ビス
  6
CONTINUOUS
 62
    7
 10
886.60718582983236
 20
359.1686444201103
 11
886.60718582983236
 21
359.1686444201103
  0
LINE
  8
_2-7_ビス
  6
CONTINUOUS
 62
    7
 10
886.60718582983236
 20
359.1686444201103
 11
886.64170905816741
 21
359.18115797036933
  0
LINE
  8
_2-7_ビス
  6
CONTINUOUS
 62
    7
 10
886.64170905816741
 20
359.18115797036933
 11
886.67373133652052
 21
359.20007229114748
  0
LINE
  8
_2-7_ビス
  6
CONTINUOUS
 62
    7
 10
886.67373133652052
 20
359.20007229114748
 11
886.70227968416805
 21
359.22481268037888
  0
LINE
  8
_2-7_ビス
  6
CONTINUOUS
 62
    7
 10
886.70227968416805
 20
359.22481268037888
 11
886.7264866740129
 21
359.2546274138561
  0
LINE
  8
_2-7_ビス
  6
CONTINUOUS
 62
    7
 10
886.7264866740129
 20
359.2546274138561
 11
886.74561678891791
 21
359.28861058598932
  0
LINE
  8
_2-7_ビス
  6
CONTINUOUS
 62
    7
 10
886.74561678891791
 20
359.28861058598932
 11
886.75908877002212
 21
359.32572963528963
  0
LINE
  8
_2-7_ビス
  6
CONTINUOUS
 62
    7
 10
886.75908877002212
 20
359.32572963528963
 11
886.7664932779968
 21
359.3648567182272
  0
LINE
  8
_2-7_ビス
  6
CONTINUOUS
 62
    7
 10
886.7664932779968
 20
359.3648567182272
 11
886.76760533061383
 21
359.40480297818624
  0
LINE
  8
_2-7_ビス
  6
CONTINUOUS
 62
    7
 10
886.76760533061383
 20
359.40480297818624
 11
886.76677557955304
 21
359.41601284101029
  0
LINE
  8
_2-7_ビス
  6
CONTINUOUS
 62
    7
 10
886.54990625825803
 20
357.60197775441026
 11
886.54990625825803
 21
357.60197775441026
  0
LINE
  8
_2-7_ビス
  6
CONTINUOUS
 62
    7
 10
886.54990625825803
 20
357.60197775441026
 11
886.58442948659308
 21
357.61449130466929
  0
LINE
  8
_2-7_ビス
  6
CONTINUOUS
 62
    7
 10
886.58442948659308
 20
357.61449130466929
 11
886.61645176494619
 21
357.63340562544744
  0
LINE
  8
_2-7_ビス
  6
CONTINUOUS
 62
    7
 10
886.61645176494619
 20
357.63340562544744
 11
886.64500011259372
 21
357.65814601467883
  0
LINE
  8
_2-7_ビス
  6
CONTINUOUS
 62
    7
 10
886.64500011259372
 20
357.65814601467883
 11
886.66920710243858
 21
357.68796074815606
  0
LINE
  8
_2-7_ビス
  6
CONTINUOUS
 62
    7
 10
886.66920710243858
 20
357.68796074815606
 11
886.68833721734359
 21
357.72194392028928
  0
LINE
  8
_2-7_ビス
  6
CONTINUOUS
 62
    7
 10
886.68833721734359
 20
357.72194392028928
 11
886.70180919844779
 21
357.75906296958959
  0
LINE
  8
_2-7_ビス
  6
CONTINUOUS
 62
    7
 10
886.70180919844779
 20
357.75906296958959
 11
886.70921370642247
 21
357.79819005252716
  0
LINE
  8
_2-7_ビス
  6
CONTINUOUS
 62
    7
 10
886.70921370642247
 20
357.79819005252716
 11
886.71032575903951
 21
357.8381363124862
  0
LINE
  8
_2-7_ビス
  6
CONTINUOUS
 62
    7
 10
886.71032575903951
 20
357.8381363124862
 11
886.70949600797871
 21
357.84934617531025
  0
LINE
  8
_2-7_ビス
  6
CONTINUOUS
 62
    7
 10
886.60718582983236
 20
354.46864442301018
 11
886.60718582983236
 21
354.46864442301018
  0
LINE
  8
_2-7_ビス
  6
CONTINUOUS
 62
    7
 10
886.60718582983236
 20
354.46864442301018
 11
886.64170905816741
 21
354.48115797326921
  0
LINE
  8
_2-7_ビス
  6
CONTINUOUS
 62
    7
 10
886.64170905816741
 20
354.48115797326921
 11
886.67373133652052
 21
354.50007229404736
  0
LINE
  8
_2-7_ビス
  6
CONTINUOUS
 62
    7
 10
886.67373133652052
 20
354.50007229404736
 11
886.70227968416805
 21
354.52481268327875
  0
LINE
  8
_2-7_ビス
  6
CONTINUOUS
 62
    7
 10
886.70227968416805
 20
354.52481268327875
 11
886.7264866740129
 21
354.55462741675598
  0
LINE
  8
_2-7_ビス
  6
CONTINUOUS
 62
    7
 10
886.7264866740129
 20
354.55462741675598
 11
886.74561678891791
 21
354.5886105888892
  0
LINE
  8
_2-7_ビス
  6
CONTINUOUS
 62
    7
 10
886.74561678891791
 20
354.5886105888892
 11
886.75908877002212
 21
354.62572963818951
  0
LINE
  8
_2-7_ビス
  6
CONTINUOUS
 62
    7
 10
886.75908877002212
 20
354.62572963818951
 11
886.7664932779968
 21
354.66485672112708
  0
LINE
  8
_2-7_ビス
  6
CONTINUOUS
 62
    7
 10
886.7664932779968
 20
354.66485672112708
 11
886.76760533061383
 21
354.70480298108612
  0
LINE
  8
_2-7_ビス
  6
CONTINUOUS
 62
    7
 10
886.76760533061383
 20
354.70480298108612
 11
886.76677557955304
 21
354.71601284391016
  0
LINE
  8
_2-7_ビス
  6
CONTINUOUS
 62
    7
 10
886.57490577873773
 20
352.90197775731014
 11
886.57490577873773
 21
352.90197775731014
  0
LINE
  8
_2-7_ビス
  6
CONTINUOUS
 62
    7
 10
886.57490577873773
 20
352.90197775731014
 11
886.60942900707278
 21
352.91449130756916
  0
LINE
  8
_2-7_ビス
  6
CONTINUOUS
 62
    7
 10
886.60942900707278
 20
352.91449130756916
 11
886.64145128542589
 21
352.93340562834732
  0
LINE
  8
_2-7_ビス
  6
CONTINUOUS
 62
    7
 10
886.64145128542589
 20
352.93340562834732
 11
886.66999963307342
 21
352.95814601757871
  0
LINE
  8
_2-7_ビス
  6
CONTINUOUS
 62
    7
 10
886.66999963307342
 20
352.95814601757871
 11
886.69420662291827
 21
352.98796075105594
  0
LINE
  8
_2-7_ビス
  6
CONTINUOUS
 62
    7
 10
886.69420662291827
 20
352.98796075105594
 11
886.71333673782328
 21
353.02194392318916
  0
LINE
  8
_2-7_ビス
  6
CONTINUOUS
 62
    7
 10
886.71333673782328
 20
353.02194392318916
 11
886.72680871892749
 21
353.05906297248947
  0
LINE
  8
_2-7_ビス
  6
CONTINUOUS
 62
    7
 10
886.72680871892749
 20
353.05906297248947
 11
886.73421322690217
 21
353.09819005542704
  0
LINE
  8
_2-7_ビス
  6
CONTINUOUS
 62
    7
 10
886.73421322690217
 20
353.09819005542704
 11
886.7353252795192
 21
353.13813631538608
  0
LINE
  8
_2-7_ビス
  6
CONTINUOUS
 62
    7
 10
886.7353252795192
 20
353.13813631538608
 11
886.73449552845841
 21
353.14934617821012
  0
LINE
  8
_2-7_ビス
  6
CONTINUOUS
 62
    7
 10
886.54280282592936
 20
351.33531109161009
 11
886.54280282592936
 21
351.33531109161009
  0
LINE
  8
_2-7_ビス
  6
CONTINUOUS
 62
    7
 10
886.54280282592936
 20
351.33531109161009
 11
886.5773260542644
 21
351.34782464186912
  0
LINE
  8
_2-7_ビス
  6
CONTINUOUS
 62
    7
 10
886.5773260542644
 20
351.34782464186912
 11
886.60934833261751
 21
351.36673896264728
  0
LINE
  8
_2-7_ビス
  6
CONTINUOUS
 62
    7
 10
886.60934833261751
 20
351.36673896264728
 11
886.63789668026504
 21
351.39147935187867
  0
LINE
  8
_2-7_ビス
  6
CONTINUOUS
 62
    7
 10
886.63789668026504
 20
351.39147935187867
 11
886.6621036701099
 21
351.4212940853559
  0
LINE
  8
_2-7_ビス
  6
CONTINUOUS
 62
    7
 10
886.6621036701099
 20
351.4212940853559
 11
886.68123378501491
 21
351.45527725748912
  0
LINE
  8
_2-7_ビス
  6
CONTINUOUS
 62
    7
 10
886.68123378501491
 20
351.45527725748912
 11
886.69470576611911
 21
351.49239630678943
  0
LINE
  8
_2-7_ビス
  6
CONTINUOUS
 62
    7
 10
886.69470576611911
 20
351.49239630678943
 11
886.7021102740938
 21
351.531523389727
  0
LINE
  8
_2-7_ビス
  6
CONTINUOUS
 62
    7
 10
886.7021102740938
 20
351.531523389727
 11
886.70322232671083
 21
351.57146964968604
  0
LINE
  8
_2-7_ビス
  6
CONTINUOUS
 62
    7
 10
886.70322232671083
 20
351.57146964968604
 11
886.70239257565004
 21
351.58267951251008
  0
LINE
  8
_2-7_ビス
  6
CONTINUOUS
 62
    7
 10
886.52048789489982
 20
349.76864442591119
 11
886.52048789489982
 21
349.76864442591119
  0
LINE
  8
_2-7_ビス
  6
CONTINUOUS
 62
    7
 10
886.52048789489982
 20
349.76864442591119
 11
886.55501112323486
 21
349.78115797617022
  0
LINE
  8
_2-7_ビス
  6
CONTINUOUS
 62
    7
 10
886.55501112323486
 20
349.78115797617022
 11
886.58703340158797
 21
349.80007229694837
  0
LINE
  8
_2-7_ビス
  6
CONTINUOUS
 62
    7
 10
886.58703340158797
 20
349.80007229694837
 11
886.6155817492355
 21
349.82481268617977
  0
LINE
  8
_2-7_ビス
  6
CONTINUOUS
 62
    7
 10
886.6155817492355
 20
349.82481268617977
 11
886.63978873908036
 21
349.85462741965699
  0
LINE
  8
_2-7_ビス
  6
CONTINUOUS
 62
    7
 10
886.63978873908036
 20
349.85462741965699
 11
886.65891885398537
 21
349.88861059179021
  0
LINE
  8
_2-7_ビス
  6
CONTINUOUS
 62
    7
 10
886.65891885398537
 20
349.88861059179021
 11
886.67239083508957
 21
349.92572964109053
  0
LINE
  8
_2-7_ビス
  6
CONTINUOUS
 62
    7
 10
886.67239083508957
 20
349.92572964109053
 11
886.67979534306426
 21
349.9648567240281
  0
LINE
  8
_2-7_ビス
  6
CONTINUOUS
 62
    7
 10
886.67979534306426
 20
349.9648567240281
 11
886.68090739568129
 21
350.00480298398713
  0
LINE
  8
_2-7_ビス
  6
CONTINUOUS
 62
    7
 10
886.68090739568129
 20
350.00480298398713
 11
886.6800776446205
 21
350.01601284681118
  0
LINE
  8
_2-7_ビス
  6
CONTINUOUS
 62
    7
 10
886.52967107983181
 20
348.20197776021098
 11
886.52967107983181
 21
348.20197776021098
  0
LINE
  8
_2-7_ビス
  6
CONTINUOUS
 62
    7
 10
886.52967107983181
 20
348.20197776021098
 11
886.55681701577078
 21
348.20707357905968
  0
LINE
  8
_2-7_ビス
  6
CONTINUOUS
 62
    7
 10
886.55681701577078
 20
348.20707357905968
 11
886.58274568000252
 21
348.21727445087129
  0
LINE
  8
_2-7_ビス
  6
CONTINUOUS
 62
    7
 10
886.58274568000252
 20
348.21727445087129
 11
886.60666924318502
 21
348.23227042731764
  0
LINE
  8
_2-7_ビス
  6
CONTINUOUS
 62
    7
 10
886.60666924318502
 20
348.23227042731764
 11
886.62786079995692
 21
348.25160586324273
  0
LINE
  8
_2-7_ビス
  6
CONTINUOUS
 62
    7
 10
886.62786079995692
 20
348.25160586324273
 11
886.64567645558895
 21
348.27469326121025
  0
LINE
  8
_2-7_ビス
  6
CONTINUOUS
 62
    7
 10
886.64567645558895
 20
348.27469326121025
 11
886.65957489039999
 21
348.30083112231569
  0
LINE
  8
_2-7_ビス
  6
CONTINUOUS
 62
    7
 10
886.65957489039999
 20
348.30083112231569
 11
886.66913380748133
 21
348.32922526087577
  0
LINE
  8
_2-7_ビス
  6
CONTINUOUS
 62
    7
 10
886.66913380748133
 20
348.32922526087577
 11
886.67406276397446
 21
348.35901293535852
  0
LINE
  8
_2-7_ビス
  6
CONTINUOUS
 62
    7
 10
886.67406276397446
 20
348.35901293535852
 11
886.67421199603041
 21
348.38928906234798
  0
LINE
  8
_2-7_ビス
  6
CONTINUOUS
 62
    7
 10
886.67421199603041
 20
348.38928906234798
 11
886.66957696930876
 21
348.41913371704607
  0
LINE
  8
_2-7_ビス
  6
CONTINUOUS
 62
    7
 10
886.66957696930876
 20
348.41913371704607
 11
886.66029851675103
 21
348.44764008472191
  0
LINE
  8
_2-7_ビス
  6
CONTINUOUS
 62
    7
 10
886.66029851675103
 20
348.44764008472191
 11
886.64665855944304
 21
348.4739420138186
  0
LINE
  8
_2-7_ビス
  6
CONTINUOUS
 62
    7
 10
886.64665855944304
 20
348.4739420138186
 11
886.64657506568597
 21
348.47407450208044
  0
LINE
  8
_2-7_ビス
  6
CONTINUOUS
 62
    7
 10
886.22656232983218
 20
356.03531108871067
 11
886.22656232983218
 21
356.03531108871067
  0
LINE
  8
_2-7_ビス
  6
CONTINUOUS
 62
    7
 10
886.22656232983218
 20
356.03531108871067
 11
886.31088816062584
 21
356.04757104535838
  0
LINE
  8
_2-7_ビス
  6
CONTINUOUS
 62
    7
 10
886.31088816062584
 20
356.04757104535838
 11
886.39199648208421
 21
356.07574351206546
  0
LINE
  8
_2-7_ビス
  6
CONTINUOUS
 62
    7
 10
886.39199648208421
 20
356.07574351206546
 11
886.4674228589023
 21
356.11897248268701
  0
LINE
  8
_2-7_ビス
  6
CONTINUOUS
 62
    7
 10
886.4674228589023
 20
356.11897248268701
 11
886.53487549878821
 21
356.17594446682551
  0
LINE
  8
_2-7_ビス
  6
CONTINUOUS
 62
    7
 10
886.53487549878821
 20
356.17594446682551
 11
886.59230488741161
 21
356.24492839957219
  0
LINE
  8
_2-7_ビス
  6
CONTINUOUS
 62
    7
 10
886.59230488741161
 20
356.24492839957219
 11
886.63796606185986
 21
356.32382823903811
  0
LINE
  8
_2-7_ビス
  6
CONTINUOUS
 62
    7
 10
886.63796606185986
 20
356.32382823903811
 11
886.67047163045311
 21
356.41024665352631
  0
LINE
  8
_2-7_ビス
  6
CONTINUOUS
 62
    7
 10
886.67047163045311
 20
356.41024665352631
 11
886.68883392793816
 21
356.5015578632424
  0
LINE
  8
_2-7_ビス
  6
CONTINUOUS
 62
    7
 10
886.68883392793816
 20
356.5015578632424
 11
886.69249502519779
 21
356.59498742328492
  0
LINE
  8
_2-7_ビス
  6
CONTINUOUS
 62
    7
 10
886.69249502519779
 20
356.59498742328492
 11
886.68134368164431
 21
356.68769652374948
  0
LINE
  8
_2-7_ビス
  6
CONTINUOUS
 62
    7
 10
886.68134368164431
 20
356.68769652374948
 11
886.65571872520877
 21
356.77686824553166
  0
LINE
  8
_2-7_ビス
  6
CONTINUOUS
 62
    7
 10
886.65571872520877
 20
356.77686824553166
 11
886.61639875722562
 21
356.85979315098808
  0
LINE
  8
_2-7_ビス
  6
CONTINUOUS
 62
    7
 10
886.61639875722562
 20
356.85979315098808
 11
886.5645784950251
 21
356.93395160882858
  0
LINE
  8
_2-7_ビス
  6
CONTINUOUS
 62
    7
 10
886.5645784950251
 20
356.93395160882858
 11
886.5018324710519
 21
356.99709035183758
  0
LINE
  8
_2-7_ビス
  6
CONTINUOUS
 62
    7
 10
886.5018324710519
 20
356.99709035183758
 11
886.43006719149332
 21
357.04729094125855
  0
LINE
  8
_2-7_ビス
  6
CONTINUOUS
 62
    7
 10
886.43006719149332
 20
357.04729094125855
 11
886.35146320805404
 21
357.08302805758461
  0
LINE
  8
_2-7_ビス
  6
CONTINUOUS
 62
    7
 10
886.35146320805404
 20
357.08302805758461
 11
886.26840886299499
 21
357.10321584662012
  0
LINE
  8
_2-7_ビス
  6
CONTINUOUS
 62
    7
 10
886.26840886299499
 20
357.10321584662012
 11
886.22656232983218
 21
357.10724091261062
  0
LINE
  8
_2-7_ビス
  6
CONTINUOUS
 62
    7
 10
886.22656232983218
 20
363.86864441721087
 11
886.22656232983218
 21
363.86864441721087
  0
LINE
  8
_2-7_ビス
  6
CONTINUOUS
 62
    7
 10
886.22656232983218
 20
363.86864441721087
 11
886.31088816062584
 21
363.88090437385858
  0
LINE
  8
_2-7_ビス
  6
CONTINUOUS
 62
    7
 10
886.31088816062584
 20
363.88090437385858
 11
886.39199648208421
 21
363.90907684056566
  0
LINE
  8
_2-7_ビス
  6
CONTINUOUS
 62
    7
 10
886.39199648208421
 20
363.90907684056566
 11
886.4674228589023
 21
363.95230581118722
  0
LINE
  8
_2-7_ビス
  6
CONTINUOUS
 62
    7
 10
886.4674228589023
 20
363.95230581118722
 11
886.53487549878821
 21
364.00927779532572
  0
LINE
  8
_2-7_ビス
  6
CONTINUOUS
 62
    7
 10
886.53487549878821
 20
364.00927779532572
 11
886.59230488741161
 21
364.07826172807239
  0
LINE
  8
_2-7_ビス
  6
CONTINUOUS
 62
    7
 10
886.59230488741161
 20
364.07826172807239
 11
886.63796606185986
 21
364.15716156753831
  0
LINE
  8
_2-7_ビス
  6
CONTINUOUS
 62
    7
 10
886.63796606185986
 20
364.15716156753831
 11
886.67047163045311
 21
364.24357998202652
  0
LINE
  8
_2-7_ビス
  6
CONTINUOUS
 62
    7
 10
886.67047163045311
 20
364.24357998202652
 11
886.68883392793816
 21
364.3348911917426
  0
LINE
  8
_2-7_ビス
  6
CONTINUOUS
 62
    7
 10
886.68883392793816
 20
364.3348911917426
 11
886.69249502519779
 21
364.42832075178512
  0
LINE
  8
_2-7_ビス
  6
CONTINUOUS
 62
    7
 10
886.69249502519779
 20
364.42832075178512
 11
886.68134368164431
 21
364.52102985224968
  0
LINE
  8
_2-7_ビス
  6
CONTINUOUS
 62
    7
 10
886.68134368164431
 20
364.52102985224968
 11
886.65571872520877
 21
364.61020157403186
  0
LINE
  8
_2-7_ビス
  6
CONTINUOUS
 62
    7
 10
886.65571872520877
 20
364.61020157403186
 11
886.61639875722562
 21
364.69312647948828
  0
LINE
  8
_2-7_ビス
  6
CONTINUOUS
 62
    7
 10
886.61639875722562
 20
364.69312647948828
 11
886.5645784950251
 21
364.76728493732878
  0
LINE
  8
_2-7_ビス
  6
CONTINUOUS
 62
    7
 10
886.5645784950251
 20
364.76728493732878
 11
886.5018324710519
 21
364.83042368033779
  0
LINE
  8
_2-7_ビス
  6
CONTINUOUS
 62
    7
 10
886.5018324710519
 20
364.83042368033779
 11
886.43006719149332
 21
364.88062426975875
  0
LINE
  8
_2-7_ビス
  6
CONTINUOUS
 62
    7
 10
886.43006719149332
 20
364.88062426975875
 11
886.35146320805404
 21
364.91636138608482
  0
LINE
  8
_2-7_ビス
  6
CONTINUOUS
 62
    7
 10
886.35146320805404
 20
364.91636138608482
 11
886.26840886299499
 21
364.93654917512032
  0
LINE
  8
_2-7_ビス
  6
CONTINUOUS
 62
    7
 10
886.26840886299499
 20
364.93654917512032
 11
886.22656232983218
 21
364.94057424111082
  0
LINE
  8
_2-7_ビス
  6
CONTINUOUS
 62
    7
 10
886.60205447372164
 20
345.48092513031031
 11
886.60205447372164
 21
345.48092513031031
  0
LINE
  8
_2-7_ビス
  6
CONTINUOUS
 62
    7
 10
886.60205447372164
 20
345.48092513031031
 11
886.59665054929542
 21
345.62018075222556
  0
LINE
  8
_2-7_ビス
  6
CONTINUOUS
 62
    7
 10
886.59665054929542
 20
345.62018075222556
 11
886.56933386127605
 21
345.75628909730835
  0
LINE
  8
_2-7_ビス
  6
CONTINUOUS
 62
    7
 10
886.56933386127605
 20
345.75628909730835
 11
886.55177914063347
 21
345.8107496915103
  0
LINE
  8
_2-7_ビス
  6
CONTINUOUS
 62
    7
 10
887.69296007983121
 20
343.48159767275797
 11
887.69296007983121
 21
343.48159767275797
  0
LINE
  8
_2-7_ビス
  6
CONTINUOUS
 62
    7
 10
887.69296007983121
 20
343.48159767275797
 11
887.69013825499849
 21
343.53743786730195
  0
LINE
  8
_2-7_ビス
  6
CONTINUOUS
 62
    7
 10
887.69013825499849
 20
343.53743786730195
 11
887.67853956750969
 21
343.59189100515755
  0
LINE
  8
_2-7_ビス
  6
CONTINUOUS
 62
    7
 10
887.67853956750969
 20
343.59189100515755
 11
887.65851643761494
 21
343.64330255528552
  0
LINE
  8
_2-7_ビス
  6
CONTINUOUS
 62
    7
 10
887.65851643761494
 20
343.64330255528552
 11
887.63067725798396
 21
343.69011040375085
  0
LINE
  8
_2-7_ビス
  6
CONTINUOUS
 62
    7
 10
887.63067725798396
 20
343.69011040375085
 11
887.59586790800256
 21
343.73089231776373
  0
LINE
  8
_2-7_ビス
  6
CONTINUOUS
 62
    7
 10
887.59586790800256
 20
343.73089231776373
 11
887.55514605215546
 21
343.76440915950354
  0
LINE
  8
_2-7_ビス
  6
CONTINUOUS
 62
    7
 10
887.55514605215546
 20
343.76440915950354
 11
887.50974900342646
 21
343.78964253669443
  0
LINE
  8
_2-7_ビス
  6
CONTINUOUS
 62
    7
 10
887.50974900342646
 20
343.78964253669443
 11
887.46105612816893
 21
343.80582574593905
  0
LINE
  8
_2-7_ビス
  6
CONTINUOUS
 62
    7
 10
887.46105612816893
 20
343.80582574593905
 11
887.41054693475803
 21
343.81246706861367
  0
LINE
  8
_2-7_ビス
  6
CONTINUOUS
 62
    7
 10
887.41054693475803
 20
343.81246706861367
 11
887.35975611947663
 21
343.80936471148948
  0
LINE
  8
_2-7_ビス
  6
CONTINUOUS
 62
    7
 10
887.35975611947663
 20
343.80936471148948
 11
887.31022693554553
 21
343.79661293811785
  0
LINE
  8
_2-7_ビス
  6
CONTINUOUS
 62
    7
 10
887.31022693554553
 20
343.79661293811785
 11
887.26346430215551
 21
343.77459920467993
  0
LINE
  8
_2-7_ビス
  6
CONTINUOUS
 62
    7
 10
887.26346430215551
 20
343.77459920467993
 11
887.22088907825923
 21
343.74399238732678
  0
LINE
  8
_2-7_ビス
  6
CONTINUOUS
 62
    7
 10
887.22088907825923
 20
343.74399238732678
 11
887.18379489049062
 21
343.70572245871585
  0
LINE
  8
_2-7_ビス
  6
CONTINUOUS
 62
    7
 10
887.18379489049062
 20
343.70572245871585
 11
887.15330882697435
 21
343.66095223126251
  0
LINE
  8
_2-7_ビス
  6
CONTINUOUS
 62
    7
 10
887.15330882697435
 20
343.66095223126251
 11
887.13035719132381
 21
343.61104202567304
  0
LINE
  8
_2-7_ビス
  6
CONTINUOUS
 62
    7
 10
887.13035719132381
 20
343.61104202567304
 11
887.11563735737411
 21
343.55750833828853
  0
LINE
  8
_2-7_ビス
  6
CONTINUOUS
 62
    7
 10
887.11563735737411
 20
343.55750833828853
 11
887.1095965798313
 21
343.50197776311074
  0
LINE
  8
_2-7_ビス
  6
CONTINUOUS
 62
    7
 10
887.1095965798313
 20
343.50197776311074
 11
887.1095965798313
 21
343.50197776311069
  0
LINE
  8
_2-7_ビス
  6
CONTINUOUS
 62
    7
 10
891.39531232983222
 20
424.5651356325111
 11
891.39531232983222
 21
384.5651356325111
  0
LINE
  8
_2-7_ビス
  6
CONTINUOUS
 62
    7
 10
887.39531232983131
 20
424.5651356325111
 11
887.39531232983131
 21
384.5651356325111
  0
LINE
  8
_2-4_out_line
  6
CONTINUOUS
 62
    2
 10
961.18848502936635
 20
424.5651356325111
 11
1355.2801079879473
 21
424.5651356325111
  0
LINE
  8
_2-4_out_line
  6
CONTINUOUS
 62
    2
 10
961.18848502936635
 20
429.5651356325111
 11
961.18848502936635
 21
424.5651356325111
  0
LINE
  8
_2-2_in_line
  6
CONTINUOUS
 62
    7
 10
891.39531232983222
 20
414.5651356325111
 11
1355.2801079879473
 21
414.5651356325111
  0
LINE
  8
_2-2_in_line
  6
CONTINUOUS
 62
    7
 10
891.39531232983222
 20
419.5651356325111
 11
1355.2801079879473
 21
419.5651356325111
  0
LINE
  8
_2-2_in_line
  6
CONTINUOUS
 62
    7
 10
855.28010798794617
 20
414.5651356325111
 11
887.39531232983131
 21
414.5651356325111
  0
LINE
  8
_2-2_in_line
  6
CONTINUOUS
 62
    7
 10
857.76200872657205
 20
656.70467235932551
 11
857.76200872657205
 21
445.82349177223182
  0
ARC
  8
_2-4_out_line
  6
CONTINUOUS
 62
    2
 10
854.66853458020046
 20
440.75265414726846
 40
10.700000000000003
 50
10.000000000000268
 51
40.852198426769682
  0
LINE
  8
_2-4_out_line
  6
CONTINUOUS
 62
    2
 10
862.76200872657205
 20
447.75163094691652
 11
862.76200872657205
 21
656.70467235932551
  0
TEXT
  8
_2-a_moji
 62
    7
 10
1099.2357985429337
 20
1137.3947608053509
 40
15
 41
1
 50
0
  1
(２２５仕様の場合使用)
  0
TEXT
  8
_2-a_moji
 62
    7
 10
1099.2357985429337
 20
497.39476080535087
 40
15
 41
1
 50
0
  1
(２２５仕様の場合使用)
  0
LINE
  8
ADD_LINE
  6
DOT
 62
  136
 10
650.28010798794617
 20
159.56513563251107
 11
650.28010798794617
 21
119.56513563251107
  0
TEXT
  8
_f-a_
 62
    7
 10
865.28010798794617
 20
129.56513563251107
 40
17.5
 41
1
 50
0
  1
下地：ＲＣ
  0
LINE
  8
_f-5_
  6
CONTINUOUS
 62
    6
 10
847.78010798794617
 20
159.56513563251107
 11
847.78010798794617
 21
119.56513563251107
  0
LINE
  8
_f-5_
  6
CONTINUOUS
 62
    6
 10
850.28010798794617
 20
159.56513563251107
 11
850.28010798794617
 21
119.56513563251107
  0
LINE
  8
ADD_LINE
  6
DOT
 62
  136
 10
865.28010798794617
 20
159.56513563251107
 11
865.28010798794617
 21
119.56513563251107
  0
TEXT
  8
_f-a_
 62
    7
 10
650.28010798794617
 20
129.56513563251107
 40
20
 41
1
 50
0
  1
２２５・２２７仕様
  0
LINE
  8
ADD_LINE
  6
DOT
 62
  136
 10
650.28010798794617
 20
799.5651356325111
 11
650.28010798794617
 21
759.5651356325111
  0
TEXT
  8
_f-a_
 62
    7
 10
865.28010798794617
 20
769.5651356325111
 40
17.5
 41
1
 50
0
  1
下地：ＲＣ
  0
LINE
  8
_f-5_
  6
CONTINUOUS
 62
    6
 10
847.78010798794617
 20
799.5651356325111
 11
847.78010798794617
 21
759.5651356325111
  0
LINE
  8
_f-5_
  6
CONTINUOUS
 62
    6
 10
850.28010798794617
 20
799.5651356325111
 11
850.28010798794617
 21
759.5651356325111
  0
LINE
  8
ADD_LINE
  6
DOT
 62
  136
 10
865.28010798794617
 20
799.5651356325111
 11
865.28010798794617
 21
759.5651356325111
  0
TEXT
  8
_f-a_
 62
    7
 10
650.28010798794617
 20
769.5651356325111
 40
20
 41
1
 50
0
  1
２２５・２２７仕様
  0
LINE
  8
_f-2_
  6
CONTINUOUS
 62
    7
 10
995.28010798794617
 20
799.5651356325111
 11
995.28010798794617
 21
759.5651356325111
  0
LINE
  8
_f-2_
  6
CONTINUOUS
 62
    7
 10
995.28010798794617
 20
159.56513563251107
 11
995.28010798794617
 21
119.56513563251107
  0
ENDSEC
  0
EOF
