  0
SECTION
  2
HEADER
  9
$ACADVER
  1
AC1009
  9
$INSBASE
 10
0
 20
0
 30
0
  9
$EXTMIN
 10
0
 20
0
  9
$EXTMAX
 10
2100
 20
1485
  9
$LIMMIN
 10
0
 20
0
  9
$LIMMAX
 10
2100
 20
1485
  9
$LTSCALE
 40
5
  0
ENDSEC
  0
SECTION
  2
TABLES
  0
TABLE
  2
LTYPE
 70
     9
  0
LTYPE
  2
CONTINUOUS
 70
    64
  3
実線
 72
    65
 73
     0
 40
0.0
  0
LTYPE
  2
DASHED1
 70
    64
  3
--  --  --  --  --  --  --  --  
 72
    65
 73
     2
 40
2.5
 49
1.25
 49
-1.25
  0
LTYPE
  2
DASHED2
 70
    64
  3
----    ----    ----    ----    
 72
    65
 73
     2
 40
5.0
 49
2.5
 49
-2.5
  0
LTYPE
  2
DASHED3
 70
    64
  3
------  ------  ------  ------  
 72
    65
 73
     2
 40
5.0
 49
3.75
 49
-1.25
  0
LTYPE
  2
CENTER1
 70
    64
  3
----- - ----- - ----- - ----- - 
 72
    65
 73
     4
 40
10.0
 49
6.25
 49
-1.25
 49
1.25
 49
-1.25
  0
LTYPE
  2
CENTER2
 70
    64
  3
----------  --  ----------  --  
 72
    65
 73
     4
 40
20.0
 49
12.5
 49
-2.5
 49
2.5
 49
-2.5
  0
LTYPE
  2
PHANTOM1
 70
    64
  3
--- - - --- - - --- - - --- - - 
 72
    65
 73
     6
 40
10.0
 49
3.25
 49
-1.25
 49
1.25
 49
-1.25
 49
1.25
 49
-1.25
  0
LTYPE
  2
PHANTOM2
 70
    64
  3
--------  -  -  --------  -  -  
 72
    65
 73
     6
 40
20.0
 49
10.0
 49
-2.5
 49
1.25
 49
-2.5
 49
1.25
 49
-2.5
  0
LTYPE
  2
DOT
 70
    64
  3
-   -   -   -   -   -   -   -   
 72
    65
 73
     2
 40
2.5
 49
0.625
 49
-1.875
  0
LTYPE
  2
DUMMY
 70
    64
  3
ダミー
 72
    65
 73
     0
 40
0.0
  0
LTYPE
  2
RAND1
 70
    64
  3
ランダム線1
 72
    65
 73
     4
 40
10.0
 49
1.0
 49
-2.0
 49
3.0
 49
-4.0
  0
LTYPE
  2
RAND2
 70
    64
  3
ランダム線2
 72
    65
 73
     4
 40
14.0
 49
2.0
 49
-3.0
 49
4.0
 49
-5.0
  0
LTYPE
  2
RAND3
 70
    64
  3
ランダム線3
 72
    65
 73
     4
 40
18.0
 49
3.0
 49
-4.0
 49
5.0
 49
-6.0
  0
LTYPE
  2
RAND4
 70
    64
  3
ランダム線4
 72
    65
 73
     4
 40
22.0
 49
4.0
 49
-5.0
 49
6.0
 49
-7.0
  0
LTYPE
  2
RAND5
 70
    64
  3
ランダム線5
 72
    65
 73
     4
 40
26.0
 49
5.0
 49
-6.0
 49
7.0
 49
-8.0
  0
LTYPE
  2
LONG1
 70
    64
  3
----------  --  ----------  --  
 72
    65
 73
     4
 40
40.0
 49
32.5
 49
-2.5
 49
2.5
 49
-2.5
  0
LTYPE
  2
LONG2
 70
    64
  3
--------  -  -  --------  -  -  
 72
    65
 73
     6
 40
40.0
 49
30.0
 49
-2.5
 49
1.25
 49
-2.5
 49
1.25
 49
-2.5
  0
LTYPE
  2
LONG3
 70
    64
  3
+++++++++++++++..+++++++++++++++
 72
    65
 73
     2
 40
40.0
 49
37.5
 49
-2.5
  0
LTYPE
  2
LONG4
 70
    64
  3
+++++++++++++++..+++++++++++++++
 72
    65
 73
     2
 40
80.0
 49
75.0
 49
-5.0
  0
LTYPE
  2
LONG5
 70
    64
  3
----------  --  ----------  --  
 72
    65
 73
     4
 40
60.0
 49
37.5
 49
-7.5
 49
7.5
 49
-7.5
  0
LTYPE
  2
dashed
 70
   64
  3
-------   -------------   ------
 72
   65
 73
    2
 40
7.5
 49
6
 49
-1.5
  0
LTYPE
  2
dashed_spaced
 70
   64
  3
----        --------        ----
 72
   65
 73
    2
 40
12
 49
6
 49
-6
  0
LTYPE
  2
long_dashed_dotted
 70
   64
  3
------------- --- --------------
 72
   65
 73
    4
 40
15.25
 49
12
 49
-1.5
 49
0.25
 49
-1.5
  0
LTYPE
  2
long_dashed_double-dotted
 70
   64
  3
----------- --- --- ------------
 72
   65
 73
    6
 40
17
 49
12
 49
-1.5
 49
0.25
 49
-1.5
 49
0.25
 49
-1.5
  0
LTYPE
  2
long_dashed_triplicate-dotted
 70
   64
  3
--------- --- --- --- ----------
 72
   65
 73
    8
 40
18.75
 49
12
 49
-1.5
 49
0.25
 49
-1.5
 49
0.25
 49
-1.5
 49
0.25
 49
-1.5
  0
LTYPE
  2
dotted
 70
   64
  3
   -       -       -       -    
 72
   65
 73
    2
 40
1.75
 49
0.25
 49
-1.5
  0
LTYPE
  2
chain
 70
   64
  3
-------------- -- --------------
 72
   65
 73
    4
 40
18.5
 49
12
 49
-1.5
 49
3.5
 49
-1.5
  0
LTYPE
  2
chain_double_dash
 70
   64
  3
------------ -- -- -------------
 72
   65
 73
    6
 40
23.5
 49
12
 49
-1.5
 49
3.5
 49
-1.5
 49
3.5
 49
-1.5
  0
LTYPE
  2
dashed_dotted
 70
   64
  3
-----------     -     ----------
 72
   65
 73
    4
 40
9.25
 49
6
 49
-1.5
 49
0.25
 49
-1.5
  0
LTYPE
  2
double-dashed_dotted
 70
   64
  3
------   -----------   -   -----
 72
   65
 73
    6
 40
16.75
 49
6
 49
-1.5
 49
6
 49
-1.5
 49
0.25
 49
-1.5
  0
LTYPE
  2
dashed_double-dotted
 70
   64
  3
---------    -    -    ---------
 72
   65
 73
    6
 40
11
 49
6
 49
-1.5
 49
0.25
 49
-1.5
 49
0.25
 49
-1.5
  0
LTYPE
  2
double-dashed_double-dotted
 70
   64
  3
-----   ---------   -   -   ----
 72
   65
 73
    8
 40
18.5
 49
6
 49
-1.5
 49
6
 49
-1.5
 49
0.25
 49
-1.5
 49
0.25
 49
-1.5
  0
LTYPE
  2
dashed_triplicate-dotted
 70
   64
  3
-------    -    -    -    ------
 72
   65
 73
    8
 40
12.75
 49
6
 49
-1.5
 49
0.25
 49
-1.5
 49
0.25
 49
-1.5
 49
0.25
 49
-1.5
  0
LTYPE
  2
double-dashed_triplicate-dotted
 70
   64
  3
-----  ---------  -  -  -  -----
 72
   65
 73
   10
 40
20.25
 49
6
 49
-1.5
 49
6
 49
-1.5
 49
0.25
 49
-1.5
 49
0.25
 49
-1.5
 49
0.25
 49
-1.5
  0
LTYPE
  2
undefined
 70
   64
  3
--------------------------------
 72
   65
 73
    0
 40
0
  0
ENDTAB
  0
TABLE
  2
STYLE
  5
3
100
AcDbSymbolTable
 70
     1
  0
STYLE
  5
10
100
AcDbSymbolTableRecord
100
AcDbTextStyleTableRecord
  2
STANDARD
 70
     0
 40
0.0
 41
1.0
 50
0.0
 71
     0
 42
0.2
  3
txt
  4
bigfont.shx
  0
STYLE
  5
26
100
AcDbSymbolTableRecord
100
AcDbTextStyleTableRecord
  2
TATEGAKI
 70
    68
 40
0.0
 41
1.0
 50
0.0
 71
     0
 42
1.0
  3
txt
  4
bigfont.shx
  0
ENDTAB
  0
TABLE
  2
LAYER
 70
   15
  0
LAYER
  2
_2-2_in_line
 70
   64
 62
    7
  6
CONTINUOUS
  0
LAYER
  2
_2-3_
 70
   64
 62
    7
  6
CONTINUOUS
  0
LAYER
  2
_2-4_out_line
 70
   64
 62
    7
  6
CONTINUOUS
  0
LAYER
  2
_2-6_鋼板__アングル
 70
   64
 62
    7
  6
CONTINUOUS
  0
LAYER
  2
_2-7_ビス
 70
   64
 62
    7
  6
CONTINUOUS
  0
LAYER
  2
_2-a_moji
 70
   64
 62
    7
  6
CONTINUOUS
  0
LAYER
  2
_2-b_dim
 70
   64
 62
    7
  6
CONTINUOUS
  0
LAYER
  2
_2-d_ハッチ他
 70
   64
 62
    7
  6
CONTINUOUS
  0
LAYER
  2
_2-e_con他
 70
   64
 62
    7
  6
CONTINUOUS
  0
LAYER
  2
_f-2_
 70
   64
 62
    7
  6
CONTINUOUS
  0
LAYER
  2
_f-5_
 70
   64
 62
    7
  6
CONTINUOUS
  0
LAYER
  2
_f-7_
 70
   64
 62
    7
  6
CONTINUOUS
  0
LAYER
  2
_f-8_
 70
   64
 62
    7
  6
CONTINUOUS
  0
LAYER
  2
_f-a_
 70
   64
 62
    7
  6
CONTINUOUS
  0
LAYER
  2
ADD_LINE
 70
   64
 62
    7
  6
CONTINUOUS
  0
ENDTAB
  0
ENDSEC
  0
SECTION
  2
BLOCKS
  0
ENDSEC
  0
SECTION
  2
ENTITIES
  0
LINE
  8
_f-7_
  6
CONTINUOUS
 62
    1
 10
683.30625177879358
 20
775.90912975550623
 11
1483.3062517787937
 21
775.90912975550623
  0
LINE
  8
ADD_LINE
  6
DOT
 62
  136
 10
683.30625177879358
 20
795.90912975550623
 11
1483.3062517787937
 21
795.90912975550623
  0
LINE
  8
_f-5_
  6
CONTINUOUS
 62
    6
 10
683.30625177879358
 20
815.90912975550623
 11
1483.3062517787937
 21
815.90912975550623
  0
LINE
  8
_f-7_
  6
CONTINUOUS
 62
    1
 10
1483.3062517787937
 20
1365.9091297555062
 11
1483.3062517787937
 21
775.90912975550623
  0
LINE
  8
_f-7_
  6
CONTINUOUS
 62
    1
 10
683.30625177879358
 20
1365.9091297555062
 11
1483.3062517787937
 21
1365.9091297555062
  0
LINE
  8
_f-7_
  6
CONTINUOUS
 62
    1
 10
683.30625177879358
 20
1365.9091297555062
 11
683.30625177879358
 21
775.90912975550623
  0
LINE
  8
ADD_LINE
  6
DOT
 62
  136
 10
1063.3062517787935
 20
815.90912975550623
 11
1063.3062517787935
 21
775.90912975550623
  0
LINE
  8
ADD_LINE
  6
DOT
 62
  136
 10
1368.3062517787937
 20
815.90912975550623
 11
1368.3062517787937
 21
775.90912975550623
  0
LINE
  8
_f-2_
  6
CONTINUOUS
 62
    7
 10
1353.3062517787937
 20
815.90912975550623
 11
1353.3062517787937
 21
775.90912975550623
  0
LINE
  8
ADD_LINE
  6
DOT
 62
  136
 10
1263.3062517787935
 20
815.90912975550623
 11
1263.3062517787935
 21
775.90912975550623
  0
LINE
  8
_f-2_
  6
CONTINUOUS
 62
    7
 10
1248.3062517787935
 20
815.90912975550623
 11
1248.3062517787935
 21
775.90912975550623
  0
TEXT
  8
_f-a_
 62
    7
 10
1368.3062517787937
 20
785.90912975550623
 40
15
 41
1
 50
0
  1
図番
  0
TEXT
  8
_f-a_
 62
    7
 10
1263.3062517787935
 20
785.90912975550623
 40
15
 41
1
 50
0
  1
Ｓ＝１：５
  0
TEXT
  8
_f-a_
 62
    7
 10
1414.7239205029007
 20
785.90912975550623
 40
15
 41
1
 50
0
  1
５－７
  0
TEXT
  8
_f-a_
 62
    7
 10
1063.3062517787935
 20
785.90912975550623
 40
17.5
 41
1
 50
0
  1
部位：パイプ廻り
  0
ARC
  8
_2-d_ハッチ他
  6
CONTINUOUS
 62
    4
 10
972.75608979941228
 20
1032.8535669939254
 40
1.2083333333333581
 50
307.52351320333912
 51
232.47648680464988
  0
ARC
  8
_2-d_ハッチ他
  6
CONTINUOUS
 62
    4
 10
974.22804994388673
 20
1030.9369003273252
 40
1.2083333333333179
 50
127.52351320610693
 51
52.47648680188081
  0
ARC
  8
_2-d_ハッチ他
  6
CONTINUOUS
 62
    4
 10
969.8121695107294
 20
1032.8535669937207
 40
1.2083333333333581
 50
307.52351320333912
 51
232.47648680464988
  0
ARC
  8
_2-d_ハッチ他
  6
CONTINUOUS
 62
    4
 10
971.28412965520386
 20
1030.9369003271206
 40
1.2083333333333179
 50
127.52351320610693
 51
52.47648680188081
  0
ARC
  8
_2-d_ハッチ他
  6
CONTINUOUS
 62
    4
 10
968.34020936652098
 20
1030.9369003269137
 40
1.2083333333333179
 50
127.52351320610693
 51
52.47648680188081
  0
ARC
  8
_2-d_ハッチ他
  6
CONTINUOUS
 62
    4
 10
958.03648835599563
 20
1032.8535669928999
 40
1.2083333333333581
 50
307.52351320333912
 51
232.47648680464988
  0
ARC
  8
_2-d_ハッチ他
  6
CONTINUOUS
 62
    4
 10
959.50844850047008
 20
1030.9369003262998
 40
1.2083333333333179
 50
127.52351320610693
 51
52.47648680188081
  0
ARC
  8
_2-d_ハッチ他
  6
CONTINUOUS
 62
    4
 10
952.14864777862761
 20
1032.8535669924884
 40
1.2083333333333581
 50
307.52351320333912
 51
232.47648680464988
  0
ARC
  8
_2-d_ハッチ他
  6
CONTINUOUS
 62
    4
 10
955.09256806731275
 20
1032.853566992693
 40
1.2083333333333581
 50
307.52351320333912
 51
232.47648680464988
  0
ARC
  8
_2-d_ハッチ他
  6
CONTINUOUS
 62
    4
 10
953.62060792310433
 20
1030.9369003258882
 40
1.2083333333333179
 50
127.52351320610693
 51
52.47648680188081
  0
ARC
  8
_2-d_ハッチ他
  6
CONTINUOUS
 62
    4
 10
956.56452821178721
 20
1030.9369003260952
 40
1.2083333333333179
 50
127.52351320610693
 51
52.47648680188081
  0
ARC
  8
_2-d_ハッチ他
  6
CONTINUOUS
 62
    4
 10
950.67668763441918
 20
1030.9369003256836
 40
1.2083333333333179
 50
127.52351320610693
 51
52.47648680188081
  0
ARC
  8
_2-d_ハッチ他
  6
CONTINUOUS
 62
    4
 10
949.20472748994473
 20
1032.8535669922837
 40
1.2083333333333581
 50
307.52351320333912
 51
232.47648680464988
  0
ARC
  8
_2-d_ハッチ他
  6
CONTINUOUS
 62
    4
 10
999.2513723975627
 20
1032.8535669939254
 40
1.2083333333333581
 50
307.52351320333912
 51
232.47648680464988
  0
ARC
  8
_2-d_ハッチ他
  6
CONTINUOUS
 62
    4
 10
1000.7233325420372
 20
1030.9369003273252
 40
1.2083333333333179
 50
127.52351320610693
 51
52.47648680188081
  0
ARC
  8
_2-d_ハッチ他
  6
CONTINUOUS
 62
    4
 10
996.30745210887756
 20
1032.8535669937207
 40
1.2083333333333581
 50
307.52351320333912
 51
232.47648680464988
  0
ARC
  8
_2-d_ハッチ他
  6
CONTINUOUS
 62
    4
 10
997.77941225335428
 20
1030.9369003271206
 40
1.2083333333333179
 50
127.52351320610693
 51
52.47648680188081
  0
ARC
  8
_2-d_ハッチ他
  6
CONTINUOUS
 62
    4
 10
993.36353182019468
 20
1032.8535669935138
 40
1.2083333333333581
 50
307.52351320333912
 51
232.47648680464988
  0
ARC
  8
_2-d_ハッチ他
  6
CONTINUOUS
 62
    4
 10
994.83549196467141
 20
1030.9369003269137
 40
1.2083333333333179
 50
127.52351320610693
 51
52.47648680188081
  0
ARC
  8
_2-d_ハッチ他
  6
CONTINUOUS
 62
    4
 10
990.4196115315118
 20
1032.8535669933092
 40
1.2083333333333581
 50
307.52351320333912
 51
232.47648680464988
  0
ARC
  8
_2-d_ハッチ他
  6
CONTINUOUS
 62
    4
 10
991.89157167598626
 20
1030.9369003267091
 40
1.2083333333333179
 50
127.52351320610693
 51
52.47648680188081
  0
ARC
  8
_2-d_ハッチ他
  6
CONTINUOUS
 62
    4
 10
987.47569124282893
 20
1032.8535669931046
 40
1.2083333333333581
 50
307.52351320333912
 51
232.47648680464988
  0
ARC
  8
_2-d_ハッチ他
  6
CONTINUOUS
 62
    4
 10
988.94765138730338
 20
1030.9369003265044
 40
1.2083333333333179
 50
127.52351320610693
 51
52.47648680188081
  0
ARC
  8
_2-d_ハッチ他
  6
CONTINUOUS
 62
    4
 10
984.53177095414605
 20
1032.8535669928999
 40
1.2083333333333581
 50
307.52351320333912
 51
232.47648680464988
  0
ARC
  8
_2-d_ハッチ他
  6
CONTINUOUS
 62
    4
 10
986.00373109862051
 20
1030.9369003262998
 40
1.2083333333333179
 50
127.52351320610693
 51
52.47648680188081
  0
ARC
  8
_2-d_ハッチ他
  6
CONTINUOUS
 62
    4
 10
978.64393037677803
 20
1032.8535669924884
 40
1.2083333333333581
 50
307.52351320333912
 51
232.47648680464988
  0
ARC
  8
_2-d_ハッチ他
  6
CONTINUOUS
 62
    4
 10
981.58785066546091
 20
1032.853566992693
 40
1.2083333333333581
 50
307.52351320333912
 51
232.47648680464988
  0
ARC
  8
_2-d_ハッチ他
  6
CONTINUOUS
 62
    4
 10
980.11589052125476
 20
1030.9369003258882
 40
1.2083333333333179
 50
127.52351320610693
 51
52.47648680188081
  0
ARC
  8
_2-d_ハッチ他
  6
CONTINUOUS
 62
    4
 10
983.05981080993763
 20
1030.9369003260952
 40
1.2083333333333179
 50
127.52351320610693
 51
52.47648680188081
  0
ARC
  8
_2-d_ハッチ他
  6
CONTINUOUS
 62
    4
 10
977.17197023256961
 20
1030.9369003256836
 40
1.2083333333333179
 50
127.52351320610693
 51
52.47648680188081
  0
ARC
  8
_2-d_ハッチ他
  6
CONTINUOUS
 62
    4
 10
975.70001008809515
 20
1032.8535669922837
 40
1.2083333333333581
 50
307.52351320333912
 51
232.47648680464988
  0
ARC
  8
_2-d_ハッチ他
  6
CONTINUOUS
 62
    4
 10
1016.9148941296622
 20
1032.8535669939254
 40
1.2083333333333581
 50
307.52351320333912
 51
232.47648680464988
  0
ARC
  8
_2-d_ハッチ他
  6
CONTINUOUS
 62
    4
 10
1018.3868542741367
 20
1030.9369003273252
 40
1.2083333333333179
 50
127.52351320610693
 51
52.47648680188081
  0
ARC
  8
_2-d_ハッチ他
  6
CONTINUOUS
 62
    4
 10
1013.9709738409794
 20
1032.8535669937207
 40
1.2083333333333581
 50
307.52351320333912
 51
232.47648680464988
  0
ARC
  8
_2-d_ハッチ他
  6
CONTINUOUS
 62
    4
 10
1015.4429339854538
 20
1030.9369003271206
 40
1.2083333333333179
 50
127.52351320610693
 51
52.47648680188081
  0
ARC
  8
_2-d_ハッチ他
  6
CONTINUOUS
 62
    4
 10
1011.0270535522965
 20
1032.8535669935138
 40
1.2083333333333581
 50
307.52351320333912
 51
232.47648680464988
  0
ARC
  8
_2-d_ハッチ他
  6
CONTINUOUS
 62
    4
 10
1012.4990136967709
 20
1030.9369003269137
 40
1.2083333333333179
 50
127.52351320610693
 51
52.47648680188081
  0
ARC
  8
_2-d_ハッチ他
  6
CONTINUOUS
 62
    4
 10
1008.0831332636113
 20
1032.8535669933092
 40
1.2083333333333581
 50
307.52351320333912
 51
232.47648680464988
  0
ARC
  8
_2-d_ハッチ他
  6
CONTINUOUS
 62
    4
 10
1009.5550934080881
 20
1030.9369003267091
 40
1.2083333333333179
 50
127.52351320610693
 51
52.47648680188081
  0
ARC
  8
_2-d_ハッチ他
  6
CONTINUOUS
 62
    4
 10
1005.1392129749285
 20
1032.8535669931046
 40
1.2083333333333581
 50
307.52351320333912
 51
232.47648680464988
  0
ARC
  8
_2-d_ハッチ他
  6
CONTINUOUS
 62
    4
 10
1006.6111731194029
 20
1030.9369003265044
 40
1.2083333333333179
 50
127.52351320610693
 51
52.47648680188081
  0
ARC
  8
_2-d_ハッチ他
  6
CONTINUOUS
 62
    4
 10
1002.1952926862456
 20
1032.8535669928999
 40
1.2083333333333581
 50
307.52351320333912
 51
232.47648680464988
  0
ARC
  8
_2-d_ハッチ他
  6
CONTINUOUS
 62
    4
 10
1003.66725283072
 20
1030.9369003262998
 40
1.2083333333333179
 50
127.52351320610693
 51
52.47648680188081
  0
ARC
  8
_2-d_ハッチ他
  6
CONTINUOUS
 62
    4
 10
1043.4101767278125
 20
1032.8535669939254
 40
1.2083333333333581
 50
307.52351320333912
 51
232.47648680464988
  0
ARC
  8
_2-d_ハッチ他
  6
CONTINUOUS
 62
    4
 10
1044.882136872287
 20
1030.9369003273252
 40
1.2083333333333179
 50
127.52351320610693
 51
52.47648680188081
  0
ARC
  8
_2-d_ハッチ他
  6
CONTINUOUS
 62
    4
 10
1040.4662564391297
 20
1032.8535669937207
 40
1.2083333333333581
 50
307.52351320333912
 51
232.47648680464988
  0
ARC
  8
_2-d_ハッチ他
  6
CONTINUOUS
 62
    4
 10
1041.9382165836041
 20
1030.9369003271206
 40
1.2083333333333179
 50
127.52351320610693
 51
52.47648680188081
  0
ARC
  8
_2-d_ハッチ他
  6
CONTINUOUS
 62
    4
 10
1037.5223361504445
 20
1032.8535669935138
 40
1.2083333333333581
 50
307.52351320333912
 51
232.47648680464988
  0
ARC
  8
_2-d_ハッチ他
  6
CONTINUOUS
 62
    4
 10
1038.9942962949212
 20
1030.9369003269137
 40
1.2083333333333179
 50
127.52351320610693
 51
52.47648680188081
  0
ARC
  8
_2-d_ハッチ他
  6
CONTINUOUS
 62
    4
 10
1034.5784158617616
 20
1032.8535669933092
 40
1.2083333333333581
 50
307.52351320333912
 51
232.47648680464988
  0
ARC
  8
_2-d_ハッチ他
  6
CONTINUOUS
 62
    4
 10
1036.0503760062384
 20
1030.9369003267091
 40
1.2083333333333179
 50
127.52351320610693
 51
52.47648680188081
  0
ARC
  8
_2-d_ハッチ他
  6
CONTINUOUS
 62
    4
 10
1031.6344955730788
 20
1032.8535669931046
 40
1.2083333333333581
 50
307.52351320333912
 51
232.47648680464988
  0
ARC
  8
_2-d_ハッチ他
  6
CONTINUOUS
 62
    4
 10
1033.1064557175532
 20
1030.9369003265044
 40
1.2083333333333179
 50
127.52351320610693
 51
52.47648680188081
  0
ARC
  8
_2-d_ハッチ他
  6
CONTINUOUS
 62
    4
 10
1028.6905752843959
 20
1032.8535669928999
 40
1.2083333333333581
 50
307.52351320333912
 51
232.47648680464988
  0
ARC
  8
_2-d_ハッチ他
  6
CONTINUOUS
 62
    4
 10
1030.1625354288703
 20
1030.9369003262998
 40
1.2083333333333179
 50
127.52351320610693
 51
52.47648680188081
  0
ARC
  8
_2-d_ハッチ他
  6
CONTINUOUS
 62
    4
 10
1022.802734707028
 20
1032.8535669924884
 40
1.2083333333333581
 50
307.52351320333912
 51
232.47648680464988
  0
ARC
  8
_2-d_ハッチ他
  6
CONTINUOUS
 62
    4
 10
1025.746654995713
 20
1032.853566992693
 40
1.2083333333333581
 50
307.52351320333912
 51
232.47648680464988
  0
ARC
  8
_2-d_ハッチ他
  6
CONTINUOUS
 62
    4
 10
1024.2746948515046
 20
1030.9369003258882
 40
1.2083333333333179
 50
127.52351320610693
 51
52.47648680188081
  0
ARC
  8
_2-d_ハッチ他
  6
CONTINUOUS
 62
    4
 10
1027.2186151401875
 20
1030.9369003260952
 40
1.2083333333333179
 50
127.52351320610693
 51
52.47648680188081
  0
ARC
  8
_2-d_ハッチ他
  6
CONTINUOUS
 62
    4
 10
1021.3307745628196
 20
1030.9369003256836
 40
1.2083333333333179
 50
127.52351320610693
 51
52.47648680188081
  0
ARC
  8
_2-d_ハッチ他
  6
CONTINUOUS
 62
    4
 10
1019.8588144183451
 20
1032.8535669922837
 40
1.2083333333333581
 50
307.52351320333912
 51
232.47648680464988
  0
ARC
  8
_2-d_ハッチ他
  6
CONTINUOUS
 62
    4
 10
1069.905459325963
 20
1032.8535669939254
 40
1.2083333333333581
 50
307.52351320333912
 51
232.47648680464988
  0
ARC
  8
_2-d_ハッチ他
  6
CONTINUOUS
 62
    4
 10
1071.3774194704374
 20
1030.9369003273252
 40
1.2083333333333179
 50
127.52351320610693
 51
52.47648680188081
  0
ARC
  8
_2-d_ハッチ他
  6
CONTINUOUS
 62
    4
 10
1066.9615390372778
 20
1032.8535669937207
 40
1.2083333333333581
 50
307.52351320333912
 51
232.47648680464988
  0
ARC
  8
_2-d_ハッチ他
  6
CONTINUOUS
 62
    4
 10
1068.4334991817545
 20
1030.9369003271206
 40
1.2083333333333179
 50
127.52351320610693
 51
52.47648680188081
  0
ARC
  8
_2-d_ハッチ他
  6
CONTINUOUS
 62
    4
 10
1064.0176187485949
 20
1032.8535669935138
 40
1.2083333333333581
 50
307.52351320333912
 51
232.47648680464988
  0
ARC
  8
_2-d_ハッチ他
  6
CONTINUOUS
 62
    4
 10
1065.4895788930717
 20
1030.9369003269137
 40
1.2083333333333179
 50
127.52351320610693
 51
52.47648680188081
  0
ARC
  8
_2-d_ハッチ他
  6
CONTINUOUS
 62
    4
 10
1061.0736984599121
 20
1032.8535669933092
 40
1.2083333333333581
 50
307.52351320333912
 51
232.47648680464988
  0
ARC
  8
_2-d_ハッチ他
  6
CONTINUOUS
 62
    4
 10
1062.5456586043865
 20
1030.9369003267091
 40
1.2083333333333179
 50
127.52351320610693
 51
52.47648680188081
  0
ARC
  8
_2-d_ハッチ他
  6
CONTINUOUS
 62
    4
 10
1058.1297781712292
 20
1032.8535669931046
 40
1.2083333333333581
 50
307.52351320333912
 51
232.47648680464988
  0
ARC
  8
_2-d_ハッチ他
  6
CONTINUOUS
 62
    4
 10
1059.6017383157036
 20
1030.9369003265044
 40
1.2083333333333179
 50
127.52351320610693
 51
52.47648680188081
  0
ARC
  8
_2-d_ハッチ他
  6
CONTINUOUS
 62
    4
 10
1055.1858578825463
 20
1032.8535669928999
 40
1.2083333333333581
 50
307.52351320333912
 51
232.47648680464988
  0
ARC
  8
_2-d_ハッチ他
  6
CONTINUOUS
 62
    4
 10
1056.6578180270208
 20
1030.9369003262998
 40
1.2083333333333179
 50
127.52351320610693
 51
52.47648680188081
  0
ARC
  8
_2-d_ハッチ他
  6
CONTINUOUS
 62
    4
 10
1052.2419375938612
 20
1032.853566992693
 40
1.2083333333333581
 50
307.52351320333912
 51
232.47648680464988
  0
ARC
  8
_2-d_ハッチ他
  6
CONTINUOUS
 62
    4
 10
1053.7138977383379
 20
1030.9369003260952
 40
1.2083333333333179
 50
127.52351320610693
 51
52.47648680188081
  0
ARC
  8
_2-d_ハッチ他
  6
CONTINUOUS
 62
    4
 10
1074.3213397591203
 20
1030.9369003269137
 40
1.2083333333333179
 50
127.52351320610693
 51
52.47648680188081
  0
ARC
  8
_2-d_ハッチ他
  6
CONTINUOUS
 62
    4
 10
1072.8493796146458
 20
1032.8535669935138
 40
1.2083333333333581
 50
307.52351320333912
 51
232.47648680464988
  0
ARC
  8
_2-d_ハッチ他
  6
CONTINUOUS
 62
    4
 10
1099.3446622127963
 20
1032.8535669939254
 40
1.2083333333333581
 50
307.52351320333912
 51
232.47648680464988
  0
ARC
  8
_2-d_ハッチ他
  6
CONTINUOUS
 62
    4
 10
1100.8166223572707
 20
1030.9369003273252
 40
1.2083333333333179
 50
127.52351320610693
 51
52.47648680188081
  0
ARC
  8
_2-d_ハッチ他
  6
CONTINUOUS
 62
    4
 10
1096.4007419241134
 20
1032.8535669937207
 40
1.2083333333333581
 50
307.52351320333912
 51
232.47648680464988
  0
ARC
  8
_2-d_ハッチ他
  6
CONTINUOUS
 62
    4
 10
1097.8727020685878
 20
1030.9369003271206
 40
1.2083333333333179
 50
127.52351320610693
 51
52.47648680188081
  0
ARC
  8
_2-d_ハッチ他
  6
CONTINUOUS
 62
    4
 10
1093.4568216354282
 20
1032.8535669935138
 40
1.2083333333333581
 50
307.52351320333912
 51
232.47648680464988
  0
ARC
  8
_2-d_ハッチ他
  6
CONTINUOUS
 62
    4
 10
1094.928781779905
 20
1030.9369003269137
 40
1.2083333333333179
 50
127.52351320610693
 51
52.47648680188081
  0
ARC
  8
_2-d_ハッチ他
  6
CONTINUOUS
 62
    4
 10
1090.5129013467454
 20
1032.8535669933092
 40
1.2083333333333581
 50
307.52351320333912
 51
232.47648680464988
  0
ARC
  8
_2-d_ハッチ他
  6
CONTINUOUS
 62
    4
 10
1091.9848614912221
 20
1030.9369003267091
 40
1.2083333333333179
 50
127.52351320610693
 51
52.47648680188081
  0
ARC
  8
_2-d_ハッチ他
  6
CONTINUOUS
 62
    4
 10
1087.5689810580625
 20
1032.8535669931046
 40
1.2083333333333581
 50
307.52351320333912
 51
232.47648680464988
  0
ARC
  8
_2-d_ハッチ他
  6
CONTINUOUS
 62
    4
 10
1089.0409412025369
 20
1030.9369003265044
 40
1.2083333333333179
 50
127.52351320610693
 51
52.47648680188081
  0
ARC
  8
_2-d_ハッチ他
  6
CONTINUOUS
 62
    4
 10
1084.6250607693796
 20
1032.8535669928999
 40
1.2083333333333581
 50
307.52351320333912
 51
232.47648680464988
  0
ARC
  8
_2-d_ハッチ他
  6
CONTINUOUS
 62
    4
 10
1086.0970209138541
 20
1030.9369003262998
 40
1.2083333333333179
 50
127.52351320610693
 51
52.47648680188081
  0
ARC
  8
_2-d_ハッチ他
  6
CONTINUOUS
 62
    4
 10
1078.7372201920116
 20
1032.8535669924884
 40
1.2083333333333581
 50
307.52351320333912
 51
232.47648680464988
  0
ARC
  8
_2-d_ハッチ他
  6
CONTINUOUS
 62
    4
 10
1081.6811404806967
 20
1032.853566992693
 40
1.2083333333333581
 50
307.52351320333912
 51
232.47648680464988
  0
ARC
  8
_2-d_ハッチ他
  6
CONTINUOUS
 62
    4
 10
1080.2091803364883
 20
1030.9369003258882
 40
1.2083333333333179
 50
127.52351320610693
 51
52.47648680188081
  0
ARC
  8
_2-d_ハッチ他
  6
CONTINUOUS
 62
    4
 10
1083.1531006251712
 20
1030.9369003260952
 40
1.2083333333333179
 50
127.52351320610693
 51
52.47648680188081
  0
ARC
  8
_2-d_ハッチ他
  6
CONTINUOUS
 62
    4
 10
1077.2652600478054
 20
1030.9369003256836
 40
1.2083333333333179
 50
127.52351320610693
 51
52.47648680188081
  0
ARC
  8
_2-d_ハッチ他
  6
CONTINUOUS
 62
    4
 10
1075.7932999033287
 20
1032.8535669922837
 40
1.2083333333333581
 50
307.52351320333912
 51
232.47648680464988
  0
ARC
  8
_2-d_ハッチ他
  6
CONTINUOUS
 62
    4
 10
1125.8399448109467
 20
1032.8535669939254
 40
1.2083333333333581
 50
307.52351320333912
 51
232.47648680464988
  0
ARC
  8
_2-d_ハッチ他
  6
CONTINUOUS
 62
    4
 10
1127.3119049554211
 20
1030.9369003273252
 40
1.2083333333333179
 50
127.52351320610693
 51
52.47648680188081
  0
ARC
  8
_2-d_ハッチ他
  6
CONTINUOUS
 62
    4
 10
1122.8960245222638
 20
1032.8535669937207
 40
1.2083333333333581
 50
307.52351320333912
 51
232.47648680464988
  0
ARC
  8
_2-d_ハッチ他
  6
CONTINUOUS
 62
    4
 10
1124.3679846667383
 20
1030.9369003271206
 40
1.2083333333333179
 50
127.52351320610693
 51
52.47648680188081
  0
ARC
  8
_2-d_ハッチ他
  6
CONTINUOUS
 62
    4
 10
1119.9521042335787
 20
1032.8535669935138
 40
1.2083333333333581
 50
307.52351320333912
 51
232.47648680464988
  0
ARC
  8
_2-d_ハッチ他
  6
CONTINUOUS
 62
    4
 10
1121.4240643780554
 20
1030.9369003269137
 40
1.2083333333333179
 50
127.52351320610693
 51
52.47648680188081
  0
ARC
  8
_2-d_ハッチ他
  6
CONTINUOUS
 62
    4
 10
1117.0081839448958
 20
1032.8535669933092
 40
1.2083333333333581
 50
307.52351320333912
 51
232.47648680464988
  0
ARC
  8
_2-d_ハッチ他
  6
CONTINUOUS
 62
    4
 10
1118.4801440893725
 20
1030.9369003267091
 40
1.2083333333333179
 50
127.52351320610693
 51
52.47648680188081
  0
ARC
  8
_2-d_ハッチ他
  6
CONTINUOUS
 62
    4
 10
1114.0642636562129
 20
1032.8535669931046
 40
1.2083333333333581
 50
307.52351320333912
 51
232.47648680464988
  0
ARC
  8
_2-d_ハッチ他
  6
CONTINUOUS
 62
    4
 10
1115.5362238006874
 20
1030.9369003265044
 40
1.2083333333333179
 50
127.52351320610693
 51
52.47648680188081
  0
ARC
  8
_2-d_ハッチ他
  6
CONTINUOUS
 62
    4
 10
1111.12034336753
 20
1032.8535669928999
 40
1.2083333333333581
 50
307.52351320333912
 51
232.47648680464988
  0
ARC
  8
_2-d_ハッチ他
  6
CONTINUOUS
 62
    4
 10
1112.5923035120045
 20
1030.9369003262998
 40
1.2083333333333179
 50
127.52351320610693
 51
52.47648680188081
  0
ARC
  8
_2-d_ハッチ他
  6
CONTINUOUS
 62
    4
 10
1105.232502790162
 20
1032.8535669924884
 40
1.2083333333333581
 50
307.52351320333912
 51
232.47648680464988
  0
ARC
  8
_2-d_ハッチ他
  6
CONTINUOUS
 62
    4
 10
1108.1764230788472
 20
1032.853566992693
 40
1.2083333333333581
 50
307.52351320333912
 51
232.47648680464988
  0
ARC
  8
_2-d_ハッチ他
  6
CONTINUOUS
 62
    4
 10
1106.7044629346387
 20
1030.9369003258882
 40
1.2083333333333179
 50
127.52351320610693
 51
52.47648680188081
  0
ARC
  8
_2-d_ハッチ他
  6
CONTINUOUS
 62
    4
 10
1109.6483832233216
 20
1030.9369003260952
 40
1.2083333333333179
 50
127.52351320610693
 51
52.47648680188081
  0
ARC
  8
_2-d_ハッチ他
  6
CONTINUOUS
 62
    4
 10
1103.7605426459536
 20
1030.9369003256836
 40
1.2083333333333179
 50
127.52351320610693
 51
52.47648680188081
  0
ARC
  8
_2-d_ハッチ他
  6
CONTINUOUS
 62
    4
 10
1102.2885825014791
 20
1032.8535669922837
 40
1.2083333333333581
 50
307.52351320333912
 51
232.47648680464988
  0
ARC
  8
_2-d_ハッチ他
  6
CONTINUOUS
 62
    4
 10
1152.3352274090971
 20
1032.8535669939254
 40
1.2083333333333581
 50
307.52351320333912
 51
232.47648680464988
  0
ARC
  8
_2-d_ハッチ他
  6
CONTINUOUS
 62
    4
 10
1153.8071875535716
 20
1030.9369003273252
 40
1.2083333333333179
 50
127.52351320610693
 51
52.47648680188081
  0
ARC
  8
_2-d_ハッチ他
  6
CONTINUOUS
 62
    4
 10
1149.391307120412
 20
1032.8535669937207
 40
1.2083333333333581
 50
307.52351320333912
 51
232.47648680464988
  0
ARC
  8
_2-d_ハッチ他
  6
CONTINUOUS
 62
    4
 10
1150.8632672648887
 20
1030.9369003271206
 40
1.2083333333333179
 50
127.52351320610693
 51
52.47648680188081
  0
ARC
  8
_2-d_ハッチ他
  6
CONTINUOUS
 62
    4
 10
1146.4473868317291
 20
1032.8535669935138
 40
1.2083333333333581
 50
307.52351320333912
 51
232.47648680464988
  0
ARC
  8
_2-d_ハッチ他
  6
CONTINUOUS
 62
    4
 10
1147.9193469762058
 20
1030.9369003269137
 40
1.2083333333333179
 50
127.52351320610693
 51
52.47648680188081
  0
ARC
  8
_2-d_ハッチ他
  6
CONTINUOUS
 62
    4
 10
1143.5034665430462
 20
1032.8535669933092
 40
1.2083333333333581
 50
307.52351320333912
 51
232.47648680464988
  0
ARC
  8
_2-d_ハッチ他
  6
CONTINUOUS
 62
    4
 10
1144.9754266875207
 20
1030.9369003267091
 40
1.2083333333333179
 50
127.52351320610693
 51
52.47648680188081
  0
ARC
  8
_2-d_ハッチ他
  6
CONTINUOUS
 62
    4
 10
1140.5595462543633
 20
1032.8535669931046
 40
1.2083333333333581
 50
307.52351320333912
 51
232.47648680464988
  0
ARC
  8
_2-d_ハッチ他
  6
CONTINUOUS
 62
    4
 10
1142.0315063988378
 20
1030.9369003265044
 40
1.2083333333333179
 50
127.52351320610693
 51
52.47648680188081
  0
ARC
  8
_2-d_ハッチ他
  6
CONTINUOUS
 62
    4
 10
1137.6156259656805
 20
1032.8535669928999
 40
1.2083333333333581
 50
307.52351320333912
 51
232.47648680464988
  0
ARC
  8
_2-d_ハッチ他
  6
CONTINUOUS
 62
    4
 10
1139.0875861101549
 20
1030.9369003262998
 40
1.2083333333333179
 50
127.52351320610693
 51
52.47648680188081
  0
ARC
  8
_2-d_ハッチ他
  6
CONTINUOUS
 62
    4
 10
1131.7277853883124
 20
1032.8535669924884
 40
1.2083333333333581
 50
307.52351320333912
 51
232.47648680464988
  0
ARC
  8
_2-d_ハッチ他
  6
CONTINUOUS
 62
    4
 10
1134.6717056769953
 20
1032.853566992693
 40
1.2083333333333581
 50
307.52351320333912
 51
232.47648680464988
  0
ARC
  8
_2-d_ハッチ他
  6
CONTINUOUS
 62
    4
 10
1133.1997455327892
 20
1030.9369003258882
 40
1.2083333333333179
 50
127.52351320610693
 51
52.47648680188081
  0
ARC
  8
_2-d_ハッチ他
  6
CONTINUOUS
 62
    4
 10
1136.143665821472
 20
1030.9369003260952
 40
1.2083333333333179
 50
127.52351320610693
 51
52.47648680188081
  0
ARC
  8
_2-d_ハッチ他
  6
CONTINUOUS
 62
    4
 10
1130.255825244104
 20
1030.9369003256836
 40
1.2083333333333179
 50
127.52351320610693
 51
52.47648680188081
  0
ARC
  8
_2-d_ハッチ他
  6
CONTINUOUS
 62
    4
 10
1128.7838650996296
 20
1032.8535669922837
 40
1.2083333333333581
 50
307.52351320333912
 51
232.47648680464988
  0
ARC
  8
_2-d_ハッチ他
  6
CONTINUOUS
 62
    4
 10
1169.9987491411966
 20
1032.8535669939254
 40
1.2083333333333581
 50
307.52351320333912
 51
232.47648680464988
  0
ARC
  8
_2-d_ハッチ他
  6
CONTINUOUS
 62
    4
 10
1171.4707092856711
 20
1030.9369003273252
 40
1.2083333333333179
 50
127.52351320610693
 51
52.47648680188081
  0
ARC
  8
_2-d_ハッチ他
  6
CONTINUOUS
 62
    4
 10
1167.0548288525138
 20
1032.8535669937207
 40
1.2083333333333581
 50
307.52351320333912
 51
232.47648680464988
  0
ARC
  8
_2-d_ハッチ他
  6
CONTINUOUS
 62
    4
 10
1168.5267889969882
 20
1030.9369003271206
 40
1.2083333333333179
 50
127.52351320610693
 51
52.47648680188081
  0
ARC
  8
_2-d_ハッチ他
  6
CONTINUOUS
 62
    4
 10
1164.1109085638309
 20
1032.8535669935138
 40
1.2083333333333581
 50
307.52351320333912
 51
232.47648680464988
  0
ARC
  8
_2-d_ハッチ他
  6
CONTINUOUS
 62
    4
 10
1165.5828687083053
 20
1030.9369003269137
 40
1.2083333333333179
 50
127.52351320610693
 51
52.47648680188081
  0
ARC
  8
_2-d_ハッチ他
  6
CONTINUOUS
 62
    4
 10
1161.1669882751457
 20
1032.8535669933092
 40
1.2083333333333581
 50
307.52351320333912
 51
232.47648680464988
  0
ARC
  8
_2-d_ハッチ他
  6
CONTINUOUS
 62
    4
 10
1162.6389484196225
 20
1030.9369003267091
 40
1.2083333333333179
 50
127.52351320610693
 51
52.47648680188081
  0
ARC
  8
_2-d_ハッチ他
  6
CONTINUOUS
 62
    4
 10
1158.2230679864629
 20
1032.8535669931046
 40
1.2083333333333581
 50
307.52351320333912
 51
232.47648680464988
  0
ARC
  8
_2-d_ハッチ他
  6
CONTINUOUS
 62
    4
 10
1159.6950281309373
 20
1030.9369003265044
 40
1.2083333333333179
 50
127.52351320610693
 51
52.47648680188081
  0
ARC
  8
_2-d_ハッチ他
  6
CONTINUOUS
 62
    4
 10
1155.27914769778
 20
1032.8535669928999
 40
1.2083333333333581
 50
307.52351320333912
 51
232.47648680464988
  0
ARC
  8
_2-d_ハッチ他
  6
CONTINUOUS
 62
    4
 10
1156.7511078422544
 20
1030.9369003262998
 40
1.2083333333333179
 50
127.52351320610693
 51
52.47648680188081
  0
ARC
  8
_2-d_ハッチ他
  6
CONTINUOUS
 62
    4
 10
1196.4940317393471
 20
1032.8535669939254
 40
1.2083333333333581
 50
307.52351320333912
 51
232.47648680464988
  0
ARC
  8
_2-d_ハッチ他
  6
CONTINUOUS
 62
    4
 10
1197.9659918838215
 20
1030.9369003273252
 40
1.2083333333333179
 50
127.52351320610693
 51
52.47648680188081
  0
ARC
  8
_2-d_ハッチ他
  6
CONTINUOUS
 62
    4
 10
1193.5501114506642
 20
1032.8535669937207
 40
1.2083333333333581
 50
307.52351320333912
 51
232.47648680464988
  0
ARC
  8
_2-d_ハッチ他
  6
CONTINUOUS
 62
    4
 10
1195.0220715951386
 20
1030.9369003271206
 40
1.2083333333333179
 50
127.52351320610693
 51
52.47648680188081
  0
ARC
  8
_2-d_ハッチ他
  6
CONTINUOUS
 62
    4
 10
1190.606191161979
 20
1032.8535669935138
 40
1.2083333333333581
 50
307.52351320333912
 51
232.47648680464988
  0
ARC
  8
_2-d_ハッチ他
  6
CONTINUOUS
 62
    4
 10
1192.0781513064558
 20
1030.9369003269137
 40
1.2083333333333179
 50
127.52351320610693
 51
52.47648680188081
  0
ARC
  8
_2-d_ハッチ他
  6
CONTINUOUS
 62
    4
 10
1187.6622708732962
 20
1032.8535669933092
 40
1.2083333333333581
 50
307.52351320333912
 51
232.47648680464988
  0
ARC
  8
_2-d_ハッチ他
  6
CONTINUOUS
 62
    4
 10
1189.1342310177729
 20
1030.9369003267091
 40
1.2083333333333179
 50
127.52351320610693
 51
52.47648680188081
  0
ARC
  8
_2-d_ハッチ他
  6
CONTINUOUS
 62
    4
 10
1184.7183505846133
 20
1032.8535669931046
 40
1.2083333333333581
 50
307.52351320333912
 51
232.47648680464988
  0
ARC
  8
_2-d_ハッチ他
  6
CONTINUOUS
 62
    4
 10
1186.1903107290877
 20
1030.9369003265044
 40
1.2083333333333179
 50
127.52351320610693
 51
52.47648680188081
  0
ARC
  8
_2-d_ハッチ他
  6
CONTINUOUS
 62
    4
 10
1181.7744302959304
 20
1032.8535669928999
 40
1.2083333333333581
 50
307.52351320333912
 51
232.47648680464988
  0
ARC
  8
_2-d_ハッチ他
  6
CONTINUOUS
 62
    4
 10
1183.2463904404049
 20
1030.9369003262998
 40
1.2083333333333179
 50
127.52351320610693
 51
52.47648680188081
  0
ARC
  8
_2-d_ハッチ他
  6
CONTINUOUS
 62
    4
 10
1175.8865897185624
 20
1032.8535669924884
 40
1.2083333333333581
 50
307.52351320333912
 51
232.47648680464988
  0
ARC
  8
_2-d_ハッチ他
  6
CONTINUOUS
 62
    4
 10
1178.8305100072475
 20
1032.853566992693
 40
1.2083333333333581
 50
307.52351320333912
 51
232.47648680464988
  0
ARC
  8
_2-d_ハッチ他
  6
CONTINUOUS
 62
    4
 10
1177.3585498630391
 20
1030.9369003258882
 40
1.2083333333333179
 50
127.52351320610693
 51
52.47648680188081
  0
ARC
  8
_2-d_ハッチ他
  6
CONTINUOUS
 62
    4
 10
1180.302470151722
 20
1030.9369003260952
 40
1.2083333333333179
 50
127.52351320610693
 51
52.47648680188081
  0
ARC
  8
_2-d_ハッチ他
  6
CONTINUOUS
 62
    4
 10
1174.414629574354
 20
1030.9369003256836
 40
1.2083333333333179
 50
127.52351320610693
 51
52.47648680188081
  0
ARC
  8
_2-d_ハッチ他
  6
CONTINUOUS
 62
    4
 10
1172.9426694298795
 20
1032.8535669922837
 40
1.2083333333333581
 50
307.52351320333912
 51
232.47648680464988
  0
ARC
  8
_2-d_ハッチ他
  6
CONTINUOUS
 62
    4
 10
1222.9893143374975
 20
1032.8535669939254
 40
1.2083333333333581
 50
307.52351320333912
 51
232.47648680464988
  0
ARC
  8
_2-d_ハッチ他
  6
CONTINUOUS
 62
    4
 10
1224.4612744819719
 20
1030.9369003273252
 40
1.2083333333333179
 50
127.52351320610693
 51
52.47648680188081
  0
ARC
  8
_2-d_ハッチ他
  6
CONTINUOUS
 62
    4
 10
1220.0453940488123
 20
1032.8535669937207
 40
1.2083333333333581
 50
307.52351320333912
 51
232.47648680464988
  0
ARC
  8
_2-d_ハッチ他
  6
CONTINUOUS
 62
    4
 10
1221.5173541932891
 20
1030.9369003271206
 40
1.2083333333333179
 50
127.52351320610693
 51
52.47648680188081
  0
ARC
  8
_2-d_ハッチ他
  6
CONTINUOUS
 62
    4
 10
1217.1014737601295
 20
1032.8535669935138
 40
1.2083333333333581
 50
307.52351320333912
 51
232.47648680464988
  0
ARC
  8
_2-d_ハッチ他
  6
CONTINUOUS
 62
    4
 10
1218.5734339046062
 20
1030.9369003269137
 40
1.2083333333333179
 50
127.52351320610693
 51
52.47648680188081
  0
ARC
  8
_2-d_ハッチ他
  6
CONTINUOUS
 62
    4
 10
1214.1575534714466
 20
1032.8535669933092
 40
1.2083333333333581
 50
307.52351320333912
 51
232.47648680464988
  0
ARC
  8
_2-d_ハッチ他
  6
CONTINUOUS
 62
    4
 10
1215.629513615921
 20
1030.9369003267091
 40
1.2083333333333179
 50
127.52351320610693
 51
52.47648680188081
  0
ARC
  8
_2-d_ハッチ他
  6
CONTINUOUS
 62
    4
 10
1211.2136331827637
 20
1032.8535669931046
 40
1.2083333333333581
 50
307.52351320333912
 51
232.47648680464988
  0
ARC
  8
_2-d_ハッチ他
  6
CONTINUOUS
 62
    4
 10
1212.6855933272382
 20
1030.9369003265044
 40
1.2083333333333179
 50
127.52351320610693
 51
52.47648680188081
  0
ARC
  8
_2-d_ハッチ他
  6
CONTINUOUS
 62
    4
 10
1208.2697128940808
 20
1032.8535669928999
 40
1.2083333333333581
 50
307.52351320333912
 51
232.47648680464988
  0
ARC
  8
_2-d_ハッチ他
  6
CONTINUOUS
 62
    4
 10
1209.7416730385553
 20
1030.9369003262998
 40
1.2083333333333179
 50
127.52351320610693
 51
52.47648680188081
  0
ARC
  8
_2-d_ハッチ他
  6
CONTINUOUS
 62
    4
 10
1202.3818723167128
 20
1032.8535669924884
 40
1.2083333333333581
 50
307.52351320333912
 51
232.47648680464988
  0
ARC
  8
_2-d_ハッチ他
  6
CONTINUOUS
 62
    4
 10
1205.3257926053957
 20
1032.853566992693
 40
1.2083333333333581
 50
307.52351320333912
 51
232.47648680464988
  0
ARC
  8
_2-d_ハッチ他
  6
CONTINUOUS
 62
    4
 10
1203.8538324611895
 20
1030.9369003258882
 40
1.2083333333333179
 50
127.52351320610693
 51
52.47648680188081
  0
ARC
  8
_2-d_ハッチ他
  6
CONTINUOUS
 62
    4
 10
1206.7977527498724
 20
1030.9369003260952
 40
1.2083333333333179
 50
127.52351320610693
 51
52.47648680188081
  0
ARC
  8
_2-d_ハッチ他
  6
CONTINUOUS
 62
    4
 10
1200.9099121725044
 20
1030.9369003256836
 40
1.2083333333333179
 50
127.52351320610693
 51
52.47648680188081
  0
ARC
  8
_2-d_ハッチ他
  6
CONTINUOUS
 62
    4
 10
1199.4379520280299
 20
1032.8535669922837
 40
1.2083333333333581
 50
307.52351320333912
 51
232.47648680464988
  0
ARC
  8
_2-d_ハッチ他
  6
CONTINUOUS
 62
    4
 10
1227.4051947706548
 20
1030.9369003269137
 40
1.2083333333333179
 50
127.52351320610693
 51
52.47648680188081
  0
ARC
  8
_2-d_ハッチ他
  6
CONTINUOUS
 62
    4
 10
1225.9332346261804
 20
1032.8535669935138
 40
1.2083333333333581
 50
307.52351320333912
 51
232.47648680464988
  0
ARC
  8
_2-d_ハッチ他
  6
CONTINUOUS
 62
    4
 10
1252.4285172243285
 20
1032.8535669939254
 40
1.2083333333333581
 50
307.52351320333912
 51
232.47648680464988
  0
ARC
  8
_2-d_ハッチ他
  6
CONTINUOUS
 62
    4
 10
1253.9004773688052
 20
1030.9369003273252
 40
1.2083333333333179
 50
127.52351320610693
 51
52.47648680188081
  0
ARC
  8
_2-d_ハッチ他
  6
CONTINUOUS
 62
    4
 10
1249.4845969356456
 20
1032.8535669937207
 40
1.2083333333333581
 50
307.52351320333912
 51
232.47648680464988
  0
ARC
  8
_2-d_ハッチ他
  6
CONTINUOUS
 62
    4
 10
1250.9565570801201
 20
1030.9369003271206
 40
1.2083333333333179
 50
127.52351320610693
 51
52.47648680188081
  0
ARC
  8
_2-d_ハッチ他
  6
CONTINUOUS
 62
    4
 10
1246.5406766469628
 20
1032.8535669935138
 40
1.2083333333333581
 50
307.52351320333912
 51
232.47648680464988
  0
ARC
  8
_2-d_ハッチ他
  6
CONTINUOUS
 62
    4
 10
1248.0126367914372
 20
1030.9369003269137
 40
1.2083333333333179
 50
127.52351320610693
 51
52.47648680188081
  0
ARC
  8
_2-d_ハッチ他
  6
CONTINUOUS
 62
    4
 10
1243.5967563582799
 20
1032.8535669933092
 40
1.2083333333333581
 50
307.52351320333912
 51
232.47648680464988
  0
ARC
  8
_2-d_ハッチ他
  6
CONTINUOUS
 62
    4
 10
1245.0687165027543
 20
1030.9369003267091
 40
1.2083333333333179
 50
127.52351320610693
 51
52.47648680188081
  0
ARC
  8
_2-d_ハッチ他
  6
CONTINUOUS
 62
    4
 10
1240.6528360695947
 20
1032.8535669931046
 40
1.2083333333333581
 50
307.52351320333912
 51
232.47648680464988
  0
ARC
  8
_2-d_ハッチ他
  6
CONTINUOUS
 62
    4
 10
1242.1247962140715
 20
1030.9369003265044
 40
1.2083333333333179
 50
127.52351320610693
 51
52.47648680188081
  0
ARC
  8
_2-d_ハッチ他
  6
CONTINUOUS
 62
    4
 10
1237.7089157809119
 20
1032.8535669928999
 40
1.2083333333333581
 50
307.52351320333912
 51
232.47648680464988
  0
ARC
  8
_2-d_ハッチ他
  6
CONTINUOUS
 62
    4
 10
1239.1808759253886
 20
1030.9369003262998
 40
1.2083333333333179
 50
127.52351320610693
 51
52.47648680188081
  0
ARC
  8
_2-d_ハッチ他
  6
CONTINUOUS
 62
    4
 10
1231.8210752035461
 20
1032.8535669924884
 40
1.2083333333333581
 50
307.52351320333912
 51
232.47648680464988
  0
ARC
  8
_2-d_ハッチ他
  6
CONTINUOUS
 62
    4
 10
1234.764995492229
 20
1032.853566992693
 40
1.2083333333333581
 50
307.52351320333912
 51
232.47648680464988
  0
ARC
  8
_2-d_ハッチ他
  6
CONTINUOUS
 62
    4
 10
1233.2930353480206
 20
1030.9369003258882
 40
1.2083333333333179
 50
127.52351320610693
 51
52.47648680188081
  0
ARC
  8
_2-d_ハッチ他
  6
CONTINUOUS
 62
    4
 10
1236.2369556367034
 20
1030.9369003260952
 40
1.2083333333333179
 50
127.52351320610693
 51
52.47648680188081
  0
ARC
  8
_2-d_ハッチ他
  6
CONTINUOUS
 62
    4
 10
1230.3491150593377
 20
1030.9369003256836
 40
1.2083333333333179
 50
127.52351320610693
 51
52.47648680188081
  0
ARC
  8
_2-d_ハッチ他
  6
CONTINUOUS
 62
    4
 10
1228.8771549148632
 20
1032.8535669922837
 40
1.2083333333333581
 50
307.52351320333912
 51
232.47648680464988
  0
ARC
  8
_2-d_ハッチ他
  6
CONTINUOUS
 62
    4
 10
1264.2041983790623
 20
1032.8535669928999
 40
1.2083333333333581
 50
307.52351320333912
 51
232.47648680464988
  0
ARC
  8
_2-d_ハッチ他
  6
CONTINUOUS
 62
    4
 10
1258.3163578016965
 20
1032.8535669924884
 40
1.2083333333333581
 50
307.52351320333912
 51
232.47648680464988
  0
ARC
  8
_2-d_ハッチ他
  6
CONTINUOUS
 62
    4
 10
1261.2602780903794
 20
1032.853566992693
 40
1.2083333333333581
 50
307.52351320333912
 51
232.47648680464988
  0
ARC
  8
_2-d_ハッチ他
  6
CONTINUOUS
 62
    4
 10
1259.788317946171
 20
1030.9369003258882
 40
1.2083333333333179
 50
127.52351320610693
 51
52.47648680188081
  0
ARC
  8
_2-d_ハッチ他
  6
CONTINUOUS
 62
    4
 10
1262.7322382348539
 20
1030.9369003260952
 40
1.2083333333333179
 50
127.52351320610693
 51
52.47648680188081
  0
ARC
  8
_2-d_ハッチ他
  6
CONTINUOUS
 62
    4
 10
1256.8443976574881
 20
1030.9369003256836
 40
1.2083333333333179
 50
127.52351320610693
 51
52.47648680188081
  0
ARC
  8
_2-d_ハッチ他
  6
CONTINUOUS
 62
    4
 10
1255.3724375130137
 20
1032.8535669922837
 40
1.2083333333333581
 50
307.52351320333912
 51
232.47648680464988
  0
ARC
  8
_2-d_ハッチ他
  6
CONTINUOUS
 62
    4
 10
1287.7555606885301
 20
1032.8535669939254
 40
1.2083333333333581
 50
307.52351320333912
 51
232.47648680464988
  0
ARC
  8
_2-d_ハッチ他
  6
CONTINUOUS
 62
    4
 10
1289.2275208330068
 20
1030.9369003273252
 40
1.2083333333333179
 50
127.52351320610693
 51
52.47648680188081
  0
ARC
  8
_2-d_ハッチ他
  6
CONTINUOUS
 62
    4
 10
1284.8116403998472
 20
1032.8535669937207
 40
1.2083333333333581
 50
307.52351320333912
 51
232.47648680464988
  0
ARC
  8
_2-d_ハッチ他
  6
CONTINUOUS
 62
    4
 10
1286.2836005443216
 20
1030.9369003271206
 40
1.2083333333333179
 50
127.52351320610693
 51
52.47648680188081
  0
ARC
  8
_2-d_ハッチ他
  6
CONTINUOUS
 62
    4
 10
1281.8677201111643
 20
1032.8535669935138
 40
1.2083333333333581
 50
307.52351320333912
 51
232.47648680464988
  0
ARC
  8
_2-d_ハッチ他
  6
CONTINUOUS
 62
    4
 10
1283.3396802556388
 20
1030.9369003269137
 40
1.2083333333333179
 50
127.52351320610693
 51
52.47648680188081
  0
ARC
  8
_2-d_ハッチ他
  6
CONTINUOUS
 62
    4
 10
1278.9237998224812
 20
1032.8535669933092
 40
1.2083333333333581
 50
307.52351320333912
 51
232.47648680464988
  0
ARC
  8
_2-d_ハッチ他
  6
CONTINUOUS
 62
    4
 10
1280.3957599669559
 20
1030.9369003267091
 40
1.2083333333333179
 50
127.52351320610693
 51
52.47648680188081
  0
ARC
  8
_2-d_ハッチ他
  6
CONTINUOUS
 62
    4
 10
1275.9798795337961
 20
1032.8535669931046
 40
1.2083333333333581
 50
307.52351320333912
 51
232.47648680464988
  0
ARC
  8
_2-d_ハッチ他
  6
CONTINUOUS
 62
    4
 10
1277.4518396782728
 20
1030.9369003265044
 40
1.2083333333333179
 50
127.52351320610693
 51
52.47648680188081
  0
ARC
  8
_2-d_ハッチ他
  6
CONTINUOUS
 62
    4
 10
1273.0359592451132
 20
1032.8535669928999
 40
1.2083333333333581
 50
307.52351320333912
 51
232.47648680464988
  0
ARC
  8
_2-d_ハッチ他
  6
CONTINUOUS
 62
    4
 10
1274.5079193895876
 20
1030.9369003262998
 40
1.2083333333333179
 50
127.52351320610693
 51
52.47648680188081
  0
ARC
  8
_2-d_ハッチ他
  6
CONTINUOUS
 62
    4
 10
1267.1481186677474
 20
1032.8535669924884
 40
1.2083333333333581
 50
307.52351320333912
 51
232.47648680464988
  0
ARC
  8
_2-d_ハッチ他
  6
CONTINUOUS
 62
    4
 10
1270.0920389564303
 20
1032.853566992693
 40
1.2083333333333581
 50
307.52351320333912
 51
232.47648680464988
  0
ARC
  8
_2-d_ハッチ他
  6
CONTINUOUS
 62
    4
 10
1268.6200788122219
 20
1030.9369003258882
 40
1.2083333333333179
 50
127.52351320610693
 51
52.47648680188081
  0
ARC
  8
_2-d_ハッチ他
  6
CONTINUOUS
 62
    4
 10
1271.5639991009048
 20
1030.9369003260952
 40
1.2083333333333179
 50
127.52351320610693
 51
52.47648680188081
  0
ARC
  8
_2-d_ハッチ他
  6
CONTINUOUS
 62
    4
 10
1292.1714411216897
 20
1030.9369003269137
 40
1.2083333333333179
 50
127.52351320610693
 51
52.47648680188081
  0
ARC
  8
_2-d_ハッチ他
  6
CONTINUOUS
 62
    4
 10
1290.6994809772129
 20
1032.8535669935138
 40
1.2083333333333581
 50
307.52351320333912
 51
232.47648680464988
  0
ARC
  8
_2-d_ハッチ他
  6
CONTINUOUS
 62
    4
 10
1311.3069229979976
 20
1032.8535669935138
 40
1.2083333333333581
 50
307.52351320333912
 51
232.47648680464988
  0
ARC
  8
_2-d_ハッチ他
  6
CONTINUOUS
 62
    4
 10
1308.3630027093147
 20
1032.8535669933092
 40
1.2083333333333581
 50
307.52351320333912
 51
232.47648680464988
  0
ARC
  8
_2-d_ハッチ他
  6
CONTINUOUS
 62
    4
 10
1309.8349628537892
 20
1030.9369003267091
 40
1.2083333333333179
 50
127.52351320610693
 51
52.47648680188081
  0
ARC
  8
_2-d_ハッチ他
  6
CONTINUOUS
 62
    4
 10
1305.4190824206296
 20
1032.8535669931046
 40
1.2083333333333581
 50
307.52351320333912
 51
232.47648680464988
  0
ARC
  8
_2-d_ハッチ他
  6
CONTINUOUS
 62
    4
 10
1306.8910425651063
 20
1030.9369003265044
 40
1.2083333333333179
 50
127.52351320610693
 51
52.47648680188081
  0
ARC
  8
_2-d_ハッチ他
  6
CONTINUOUS
 62
    4
 10
1302.4751621319467
 20
1032.8535669928999
 40
1.2083333333333581
 50
307.52351320333912
 51
232.47648680464988
  0
ARC
  8
_2-d_ハッチ他
  6
CONTINUOUS
 62
    4
 10
1303.9471222764234
 20
1030.9369003262998
 40
1.2083333333333179
 50
127.52351320610693
 51
52.47648680188081
  0
ARC
  8
_2-d_ハッチ他
  6
CONTINUOUS
 62
    4
 10
1296.587321554581
 20
1032.8535669924884
 40
1.2083333333333581
 50
307.52351320333912
 51
232.47648680464988
  0
ARC
  8
_2-d_ハッチ他
  6
CONTINUOUS
 62
    4
 10
1299.5312418432638
 20
1032.853566992693
 40
1.2083333333333581
 50
307.52351320333912
 51
232.47648680464988
  0
ARC
  8
_2-d_ハッチ他
  6
CONTINUOUS
 62
    4
 10
1298.0592816990554
 20
1030.9369003258882
 40
1.2083333333333179
 50
127.52351320610693
 51
52.47648680188081
  0
ARC
  8
_2-d_ハッチ他
  6
CONTINUOUS
 62
    4
 10
1301.0032019877383
 20
1030.9369003260952
 40
1.2083333333333179
 50
127.52351320610693
 51
52.47648680188081
  0
ARC
  8
_2-d_ハッチ他
  6
CONTINUOUS
 62
    4
 10
1295.1153614103725
 20
1030.9369003256836
 40
1.2083333333333179
 50
127.52351320610693
 51
52.47648680188081
  0
ARC
  8
_2-d_ハッチ他
  6
CONTINUOUS
 62
    4
 10
1293.6434012658981
 20
1032.8535669922837
 40
1.2083333333333581
 50
307.52351320333912
 51
232.47648680464988
  0
ARC
  8
_2-d_ハッチ他
  6
CONTINUOUS
 62
    4
 10
1265.676158523539
 20
1030.9369003256836
 40
1.2083333333333179
 50
127.52351320610693
 51
52.47648680188081
  0
ARC
  8
_2-d_ハッチ他
  6
CONTINUOUS
 62
    4
 10
947.73276734573631
 20
1030.9369003273252
 40
1.2083333333333179
 50
127.52351320610693
 51
52.47648680188081
  0
ARC
  8
_2-d_ハッチ他
  6
CONTINUOUS
 62
    4
 10
946.26080720126185
 20
1032.8535669939254
 40
1.2083333333333581
 50
307.52351320333912
 51
232.47648680464988
  0
ARC
  8
_2-d_ハッチ他
  6
CONTINUOUS
 62
    4
 10
944.78884705705343
 20
1030.9369003271206
 40
1.2083333333333179
 50
127.52351320610693
 51
52.47648680188081
  0
ARC
  8
_2-d_ハッチ他
  6
CONTINUOUS
 62
    4
 10
943.31688691257898
 20
1032.8535669937207
 40
1.2083333333333581
 50
307.52351320333912
 51
232.47648680464988
  0
ARC
  8
_2-d_ハッチ他
  6
CONTINUOUS
 62
    4
 10
941.84492676837056
 20
1030.9369003269137
 40
1.2083333333333179
 50
127.52351320610693
 51
52.47648680188081
  0
ARC
  8
_2-d_ハッチ他
  6
CONTINUOUS
 62
    4
 10
940.37296662389383
 20
1032.8535669935138
 40
1.2083333333333581
 50
307.52351320333912
 51
232.47648680464988
  0
LINE
  8
_2-6_鋼板__アングル
  6
CONTINUOUS
 62
    2
 10
949.04434424187559
 20
1214.3952336548261
 11
945.54434424187423
 21
1214.3952336548261
  0
LINE
  8
_2-6_鋼板__アングル
  6
CONTINUOUS
 62
    2
 10
949.04434424187559
 20
1214.3952336548261
 11
949.04434424187559
 21
1229.3952336548261
  0
LINE
  8
_2-d_ハッチ他
  6
CONTINUOUS
 62
    4
 10
948.80557785036547
 20
1229.3952336548239
 11
948.89506167742741
 21
1229.4847174818858
  0
LINE
  8
_2-d_ハッチ他
  6
CONTINUOUS
 62
    4
 10
945.27004394443213
 20
1229.3952336548239
 11
946.76841329804222
 21
1230.893603008434
  0
LINE
  8
_2-d_ハッチ他
  6
CONTINUOUS
 62
    4
 10
941.73451003850107
 20
1229.3952336548261
 11
944.79394901197895
 21
1232.454672628304
  0
LINE
  8
_2-d_ハッチ他
  6
CONTINUOUS
 62
    4
 10
938.54434424187377
 20
1229.7406017641322
 11
942.96725110138698
 21
1234.1635086236454
  0
LINE
  8
_2-d_ハッチ他
  6
CONTINUOUS
 62
    4
 10
938.54434424187377
 20
1233.2761356700655
 11
941.28709166002511
 21
1236.0188830882169
  0
LINE
  8
_2-d_ハッチ他
  6
CONTINUOUS
 62
    4
 10
938.54434424187377
 20
1236.8116695759988
 11
939.75530111079581
 21
1238.0226264449209
  0
LINE
  8
_2-d_ハッチ他
  6
CONTINUOUS
 62
    4
 10
938.54434424187605
 20
1180.2872972696503
 11
939.43640785669788
 21
1179.3952336548284
  0
LINE
  8
_2-d_ハッチ他
  6
CONTINUOUS
 62
    4
 10
938.54434424187605
 20
1183.8228311755813
 11
940.5443442418765
 21
1181.8228311755831
  0
LINE
  8
_2-d_ハッチ他
  6
CONTINUOUS
 62
    4
 10
938.54434424187605
 20
1187.3583650815146
 11
940.54434424187423
 21
1185.3583650815187
  0
LINE
  8
_2-d_ハッチ他
  6
CONTINUOUS
 62
    4
 10
938.54434424187605
 20
1190.893898987448
 11
940.5443442418765
 21
1188.8938989874498
  0
LINE
  8
_2-d_ハッチ他
  6
CONTINUOUS
 62
    4
 10
938.54434424187605
 20
1194.4294328933836
 11
940.54434424187195
 21
1192.4294328933854
  0
LINE
  8
_2-d_ハッチ他
  6
CONTINUOUS
 62
    4
 10
938.5443442418715
 20
1197.9649667993101
 11
940.54434424187195
 21
1195.9649667993097
  0
LINE
  8
_2-d_ハッチ他
  6
CONTINUOUS
 62
    4
 10
938.54434424187377
 20
1201.5005007052434
 11
940.5443442418765
 21
1199.5005007052407
  0
LINE
  8
_2-d_ハッチ他
  6
CONTINUOUS
 62
    4
 10
938.54434424187377
 20
1205.0360346111768
 11
940.54434424187423
 21
1203.0360346111763
  0
LINE
  8
_2-d_ハッチ他
  6
CONTINUOUS
 62
    4
 10
938.54434424187377
 20
1208.5715685171101
 11
940.5443442418765
 21
1206.5715685171074
  0
LINE
  8
_2-d_ハッチ他
  6
CONTINUOUS
 62
    4
 10
938.54434424187377
 20
1212.1071024230434
 11
940.54434424187423
 21
1210.107102423043
  0
LINE
  8
_2-d_ハッチ他
  6
CONTINUOUS
 62
    4
 10
938.54434424187377
 20
1215.6426363289745
 11
940.5443442418765
 21
1213.642636328974
  0
LINE
  8
_2-d_ハッチ他
  6
CONTINUOUS
 62
    4
 10
938.54434424187377
 20
1219.1781702349078
 11
940.54434424187423
 21
1217.1781702349074
  0
LINE
  8
_2-d_ハッチ他
  6
CONTINUOUS
 62
    4
 10
938.54434424187377
 20
1222.7137041408412
 11
940.5443442418765
 21
1220.7137041408384
  0
LINE
  8
_2-d_ハッチ他
  6
CONTINUOUS
 62
    4
 10
938.54434424187605
 20
1226.2492380467745
 11
940.54434424187423
 21
1224.2492380467741
  0
LINE
  8
_2-d_ハッチ他
  6
CONTINUOUS
 62
    4
 10
938.93388253975547
 20
1229.3952336548261
 11
940.54434424187423
 21
1227.7847719527074
  0
ARC
  8
_2-d_ハッチ他
  6
CONTINUOUS
 62
    4
 10
966.86824922204653
 20
1032.8535669928999
 40
1.2083333333333581
 50
307.52351320333912
 51
232.47648680464988
  0
ARC
  8
_2-d_ハッチ他
  6
CONTINUOUS
 62
    4
 10
824.33259868433754
 20
1032.8535669939254
 40
1.2083333333333581
 50
307.52351319535012
 51
232.47648679666085
  0
ARC
  8
_2-d_ハッチ他
  6
CONTINUOUS
 62
    4
 10
822.86063853986309
 20
1030.9369003273252
 40
1.2083333333333179
 50
127.52351319811918
 51
52.476486793893116
  0
ARC
  8
_2-d_ハッチ他
  6
CONTINUOUS
 62
    4
 10
827.27651897302042
 20
1032.8535669937207
 40
1.2083333333333581
 50
307.52351319535012
 51
232.47648679666085
  0
ARC
  8
_2-d_ハッチ他
  6
CONTINUOUS
 62
    4
 10
825.80455882854596
 20
1030.9369003271206
 40
1.2083333333333179
 50
127.52351319811918
 51
52.476486793893116
  0
ARC
  8
_2-d_ハッチ他
  6
CONTINUOUS
 62
    4
 10
828.74847911722884
 20
1030.9369003269137
 40
1.2083333333333179
 50
127.52351319811918
 51
52.476486793893116
  0
ARC
  8
_2-d_ハッチ他
  6
CONTINUOUS
 62
    4
 10
839.05220012775419
 20
1032.8535669928999
 40
1.2083333333333581
 50
307.52351319535012
 51
232.47648679666085
  0
ARC
  8
_2-d_ハッチ他
  6
CONTINUOUS
 62
    4
 10
837.58023998327974
 20
1030.9369003262998
 40
1.2083333333333179
 50
127.52351319811918
 51
52.476486793893116
  0
ARC
  8
_2-d_ハッチ他
  6
CONTINUOUS
 62
    4
 10
844.94004070512221
 20
1032.8535669924884
 40
1.2083333333333581
 50
307.52351319535012
 51
232.47648679666085
  0
ARC
  8
_2-d_ハッチ他
  6
CONTINUOUS
 62
    4
 10
841.99612041643707
 20
1032.853566992693
 40
1.2083333333333581
 50
307.52351319535012
 51
232.47648679666085
  0
ARC
  8
_2-d_ハッチ他
  6
CONTINUOUS
 62
    4
 10
843.46808056064549
 20
1030.9369003258882
 40
1.2083333333333179
 50
127.52351319811918
 51
52.476486793893116
  0
ARC
  8
_2-d_ハッチ他
  6
CONTINUOUS
 62
    4
 10
840.52416027196261
 20
1030.9369003260952
 40
1.2083333333333179
 50
127.52351319811918
 51
52.476486793893116
  0
ARC
  8
_2-d_ハッチ他
  6
CONTINUOUS
 62
    4
 10
846.41200084933064
 20
1030.9369003256836
 40
1.2083333333333179
 50
127.52351319811918
 51
52.476486793893116
  0
ARC
  8
_2-d_ハッチ他
  6
CONTINUOUS
 62
    4
 10
847.88396099380509
 20
1032.8535669922837
 40
1.2083333333333581
 50
307.52351319535012
 51
232.47648679666085
  0
ARC
  8
_2-d_ハッチ他
  6
CONTINUOUS
 62
    4
 10
797.83731608618712
 20
1032.8535669939254
 40
1.2083333333333581
 50
307.52351319535012
 51
232.47648679666085
  0
ARC
  8
_2-d_ハッチ他
  6
CONTINUOUS
 62
    4
 10
796.36535594171266
 20
1030.9369003273252
 40
1.2083333333333179
 50
127.52351319811918
 51
52.476486793893116
  0
ARC
  8
_2-d_ハッチ他
  6
CONTINUOUS
 62
    4
 10
800.78123637487226
 20
1032.8535669937207
 40
1.2083333333333581
 50
307.52351319535012
 51
232.47648679666085
  0
ARC
  8
_2-d_ハッチ他
  6
CONTINUOUS
 62
    4
 10
799.30927623039554
 20
1030.9369003271206
 40
1.2083333333333179
 50
127.52351319811918
 51
52.476486793893116
  0
ARC
  8
_2-d_ハッチ他
  6
CONTINUOUS
 62
    4
 10
803.72515666355514
 20
1032.8535669935138
 40
1.2083333333333581
 50
307.52351319535012
 51
232.47648679666085
  0
ARC
  8
_2-d_ハッチ他
  6
CONTINUOUS
 62
    4
 10
802.25319651907841
 20
1030.9369003269137
 40
1.2083333333333179
 50
127.52351319811918
 51
52.476486793893116
  0
ARC
  8
_2-d_ハッチ他
  6
CONTINUOUS
 62
    4
 10
806.66907695223802
 20
1032.8535669933092
 40
1.2083333333333581
 50
307.52351319535012
 51
232.47648679666085
  0
ARC
  8
_2-d_ハッチ他
  6
CONTINUOUS
 62
    4
 10
805.19711680776356
 20
1030.9369003267091
 40
1.2083333333333179
 50
127.52351319811918
 51
52.476486793893116
  0
ARC
  8
_2-d_ハッチ他
  6
CONTINUOUS
 62
    4
 10
809.61299724092089
 20
1032.8535669931046
 40
1.2083333333333581
 50
307.52351319535012
 51
232.47648679666085
  0
ARC
  8
_2-d_ハッチ他
  6
CONTINUOUS
 62
    4
 10
808.14103709644644
 20
1030.9369003265044
 40
1.2083333333333179
 50
127.52351319811918
 51
52.476486793893116
  0
ARC
  8
_2-d_ハッチ他
  6
CONTINUOUS
 62
    4
 10
812.55691752960377
 20
1032.8535669928999
 40
1.2083333333333581
 50
307.52351319535012
 51
232.47648679666085
  0
ARC
  8
_2-d_ハッチ他
  6
CONTINUOUS
 62
    4
 10
811.08495738512931
 20
1030.9369003262998
 40
1.2083333333333179
 50
127.52351319811918
 51
52.476486793893116
  0
ARC
  8
_2-d_ハッチ他
  6
CONTINUOUS
 62
    4
 10
818.44475810697179
 20
1032.8535669924884
 40
1.2083333333333581
 50
307.52351319535012
 51
232.47648679666085
  0
ARC
  8
_2-d_ハッチ他
  6
CONTINUOUS
 62
    4
 10
815.50083781828891
 20
1032.853566992693
 40
1.2083333333333581
 50
307.52351319535012
 51
232.47648679666085
  0
ARC
  8
_2-d_ハッチ他
  6
CONTINUOUS
 62
    4
 10
816.97279796249506
 20
1030.9369003258882
 40
1.2083333333333179
 50
127.52351319811918
 51
52.476486793893116
  0
ARC
  8
_2-d_ハッチ他
  6
CONTINUOUS
 62
    4
 10
814.02887767381219
 20
1030.9369003260952
 40
1.2083333333333179
 50
127.52351319811918
 51
52.476486793893116
  0
ARC
  8
_2-d_ハッチ他
  6
CONTINUOUS
 62
    4
 10
819.91671825118021
 20
1030.9369003256836
 40
1.2083333333333179
 50
127.52351319811918
 51
52.476486793893116
  0
ARC
  8
_2-d_ハッチ他
  6
CONTINUOUS
 62
    4
 10
821.38867839565467
 20
1032.8535669922837
 40
1.2083333333333581
 50
307.52351319535012
 51
232.47648679666085
  0
ARC
  8
_2-d_ハッチ他
  6
CONTINUOUS
 62
    4
 10
780.17379435408759
 20
1032.8535669939254
 40
1.2083333333333581
 50
307.52351319535012
 51
232.47648679666085
  0
ARC
  8
_2-d_ハッチ他
  6
CONTINUOUS
 62
    4
 10
778.70183420961314
 20
1030.9369003273252
 40
1.2083333333333179
 50
127.52351319811918
 51
52.476486793893116
  0
ARC
  8
_2-d_ハッチ他
  6
CONTINUOUS
 62
    4
 10
783.11771464277047
 20
1032.8535669937207
 40
1.2083333333333581
 50
307.52351319535012
 51
232.47648679666085
  0
ARC
  8
_2-d_ハッチ他
  6
CONTINUOUS
 62
    4
 10
781.64575449829601
 20
1030.9369003271206
 40
1.2083333333333179
 50
127.52351319811918
 51
52.476486793893116
  0
ARC
  8
_2-d_ハッチ他
  6
CONTINUOUS
 62
    4
 10
786.06163493145334
 20
1032.8535669935138
 40
1.2083333333333581
 50
307.52351319535012
 51
232.47648679666085
  0
ARC
  8
_2-d_ハッチ他
  6
CONTINUOUS
 62
    4
 10
784.58967478697889
 20
1030.9369003269137
 40
1.2083333333333179
 50
127.52351319811918
 51
52.476486793893116
  0
ARC
  8
_2-d_ハッチ他
  6
CONTINUOUS
 62
    4
 10
789.00555522013849
 20
1032.8535669933092
 40
1.2083333333333581
 50
307.52351319535012
 51
232.47648679666085
  0
ARC
  8
_2-d_ハッチ他
  6
CONTINUOUS
 62
    4
 10
787.53359507566176
 20
1030.9369003267091
 40
1.2083333333333179
 50
127.52351319811918
 51
52.476486793893116
  0
ARC
  8
_2-d_ハッチ他
  6
CONTINUOUS
 62
    4
 10
791.94947550882137
 20
1032.8535669931046
 40
1.2083333333333581
 50
307.52351319535012
 51
232.47648679666085
  0
ARC
  8
_2-d_ハッチ他
  6
CONTINUOUS
 62
    4
 10
790.47751536434691
 20
1030.9369003265044
 40
1.2083333333333179
 50
127.52351319811918
 51
52.476486793893116
  0
ARC
  8
_2-d_ハッチ他
  6
CONTINUOUS
 62
    4
 10
794.89339579750424
 20
1032.8535669928999
 40
1.2083333333333581
 50
307.52351319535012
 51
232.47648679666085
  0
ARC
  8
_2-d_ハッチ他
  6
CONTINUOUS
 62
    4
 10
793.42143565302979
 20
1030.9369003262998
 40
1.2083333333333179
 50
127.52351319811918
 51
52.476486793893116
  0
ARC
  8
_2-d_ハッチ他
  6
CONTINUOUS
 62
    4
 10
753.67851175593717
 20
1032.8535669939254
 40
1.2083333333333581
 50
307.52351319535012
 51
232.47648679666085
  0
ARC
  8
_2-d_ハッチ他
  6
CONTINUOUS
 62
    4
 10
752.20655161146271
 20
1030.9369003273252
 40
1.2083333333333179
 50
127.52351319811918
 51
52.476486793893116
  0
ARC
  8
_2-d_ハッチ他
  6
CONTINUOUS
 62
    4
 10
756.62243204462004
 20
1032.8535669937207
 40
1.2083333333333581
 50
307.52351319535012
 51
232.47648679666085
  0
ARC
  8
_2-d_ハッチ他
  6
CONTINUOUS
 62
    4
 10
755.15047190014559
 20
1030.9369003271206
 40
1.2083333333333179
 50
127.52351319811918
 51
52.476486793893116
  0
ARC
  8
_2-d_ハッチ他
  6
CONTINUOUS
 62
    4
 10
759.56635233330519
 20
1032.8535669935138
 40
1.2083333333333581
 50
307.52351319535012
 51
232.47648679666085
  0
ARC
  8
_2-d_ハッチ他
  6
CONTINUOUS
 62
    4
 10
758.09439218882846
 20
1030.9369003269137
 40
1.2083333333333179
 50
127.52351319811918
 51
52.476486793893116
  0
ARC
  8
_2-d_ハッチ他
  6
CONTINUOUS
 62
    4
 10
762.51027262198807
 20
1032.8535669933092
 40
1.2083333333333581
 50
307.52351319535012
 51
232.47648679666085
  0
ARC
  8
_2-d_ハッチ他
  6
CONTINUOUS
 62
    4
 10
761.03831247751134
 20
1030.9369003267091
 40
1.2083333333333179
 50
127.52351319811918
 51
52.476486793893116
  0
ARC
  8
_2-d_ハッチ他
  6
CONTINUOUS
 62
    4
 10
765.45419291067094
 20
1032.8535669931046
 40
1.2083333333333581
 50
307.52351319535012
 51
232.47648679666085
  0
ARC
  8
_2-d_ハッチ他
  6
CONTINUOUS
 62
    4
 10
763.98223276619649
 20
1030.9369003265044
 40
1.2083333333333179
 50
127.52351319811918
 51
52.476486793893116
  0
ARC
  8
_2-d_ハッチ他
  6
CONTINUOUS
 62
    4
 10
768.39811319935382
 20
1032.8535669928999
 40
1.2083333333333581
 50
307.52351319535012
 51
232.47648679666085
  0
ARC
  8
_2-d_ハッチ他
  6
CONTINUOUS
 62
    4
 10
766.92615305487936
 20
1030.9369003262998
 40
1.2083333333333179
 50
127.52351319811918
 51
52.476486793893116
  0
ARC
  8
_2-d_ハッチ他
  6
CONTINUOUS
 62
    4
 10
774.28595377672184
 20
1032.8535669924884
 40
1.2083333333333581
 50
307.52351319535012
 51
232.47648679666085
  0
ARC
  8
_2-d_ハッチ他
  6
CONTINUOUS
 62
    4
 10
771.34203348803669
 20
1032.853566992693
 40
1.2083333333333581
 50
307.52351319535012
 51
232.47648679666085
  0
ARC
  8
_2-d_ハッチ他
  6
CONTINUOUS
 62
    4
 10
772.81399363224511
 20
1030.9369003258882
 40
1.2083333333333179
 50
127.52351319811918
 51
52.476486793893116
  0
ARC
  8
_2-d_ハッチ他
  6
CONTINUOUS
 62
    4
 10
769.87007334356224
 20
1030.9369003260952
 40
1.2083333333333179
 50
127.52351319811918
 51
52.476486793893116
  0
ARC
  8
_2-d_ハッチ他
  6
CONTINUOUS
 62
    4
 10
775.75791392093026
 20
1030.9369003256836
 40
1.2083333333333179
 50
127.52351319811918
 51
52.476486793893116
  0
ARC
  8
_2-d_ハッチ他
  6
CONTINUOUS
 62
    4
 10
777.22987406540472
 20
1032.8535669922837
 40
1.2083333333333581
 50
307.52351319535012
 51
232.47648679666085
  0
ARC
  8
_2-d_ハッチ他
  6
CONTINUOUS
 62
    4
 10
727.18322915778674
 20
1032.8535669939254
 40
1.2083333333333581
 50
307.52351319535012
 51
232.47648679666085
  0
ARC
  8
_2-d_ハッチ他
  6
CONTINUOUS
 62
    4
 10
725.71126901331229
 20
1030.9369003273252
 40
1.2083333333333179
 50
127.52351319811918
 51
52.476486793893116
  0
ARC
  8
_2-d_ハッチ他
  6
CONTINUOUS
 62
    4
 10
730.12714944647189
 20
1032.8535669937207
 40
1.2083333333333581
 50
307.52351319535012
 51
232.47648679666085
  0
ARC
  8
_2-d_ハッチ他
  6
CONTINUOUS
 62
    4
 10
728.65518930199516
 20
1030.9369003271206
 40
1.2083333333333179
 50
127.52351319811918
 51
52.476486793893116
  0
ARC
  8
_2-d_ハッチ他
  6
CONTINUOUS
 62
    4
 10
733.07106973515477
 20
1032.8535669935138
 40
1.2083333333333581
 50
307.52351319535012
 51
232.47648679666085
  0
ARC
  8
_2-d_ハッチ他
  6
CONTINUOUS
 62
    4
 10
731.59910959067804
 20
1030.9369003269137
 40
1.2083333333333179
 50
127.52351319811918
 51
52.476486793893116
  0
ARC
  8
_2-d_ハッチ他
  6
CONTINUOUS
 62
    4
 10
736.01499002383764
 20
1032.8535669933092
 40
1.2083333333333581
 50
307.52351319535012
 51
232.47648679666085
  0
ARC
  8
_2-d_ハッチ他
  6
CONTINUOUS
 62
    4
 10
734.54302987936319
 20
1030.9369003267091
 40
1.2083333333333179
 50
127.52351319811918
 51
52.476486793893116
  0
ARC
  8
_2-d_ハッチ他
  6
CONTINUOUS
 62
    4
 10
738.95891031252052
 20
1032.8535669931046
 40
1.2083333333333581
 50
307.52351319535012
 51
232.47648679666085
  0
ARC
  8
_2-d_ハッチ他
  6
CONTINUOUS
 62
    4
 10
737.48695016804606
 20
1030.9369003265044
 40
1.2083333333333179
 50
127.52351319811918
 51
52.476486793893116
  0
ARC
  8
_2-d_ハッチ他
  6
CONTINUOUS
 62
    4
 10
741.90283060120339
 20
1032.8535669928999
 40
1.2083333333333581
 50
307.52351319535012
 51
232.47648679666085
  0
ARC
  8
_2-d_ハッチ他
  6
CONTINUOUS
 62
    4
 10
740.43087045672894
 20
1030.9369003262998
 40
1.2083333333333179
 50
127.52351319811918
 51
52.476486793893116
  0
ARC
  8
_2-d_ハッチ他
  6
CONTINUOUS
 62
    4
 10
744.84675088988854
 20
1032.853566992693
 40
1.2083333333333581
 50
307.52351319535012
 51
232.47648679666085
  0
ARC
  8
_2-d_ハッチ他
  6
CONTINUOUS
 62
    4
 10
743.37479074541181
 20
1030.9369003260952
 40
1.2083333333333179
 50
127.52351319811918
 51
52.476486793893116
  0
ARC
  8
_2-d_ハッチ他
  6
CONTINUOUS
 62
    4
 10
722.76734872462941
 20
1030.9369003269137
 40
1.2083333333333179
 50
127.52351319811918
 51
52.476486793893116
  0
ARC
  8
_2-d_ハッチ他
  6
CONTINUOUS
 62
    4
 10
724.23930886910387
 20
1032.8535669935138
 40
1.2083333333333581
 50
307.52351319535012
 51
232.47648679666085
  0
ARC
  8
_2-d_ハッチ他
  6
CONTINUOUS
 62
    4
 10
709.51970742568722
 20
1032.8535669931046
 40
1.2083333333333581
 50
307.52351319535012
 51
232.47648679666085
  0
ARC
  8
_2-d_ハッチ他
  6
CONTINUOUS
 62
    4
 10
712.46362771437009
 20
1032.8535669928999
 40
1.2083333333333581
 50
307.52351319535012
 51
232.47648679666085
  0
ARC
  8
_2-d_ハッチ他
  6
CONTINUOUS
 62
    4
 10
710.99166756989564
 20
1030.9369003262998
 40
1.2083333333333179
 50
127.52351319811918
 51
52.476486793893116
  0
ARC
  8
_2-d_ハッチ他
  6
CONTINUOUS
 62
    4
 10
718.35146829173812
 20
1032.8535669924884
 40
1.2083333333333581
 50
307.52351319535012
 51
232.47648679666085
  0
ARC
  8
_2-d_ハッチ他
  6
CONTINUOUS
 62
    4
 10
715.40754800305297
 20
1032.853566992693
 40
1.2083333333333581
 50
307.52351319535012
 51
232.47648679666085
  0
ARC
  8
_2-d_ハッチ他
  6
CONTINUOUS
 62
    4
 10
716.87950814726139
 20
1030.9369003258882
 40
1.2083333333333179
 50
127.52351319811918
 51
52.476486793893116
  0
ARC
  8
_2-d_ハッチ他
  6
CONTINUOUS
 62
    4
 10
713.93558785857851
 20
1030.9369003260952
 40
1.2083333333333179
 50
127.52351319811918
 51
52.476486793893116
  0
ARC
  8
_2-d_ハッチ他
  6
CONTINUOUS
 62
    4
 10
719.82342843594427
 20
1030.9369003256836
 40
1.2083333333333179
 50
127.52351319811918
 51
52.476486793893116
  0
ARC
  8
_2-d_ハッチ他
  6
CONTINUOUS
 62
    4
 10
721.29538858042099
 20
1032.8535669922837
 40
1.2083333333333581
 50
307.52351319535012
 51
232.47648679666085
  0
ARC
  8
_2-d_ハッチ他
  6
CONTINUOUS
 62
    4
 10
849.35592113801351
 20
1030.9369003273252
 40
1.2083333333333179
 50
127.52351319811918
 51
52.476486793893116
  0
ARC
  8
_2-d_ハッチ他
  6
CONTINUOUS
 62
    4
 10
850.82788128248797
 20
1032.8535669939254
 40
1.2083333333333581
 50
307.52351319535012
 51
232.47648679666085
  0
ARC
  8
_2-d_ハッチ他
  6
CONTINUOUS
 62
    4
 10
852.29984142669639
 20
1030.9369003271206
 40
1.2083333333333179
 50
127.52351319811918
 51
52.476486793893116
  0
ARC
  8
_2-d_ハッチ他
  6
CONTINUOUS
 62
    4
 10
853.77180157117084
 20
1032.8535669937207
 40
1.2083333333333581
 50
307.52351319535012
 51
232.47648679666085
  0
ARC
  8
_2-d_ハッチ他
  6
CONTINUOUS
 62
    4
 10
855.24376171537926
 20
1030.9369003269137
 40
1.2083333333333179
 50
127.52351319811918
 51
52.476486793893116
  0
ARC
  8
_2-d_ハッチ他
  6
CONTINUOUS
 62
    4
 10
856.71572185985599
 20
1032.8535669935138
 40
1.2083333333333581
 50
307.52351319535012
 51
232.47648679666085
  0
LINE
  8
_2-6_鋼板__アングル
  6
CONTINUOUS
 62
    2
 10
848.04434424187423
 20
1214.3952336548261
 11
851.54434424187559
 21
1214.3952336548261
  0
LINE
  8
_2-6_鋼板__アングル
  6
CONTINUOUS
 62
    2
 10
848.04434424187423
 20
1214.3952336548261
 11
848.04434424187423
 21
1229.3952336548261
  0
LINE
  8
_2-d_ハッチ他
  6
CONTINUOUS
 62
    4
 10
848.28311063338435
 20
1229.3952336548239
 11
848.19362680632241
 21
1229.4847174818858
  0
LINE
  8
_2-d_ハッチ他
  6
CONTINUOUS
 62
    4
 10
851.81864453931769
 20
1229.3952336548239
 11
850.3202751857076
 21
1230.893603008434
  0
LINE
  8
_2-d_ハッチ他
  6
CONTINUOUS
 62
    4
 10
855.35417844524875
 20
1229.3952336548261
 11
852.29473947177087
 21
1232.454672628304
  0
LINE
  8
_2-d_ハッチ他
  6
CONTINUOUS
 62
    4
 10
858.54434424187605
 20
1229.7406017641322
 11
854.12143738236284
 21
1234.1635086236454
  0
LINE
  8
_2-d_ハッチ他
  6
CONTINUOUS
 62
    4
 10
858.54434424187605
 20
1233.2761356700655
 11
855.80159682372471
 21
1236.0188830882169
  0
LINE
  8
_2-d_ハッチ他
  6
CONTINUOUS
 62
    4
 10
858.54434424187605
 20
1236.8116695759988
 11
857.33338737295401
 21
1238.0226264449209
  0
LINE
  8
_2-d_ハッチ他
  6
CONTINUOUS
 62
    4
 10
858.54434424187377
 20
1180.2872972696503
 11
857.65228062705194
 21
1179.3952336548284
  0
LINE
  8
_2-d_ハッチ他
  6
CONTINUOUS
 62
    4
 10
858.54434424187377
 20
1183.8228311755813
 11
856.54434424187332
 21
1181.8228311755831
  0
LINE
  8
_2-d_ハッチ他
  6
CONTINUOUS
 62
    4
 10
858.54434424187377
 20
1187.3583650815146
 11
856.54434424187559
 21
1185.3583650815187
  0
LINE
  8
_2-d_ハッチ他
  6
CONTINUOUS
 62
    4
 10
858.54434424187377
 20
1190.893898987448
 11
856.54434424187332
 21
1188.8938989874498
  0
LINE
  8
_2-d_ハッチ他
  6
CONTINUOUS
 62
    4
 10
858.54434424187377
 20
1194.4294328933836
 11
856.54434424187787
 21
1192.4294328933854
  0
LINE
  8
_2-d_ハッチ他
  6
CONTINUOUS
 62
    4
 10
858.54434424187605
 20
1197.9649667993101
 11
856.54434424187787
 21
1195.9649667993097
  0
LINE
  8
_2-d_ハッチ他
  6
CONTINUOUS
 62
    4
 10
858.54434424187605
 20
1201.5005007052434
 11
856.54434424187332
 21
1199.5005007052407
  0
LINE
  8
_2-d_ハッチ他
  6
CONTINUOUS
 62
    4
 10
858.54434424187605
 20
1205.0360346111768
 11
856.54434424187787
 21
1203.0360346111763
  0
LINE
  8
_2-d_ハッチ他
  6
CONTINUOUS
 62
    4
 10
858.54434424187605
 20
1208.5715685171101
 11
856.54434424187332
 21
1206.5715685171074
  0
LINE
  8
_2-d_ハッチ他
  6
CONTINUOUS
 62
    4
 10
858.54434424187605
 20
1212.1071024230434
 11
856.54434424187559
 21
1210.107102423043
  0
LINE
  8
_2-d_ハッチ他
  6
CONTINUOUS
 62
    4
 10
858.54434424187605
 20
1215.6426363289745
 11
856.54434424187332
 21
1213.642636328974
  0
LINE
  8
_2-d_ハッチ他
  6
CONTINUOUS
 62
    4
 10
858.54434424187605
 20
1219.1781702349078
 11
856.54434424187559
 21
1217.1781702349074
  0
LINE
  8
_2-d_ハッチ他
  6
CONTINUOUS
 62
    4
 10
858.54434424187605
 20
1222.7137041408412
 11
856.54434424187332
 21
1220.7137041408384
  0
LINE
  8
_2-d_ハッチ他
  6
CONTINUOUS
 62
    4
 10
858.54434424187605
 20
1226.2492380467745
 11
856.54434424187559
 21
1224.2492380467741
  0
LINE
  8
_2-d_ハッチ他
  6
CONTINUOUS
 62
    4
 10
858.15480594399435
 20
1229.3952336548261
 11
856.54434424187559
 21
1227.7847719527074
  0
ARC
  8
_2-d_ハッチ他
  6
CONTINUOUS
 62
    4
 10
830.22043926170329
 20
1032.8535669928999
 40
1.2083333333333581
 50
307.52351319535012
 51
232.47648679666085
  0
ARC
  8
_2-d_ハッチ他
  6
CONTINUOUS
 62
    4
 10
1317.1947635753634
 20
1032.8535669928999
 40
1.2083333333333581
 50
307.52351320333912
 51
232.47648680464988
  0
ARC
  8
_2-d_ハッチ他
  6
CONTINUOUS
 62
    4
 10
1314.2508432866805
 20
1032.853566992693
 40
1.2083333333333581
 50
307.52351320333912
 51
232.47648680464988
  0
ARC
  8
_2-d_ハッチ他
  6
CONTINUOUS
 62
    4
 10
1315.7228034311549
 20
1030.9369003260952
 40
1.2083333333333179
 50
127.52351320610693
 51
52.47648680188081
  0
ARC
  8
_2-d_ハッチ他
  6
CONTINUOUS
 62
    4
 10
1340.7461258848309
 20
1032.8535669939254
 40
1.2083333333333581
 50
307.52351320333912
 51
232.47648680464988
  0
ARC
  8
_2-d_ハッチ他
  6
CONTINUOUS
 62
    4
 10
1342.2180860293076
 20
1030.9369003273252
 40
1.2083333333333179
 50
127.52351320610693
 51
52.47648680188081
  0
ARC
  8
_2-d_ハッチ他
  6
CONTINUOUS
 62
    4
 10
1337.802205596148
 20
1032.8535669937207
 40
1.2083333333333581
 50
307.52351320333912
 51
232.47648680464988
  0
ARC
  8
_2-d_ハッチ他
  6
CONTINUOUS
 62
    4
 10
1339.2741657406225
 20
1030.9369003271206
 40
1.2083333333333179
 50
127.52351320610693
 51
52.47648680188081
  0
ARC
  8
_2-d_ハッチ他
  6
CONTINUOUS
 62
    4
 10
1334.8582853074652
 20
1032.8535669935138
 40
1.2083333333333581
 50
307.52351320333912
 51
232.47648680464988
  0
ARC
  8
_2-d_ハッチ他
  6
CONTINUOUS
 62
    4
 10
1336.3302454519396
 20
1030.9369003269137
 40
1.2083333333333179
 50
127.52351320610693
 51
52.47648680188081
  0
ARC
  8
_2-d_ハッチ他
  6
CONTINUOUS
 62
    4
 10
1331.9143650187823
 20
1032.8535669933092
 40
1.2083333333333581
 50
307.52351320333912
 51
232.47648680464988
  0
ARC
  8
_2-d_ハッチ他
  6
CONTINUOUS
 62
    4
 10
1333.3863251632567
 20
1030.9369003267091
 40
1.2083333333333179
 50
127.52351320610693
 51
52.47648680188081
  0
ARC
  8
_2-d_ハッチ他
  6
CONTINUOUS
 62
    4
 10
1328.9704447300971
 20
1032.8535669931046
 40
1.2083333333333581
 50
307.52351320333912
 51
232.47648680464988
  0
ARC
  8
_2-d_ハッチ他
  6
CONTINUOUS
 62
    4
 10
1330.4424048745739
 20
1030.9369003265044
 40
1.2083333333333179
 50
127.52351320610693
 51
52.47648680188081
  0
ARC
  8
_2-d_ハッチ他
  6
CONTINUOUS
 62
    4
 10
1326.0265244414143
 20
1032.8535669928999
 40
1.2083333333333581
 50
307.52351320333912
 51
232.47648680464988
  0
ARC
  8
_2-d_ハッチ他
  6
CONTINUOUS
 62
    4
 10
1327.4984845858887
 20
1030.9369003262998
 40
1.2083333333333179
 50
127.52351320610693
 51
52.47648680188081
  0
ARC
  8
_2-d_ハッチ他
  6
CONTINUOUS
 62
    4
 10
1320.1386838640485
 20
1032.8535669924884
 40
1.2083333333333581
 50
307.52351320333912
 51
232.47648680464988
  0
ARC
  8
_2-d_ハッチ他
  6
CONTINUOUS
 62
    4
 10
1323.0826041527314
 20
1032.853566992693
 40
1.2083333333333581
 50
307.52351320333912
 51
232.47648680464988
  0
ARC
  8
_2-d_ハッチ他
  6
CONTINUOUS
 62
    4
 10
1321.610644008523
 20
1030.9369003258882
 40
1.2083333333333179
 50
127.52351320610693
 51
52.47648680188081
  0
ARC
  8
_2-d_ハッチ他
  6
CONTINUOUS
 62
    4
 10
1324.5545642972058
 20
1030.9369003260952
 40
1.2083333333333179
 50
127.52351320610693
 51
52.47648680188081
  0
ARC
  8
_2-d_ハッチ他
  6
CONTINUOUS
 62
    4
 10
1345.1620063179905
 20
1030.9369003269137
 40
1.2083333333333179
 50
127.52351320610693
 51
52.47648680188081
  0
ARC
  8
_2-d_ハッチ他
  6
CONTINUOUS
 62
    4
 10
1343.6900461735138
 20
1032.8535669935138
 40
1.2083333333333581
 50
307.52351320333912
 51
232.47648680464988
  0
ARC
  8
_2-d_ハッチ他
  6
CONTINUOUS
 62
    4
 10
1361.3535679056156
 20
1032.8535669933092
 40
1.2083333333333581
 50
307.52351320333912
 51
232.47648680464988
  0
ARC
  8
_2-d_ハッチ他
  6
CONTINUOUS
 62
    4
 10
1358.4096476169304
 20
1032.8535669931046
 40
1.2083333333333581
 50
307.52351320333912
 51
232.47648680464988
  0
ARC
  8
_2-d_ハッチ他
  6
CONTINUOUS
 62
    4
 10
1359.8816077614072
 20
1030.9369003265044
 40
1.2083333333333179
 50
127.52351320610693
 51
52.47648680188081
  0
ARC
  8
_2-d_ハッチ他
  6
CONTINUOUS
 62
    4
 10
1355.4657273282476
 20
1032.8535669928999
 40
1.2083333333333581
 50
307.52351320333912
 51
232.47648680464988
  0
ARC
  8
_2-d_ハッチ他
  6
CONTINUOUS
 62
    4
 10
1356.9376874727243
 20
1030.9369003262998
 40
1.2083333333333179
 50
127.52351320610693
 51
52.47648680188081
  0
ARC
  8
_2-d_ハッチ他
  6
CONTINUOUS
 62
    4
 10
1349.5778867508818
 20
1032.8535669924884
 40
1.2083333333333581
 50
307.52351320333912
 51
232.47648680464988
  0
ARC
  8
_2-d_ハッチ他
  6
CONTINUOUS
 62
    4
 10
1352.5218070395647
 20
1032.853566992693
 40
1.2083333333333581
 50
307.52351320333912
 51
232.47648680464988
  0
ARC
  8
_2-d_ハッチ他
  6
CONTINUOUS
 62
    4
 10
1351.0498468953563
 20
1030.9369003258882
 40
1.2083333333333179
 50
127.52351320610693
 51
52.47648680188081
  0
ARC
  8
_2-d_ハッチ他
  6
CONTINUOUS
 62
    4
 10
1353.9937671840391
 20
1030.9369003260952
 40
1.2083333333333179
 50
127.52351320610693
 51
52.47648680188081
  0
ARC
  8
_2-d_ハッチ他
  6
CONTINUOUS
 62
    4
 10
1348.1059266066734
 20
1030.9369003256836
 40
1.2083333333333179
 50
127.52351320610693
 51
52.47648680188081
  0
ARC
  8
_2-d_ハッチ他
  6
CONTINUOUS
 62
    4
 10
1346.6339664621989
 20
1032.8535669922837
 40
1.2083333333333581
 50
307.52351320333912
 51
232.47648680464988
  0
ARC
  8
_2-d_ハッチ他
  6
CONTINUOUS
 62
    4
 10
1318.6667237198401
 20
1030.9369003256836
 40
1.2083333333333179
 50
127.52351320610693
 51
52.47648680188081
  0
ARC
  8
_2-d_ハッチ他
  6
CONTINUOUS
 62
    4
 10
1312.7788831424721
 20
1030.9369003258882
 40
1.2083333333333179
 50
127.52351320610693
 51
52.47648680188081
  0
TEXT
  8
_2-a_moji
 62
    7
 10
1025.7659920600677
 20
1256.2233988987293
 40
15
 41
1
 50
0
  1
ロンシーラントＴＢ
  0
TEXT
  8
_2-a_moji
 62
    7
 10
1025.7659920600677
 20
1306.2233988987293
 40
15
 41
1
 50
0
  1
ロンシーラントＳ
  0
TEXT
  8
_2-a_moji
 62
    7
 10
1025.7659920600677
 20
1281.2233988987293
 40
15
 41
1
 50
0
  1
ステンレスバンド
  0
LINE
  8
_2-a_moji
  6
CONTINUOUS
 62
    7
 10
1015.7659920600678
 20
1263.7233988987293
 11
986.11343410375741
 21
1263.7233988987293
  0
LINE
  8
_2-a_moji
  6
CONTINUOUS
 62
    7
 10
939.05277370680653
 20
1182.2119440534664
 11
986.11343410375741
 21
1263.7233988987293
  0
LINE
  8
_2-a_moji
  6
CONTINUOUS
 62
    7
 10
1015.7659920600678
 20
1288.7233988987293
 11
986.1597370691776
 21
1288.7233988987293
  0
LINE
  8
_2-a_moji
  6
CONTINUOUS
 62
    7
 10
947.82927439950856
 20
1222.3330900772373
 11
986.1597370691776
 21
1288.7233988987293
  0
LINE
  8
_2-a_moji
  6
CONTINUOUS
 62
    7
 10
1015.7659920600678
 20
1313.7233988987293
 11
985.83204315164369
 21
1313.7233988987293
  0
LINE
  8
_2-a_moji
  6
CONTINUOUS
 62
    7
 10
940.30655952005066
 20
1234.8709482096649
 11
985.83204315164369
 21
1313.7233988987293
  0
ARC
  8
_2-d_ハッチ他
  6
CONTINUOUS
 62
    4
 10
1367.2414084829813
 20
1032.8535669939254
 40
1.2083333333333581
 50
307.52351320333912
 51
232.47648680464988
  0
ARC
  8
_2-d_ハッチ他
  6
CONTINUOUS
 62
    4
 10
1368.7133686274581
 20
1030.9369003273252
 40
1.2083333333333179
 50
127.52351320610693
 51
52.47648680188081
  0
ARC
  8
_2-d_ハッチ他
  6
CONTINUOUS
 62
    4
 10
1364.2974881942985
 20
1032.8535669937207
 40
1.2083333333333581
 50
307.52351320333912
 51
232.47648680464988
  0
ARC
  8
_2-d_ハッチ他
  6
CONTINUOUS
 62
    4
 10
1365.7694483387729
 20
1030.9369003271206
 40
1.2083333333333179
 50
127.52351320610693
 51
52.47648680188081
  0
ARC
  8
_2-d_ハッチ他
  6
CONTINUOUS
 62
    4
 10
1362.82552805009
 20
1030.9369003269137
 40
1.2083333333333179
 50
127.52351320610693
 51
52.47648680188081
  0
ARC
  8
_2-d_ハッチ他
  6
CONTINUOUS
 62
    4
 10
1371.6572889161409
 20
1030.9369003269137
 40
1.2083333333333179
 50
127.52351320610693
 51
52.47648680188081
  0
ARC
  8
_2-d_ハッチ他
  6
CONTINUOUS
 62
    4
 10
1370.1853287716642
 20
1032.8535669935138
 40
1.2083333333333581
 50
307.52351320333912
 51
232.47648680464988
  0
ARC
  8
_2-d_ハッチ他
  6
CONTINUOUS
 62
    4
 10
1384.9049302150809
 20
1032.8535669931046
 40
1.2083333333333581
 50
307.52351320333912
 51
232.47648680464988
  0
ARC
  8
_2-d_ハッチ他
  6
CONTINUOUS
 62
    4
 10
1386.3768903595576
 20
1030.9369003265044
 40
1.2083333333333179
 50
127.52351320610693
 51
52.47648680188081
  0
ARC
  8
_2-d_ハッチ他
  6
CONTINUOUS
 62
    4
 10
1381.961009926398
 20
1032.8535669928999
 40
1.2083333333333581
 50
307.52351320333912
 51
232.47648680464988
  0
ARC
  8
_2-d_ハッチ他
  6
CONTINUOUS
 62
    4
 10
1383.4329700708747
 20
1030.9369003262998
 40
1.2083333333333179
 50
127.52351320610693
 51
52.47648680188081
  0
ARC
  8
_2-d_ハッチ他
  6
CONTINUOUS
 62
    4
 10
1376.0731693490322
 20
1032.8535669924884
 40
1.2083333333333581
 50
307.52351320333912
 51
232.47648680464988
  0
ARC
  8
_2-d_ハッチ他
  6
CONTINUOUS
 62
    4
 10
1379.0170896377151
 20
1032.853566992693
 40
1.2083333333333581
 50
307.52351320333912
 51
232.47648680464988
  0
ARC
  8
_2-d_ハッチ他
  6
CONTINUOUS
 62
    4
 10
1377.5451294935067
 20
1030.9369003258882
 40
1.2083333333333179
 50
127.52351320610693
 51
52.47648680188081
  0
ARC
  8
_2-d_ハッチ他
  6
CONTINUOUS
 62
    4
 10
1380.4890497821896
 20
1030.9369003260952
 40
1.2083333333333179
 50
127.52351320610693
 51
52.47648680188081
  0
ARC
  8
_2-d_ハッチ他
  6
CONTINUOUS
 62
    4
 10
1374.6012092048238
 20
1030.9369003256836
 40
1.2083333333333179
 50
127.52351320610693
 51
52.47648680188081
  0
ARC
  8
_2-d_ハッチ他
  6
CONTINUOUS
 62
    4
 10
1373.1292490603494
 20
1032.8535669922837
 40
1.2083333333333581
 50
307.52351320333912
 51
232.47648680464988
  0
LINE
  8
_2-e_con他
  6
CONTINUOUS
 62
    4
 10
1076.26440806148
 20
849.39523365482614
 11
1226.26440806148
 21
999.39523365482614
  0
LINE
  8
_2-e_con他
  6
CONTINUOUS
 62
    4
 10
1062.122272437749
 20
849.39523365482614
 11
1212.122272437749
 21
999.39523365482614
  0
LINE
  8
_2-e_con他
  6
CONTINUOUS
 62
    4
 10
1069.1933402496156
 20
849.39523365482614
 11
1219.1933402496156
 21
999.39523365482614
  0
LINE
  8
_2-e_con他
  6
CONTINUOUS
 62
    4
 10
938.54434424187605
 20
925.81730545895084
 11
1012.1222724377491
 21
999.39523365482614
  0
LINE
  8
_2-e_con他
  6
CONTINUOUS
 62
    4
 10
938.54434424187605
 20
911.67516983522205
 11
1026.26440806148
 21
999.39523365482614
  0
LINE
  8
_2-e_con他
  6
CONTINUOUS
 62
    4
 10
938.54434424187605
 20
918.74623764708645
 11
1019.1933402496157
 21
999.39523365482614
  0
LINE
  8
_2-e_con他
  6
CONTINUOUS
 62
    4
 10
776.49027551423262
 20
849.39523365482614
 11
858.54434424187605
 21
931.44930238246957
  0
LINE
  8
_2-e_con他
  6
CONTINUOUS
 62
    4
 10
790.63241113796141
 20
849.39523365482614
 11
858.54434424187605
 21
917.30716675874078
  0
LINE
  8
_2-e_con他
  6
CONTINUOUS
 62
    4
 10
783.56134332609702
 20
849.39523365482614
 11
858.54434424187605
 21
924.37823457060517
  0
LINE
  8
_2-d_ハッチ他
  6
CONTINUOUS
 62
    4
 10
716.24994409978046
 20
1029.3952336548261
 11
746.24994409978046
 21
999.39523365482614
  0
LINE
  8
_2-d_ハッチ他
  6
CONTINUOUS
 62
    4
 10
772.81848659470472
 20
1029.3952336548261
 11
802.81848659470472
 21
999.39523365482614
  0
LINE
  8
_2-d_ハッチ他
  6
CONTINUOUS
 62
    4
 10
801.10275784216913
 20
1029.3952336548284
 11
831.10275784216913
 21
999.39523365482842
  0
LINE
  8
_2-d_ハッチ他
  6
CONTINUOUS
 62
    4
 10
857.67130033709338
 20
1029.3952336548284
 11
858.54434424187832
 21
1028.5221897500458
  0
LINE
  8
_2-d_ハッチ他
  6
CONTINUOUS
 62
    4
 10
777.4034888000175
 20
999.39523365482614
 11
807.4034888000175
 21
1029.3952336548261
  0
LINE
  8
_2-d_ハッチ他
  6
CONTINUOUS
 62
    4
 10
1343.0889137492579
 20
999.39523365482387
 11
1373.0889137492602
 21
1029.3952336548261
  0
LINE
  8
_2-d_ハッチ他
  6
CONTINUOUS
 62
    4
 10
1314.8046425017935
 20
999.39523365482614
 11
1344.8046425017935
 21
1029.3952336548261
  0
LINE
  8
_2-d_ハッチ他
  6
CONTINUOUS
 62
    4
 10
1286.5203712543337
 20
999.39523365482387
 11
1316.5203712543337
 21
1029.3952336548239
  0
LINE
  8
_2-d_ハッチ他
  6
CONTINUOUS
 62
    4
 10
1258.236100006869
 20
999.39523365482614
 11
1288.2361000068693
 21
1029.3952336548261
  0
LINE
  8
_2-d_ハッチ他
  6
CONTINUOUS
 62
    4
 10
1229.9518287594115
 20
999.39523365482387
 11
1259.9518287594092
 21
1029.3952336548239
  0
LINE
  8
_2-d_ハッチ他
  6
CONTINUOUS
 62
    4
 10
1201.6675575119448
 20
999.39523365482614
 11
1231.6675575119448
 21
1029.3952336548261
  0
LINE
  8
_2-d_ハッチ他
  6
CONTINUOUS
 62
    4
 10
1173.3832862644872
 20
999.39523365482614
 11
1203.3832862644872
 21
1029.3952336548239
  0
LINE
  8
_2-d_ハッチ他
  6
CONTINUOUS
 62
    4
 10
1145.0990150170228
 20
999.39523365482842
 11
1175.0990150170205
 21
1029.3952336548261
  0
LINE
  8
_2-d_ハッチ他
  6
CONTINUOUS
 62
    4
 10
1116.8147437695629
 20
999.39523365482614
 11
1146.8147437695629
 21
1029.3952336548239
  0
LINE
  8
_2-d_ハッチ他
  6
CONTINUOUS
 62
    4
 10
1088.5304725220963
 20
999.39523365482614
 11
1118.5304725220963
 21
1029.3952336548261
  0
LINE
  8
_2-d_ハッチ他
  6
CONTINUOUS
 62
    4
 10
1060.2462012746387
 20
999.39523365482614
 11
1090.2462012746387
 21
1029.3952336548261
  0
LINE
  8
_2-d_ハッチ他
  6
CONTINUOUS
 62
    4
 10
1003.6776587797145
 20
999.39523365482614
 11
1033.6776587797144
 21
1029.3952336548261
  0
LINE
  8
_2-d_ハッチ他
  6
CONTINUOUS
 62
    4
 10
975.39338753224786
 20
999.39523365482614
 11
1005.3933875322479
 21
1029.3952336548261
  0
LINE
  8
_2-d_ハッチ他
  6
CONTINUOUS
 62
    4
 10
938.54434424187605
 20
1019.1147328593786
 11
948.8248450373236
 21
1029.3952336548261
  0
LINE
  8
_2-d_ハッチ他
  6
CONTINUOUS
 62
    4
 10
938.54434424187605
 20
1005.09073224497
 11
944.23984283201764
 21
999.39523365482842
  0
LINE
  8
_2-d_ハッチ他
  6
CONTINUOUS
 62
    4
 10
970.8083853269419
 20
1029.3952336548284
 11
1000.8083853269442
 21
999.39523365482614
  0
LINE
  8
_2-d_ハッチ他
  6
CONTINUOUS
 62
    4
 10
999.09265657440176
 20
1029.3952336548261
 11
1029.0926565744016
 21
999.39523365482614
  0
LINE
  8
_2-d_ハッチ他
  6
CONTINUOUS
 62
    4
 10
1055.6611990693259
 20
1029.3952336548261
 11
1085.6611990693259
 21
999.39523365482614
  0
LINE
  8
_2-d_ハッチ他
  6
CONTINUOUS
 62
    4
 10
1083.9454703167926
 20
1029.3952336548261
 11
1113.9454703167926
 21
999.39523365482614
  0
LINE
  8
_2-d_ハッチ他
  6
CONTINUOUS
 62
    4
 10
1112.2297415642502
 20
1029.3952336548261
 11
1142.2297415642502
 21
999.39523365482614
  0
LINE
  8
_2-d_ハッチ他
  6
CONTINUOUS
 62
    4
 10
1140.5140128117168
 20
1029.3952336548261
 11
1170.5140128117168
 21
999.39523365482614
  0
LINE
  8
_2-d_ハッチ他
  6
CONTINUOUS
 62
    4
 10
1168.7982840591744
 20
1029.3952336548261
 11
1198.7982840591744
 21
999.39523365482842
  0
LINE
  8
_2-d_ハッチ他
  6
CONTINUOUS
 62
    4
 10
1197.082555306632
 20
1029.3952336548261
 11
1227.082555306632
 21
999.39523365482614
  0
LINE
  8
_2-d_ハッチ他
  6
CONTINUOUS
 62
    4
 10
1225.3668265540987
 20
1029.3952336548284
 11
1255.3668265540987
 21
999.39523365482842
  0
LINE
  8
_2-d_ハッチ他
  6
CONTINUOUS
 62
    4
 10
1253.6510978015563
 20
1029.3952336548261
 11
1283.6510978015565
 21
999.39523365482614
  0
LINE
  8
_2-d_ハッチ他
  6
CONTINUOUS
 62
    4
 10
1281.9353690490232
 20
1029.3952336548284
 11
1311.9353690490232
 21
999.39523365482842
  0
LINE
  8
_2-d_ハッチ他
  6
CONTINUOUS
 62
    4
 10
1310.2196402964807
 20
1029.3952336548261
 11
1340.2196402964807
 21
999.39523365482614
  0
LINE
  8
_2-d_ハッチ他
  6
CONTINUOUS
 62
    4
 10
1338.5039115439474
 20
1029.3952336548284
 11
1368.5039115439474
 21
999.39523365482842
  0
LINE
  8
_2-3_
  6
CONTINUOUS
 62
    3
 10
938.54434424187605
 20
849.39523365482614
 11
938.54434424187605
 21
833.99047790342024
  0
ARC
  8
_2-3_
  6
CONTINUOUS
 62
    3
 10
918.54434424187605
 20
852.09771427454257
 40
26.979103191168559
 50
222.15648973860939
 51
317.84351026139052
  0
ARC
  8
_2-3_
  6
CONTINUOUS
 62
    3
 10
878.54434424187605
 20
852.09771427454257
 40
26.979103191168559
 50
222.15648973860954
 51
317.84351026139069
  0
LINE
  8
_2-3_
  6
CONTINUOUS
 62
    3
 10
858.54434424187605
 20
849.39523365482614
 11
858.54434424187605
 21
833.99047790342024
  0
ARC
  8
_2-4_out_line
  6
CONTINUOUS
 62
    2
 10
946.54434424187559
 20
1050.8952336548271
 40
3.0000000000000004
 50
180
 51
270
  0
LINE
  8
_2-4_out_line
  6
CONTINUOUS
 62
    2
 10
943.54434424187605
 20
1050.8952336548271
 11
943.54434424187605
 21
1174.5913860775329
  0
LINE
  8
_2-4_out_line
  6
CONTINUOUS
 62
    2
 10
945.54434424187423
 20
1178.0554876926715
 11
943.54434424187605
 21
1174.5913860775329
  0
LINE
  8
_2-4_out_line
  6
CONTINUOUS
 62
    2
 10
945.54434424187423
 20
1214.3952336548261
 11
945.54434424187423
 21
1178.0554876926715
  0
ARC
  8
_2-4_out_line
  6
CONTINUOUS
 62
    2
 10
964.50343092231026
 20
1255.3543203352626
 40
30.213532436238157
 50
210.77453260083368
 51
239.22546739916632
  0
LINE
  8
_2-4_out_line
  6
CONTINUOUS
 62
    2
 10
938.54434424187605
 20
1315.9091297555062
 11
938.54434424187605
 21
1239.8952336548257
  0
ARC
  8
_2-4_out_line
  6
CONTINUOUS
 62
    2
 10
918.54434424187605
 20
1297.8018933843839
 40
26.979103191168559
 50
42.156489738609473
 51
137.84351026139061
  0
ARC
  8
_2-4_out_line
  6
CONTINUOUS
 62
    2
 10
878.54434424187605
 20
1297.8018933843839
 40
26.979103191168559
 50
42.156489738609373
 51
137.84351026139052
  0
LINE
  8
_2-4_out_line
  6
CONTINUOUS
 62
    2
 10
858.54434424187605
 20
1315.9091297555062
 11
858.54434424187605
 21
1239.8952336548257
  0
ARC
  8
_2-4_out_line
  6
CONTINUOUS
 62
    2
 10
832.58525756143956
 20
1255.3543203352626
 40
30.213532436238157
 50
300.77453260083365
 51
329.22546739916635
  0
LINE
  8
_2-4_out_line
  6
CONTINUOUS
 62
    2
 10
851.54434424187559
 20
1214.3952336548261
 11
851.54434424187559
 21
1178.0554876926715
  0
LINE
  8
_2-4_out_line
  6
CONTINUOUS
 62
    2
 10
851.54434424187559
 20
1178.0554876926715
 11
853.54434424187605
 21
1174.5913860775329
  0
LINE
  8
_2-4_out_line
  6
CONTINUOUS
 62
    2
 10
853.54434424187605
 20
1050.8952336548271
 11
853.54434424187605
 21
1174.5913860775329
  0
ARC
  8
_2-4_out_line
  6
CONTINUOUS
 62
    2
 10
850.54434424187423
 20
1050.8952336548271
 40
3.0000000000000004
 50
270
 51
0
  0
LINE
  8
_2-6_鋼板__アングル
  6
CONTINUOUS
 62
    2
 10
940.54434424187423
 20
1042.8952336548252
 11
940.54434424187423
 21
1041.6952336548263
  0
LINE
  8
_2-6_鋼板__アングル
  6
CONTINUOUS
 62
    2
 10
856.54434424187559
 20
1042.8952336548252
 11
856.54434424187559
 21
1041.6952336548263
  0
LINE
  8
_2-6_鋼板__アングル
  6
CONTINUOUS
 62
    2
 10
988.54434424187605
 20
1042.8952336548252
 11
988.54434424187605
 21
1041.6952336548263
  0
LINE
  8
_2-6_鋼板__アングル
  6
CONTINUOUS
 62
    2
 10
970.09357071980151
 20
1042.8952336548252
 11
966.59357071980014
 21
1039.3952336548261
  0
LINE
  8
_2-6_鋼板__アングル
  6
CONTINUOUS
 62
    2
 10
957.09357071979969
 20
1042.8952336548252
 11
960.59357071980105
 21
1039.3952336548261
  0
LINE
  8
_2-6_鋼板__アングル
  6
CONTINUOUS
 62
    2
 10
968.89357071980032
 20
1041.6952336548263
 11
958.29357071980087
 21
1041.6952336548263
  0
LINE
  8
_2-6_鋼板__アングル
  6
CONTINUOUS
 62
    2
 10
970.59062699464778
 20
1041.6952336548263
 11
968.2906269946476
 21
1039.3952336548261
  0
LINE
  8
_2-6_鋼板__アングル
  6
CONTINUOUS
 62
    2
 10
956.59651444495341
 20
1041.6952336548263
 11
958.8965144449536
 21
1039.3952336548261
  0
LINE
  8
_2-6_鋼板__アングル
  6
CONTINUOUS
 62
    2
 10
968.2906269946476
 20
1039.3952336548261
 11
958.8965144449536
 21
1039.3952336548261
  0
LINE
  8
_2-6_鋼板__アングル
  6
CONTINUOUS
 62
    2
 10
978.5935707198006
 20
1042.8952336548252
 11
946.59357071980014
 21
1042.8952336548252
  0
LINE
  8
_2-6_鋼板__アングル
  6
CONTINUOUS
 62
    2
 10
956.59651444495341
 20
1041.6952336548263
 11
946.78830391200211
 21
1041.6952336548263
  0
LINE
  8
_2-7_ビス
  6
CONTINUOUS
 62
    7
 10
961.46856989500168
 20
1039.3952336548261
 11
965.71857154459951
 21
1039.3952336548261
  0
LINE
  8
_2-7_ビス
  6
CONTINUOUS
 62
    7
 10
968.59357484379746
 20
1042.2702369540241
 11
965.71857154459951
 21
1039.3952336548261
  0
LINE
  8
_2-7_ビス
  6
CONTINUOUS
 62
    7
 10
958.59356659580374
 20
1042.2702369540241
 11
968.59357484379746
 21
1042.2702369540241
  0
LINE
  8
_2-7_ビス
  6
CONTINUOUS
 62
    7
 10
968.59357484379746
 20
1042.7702633476054
 11
968.59357484379746
 21
1042.2702369540241
  0
LINE
  8
_2-7_ビス
  6
CONTINUOUS
 62
    7
 10
958.59356659580374
 20
1042.2702369540241
 11
958.59356659580374
 21
1042.7702633476054
  0
LINE
  8
_2-7_ビス
  6
CONTINUOUS
 62
    7
 10
958.59356659580374
 20
1042.7702633476054
 11
968.59357484379746
 21
1042.7702633476054
  0
LINE
  8
_2-7_ビス
  6
CONTINUOUS
 62
    7
 10
958.59356659580374
 20
1042.2702369540241
 11
961.46856989500168
 21
1039.3952336548261
  0
ARC
  8
_2-7_ビス
  6
DASHED3
 62
    7
 10
963.5935707198006
 20
1041.5057963659763
 40
1.8403175392666382
 50
217.11752319335937
 51
322.88249206542969
  0
LINE
  8
_2-7_ビス
  6
DASHED3
 62
    7
 10
961.04355488365275
 20
1042.2702369540241
 11
962.12607936369852
 21
1040.3952122100429
  0
LINE
  8
_2-7_ビス
  6
DASHED3
 62
    7
 10
966.14354943997444
 20
1042.2702369540241
 11
965.06102495992866
 21
1040.3952122100429
  0
LINE
  8
_2-7_ビス
  6
DASHED3
 62
    7
 10
966.14354943997444
 20
1042.2702369540241
 11
966.14354943997444
 21
1042.7702633476054
  0
LINE
  8
_2-7_ビス
  6
DASHED3
 62
    7
 10
961.04355488365275
 20
1042.2702369540241
 11
961.04355488365275
 21
1042.7702633476054
  0
LINE
  8
_2-6_鋼板__アングル
  6
CONTINUOUS
 62
    2
 10
988.54434424187605
 20
1041.6952336548263
 11
970.59062699464778
 21
1041.6952336548263
  0
LINE
  8
_2-7_ビス
  6
CONTINUOUS
 62
    7
 10
965.59357071980105
 20
1039.3952336548261
 11
965.59357071980105
 21
999.39523365482614
  0
LINE
  8
_2-7_ビス
  6
CONTINUOUS
 62
    7
 10
961.59357071980014
 20
1039.3952336548261
 11
961.59357071980014
 21
999.39523365482614
  0
LINE
  8
_2-4_out_line
  6
CONTINUOUS
 62
    2
 10
1041.5443442418732
 20
1039.3952336548261
 11
1041.5443442418732
 21
1044.3952336548261
  0
LINE
  8
_2-4_out_line
  6
CONTINUOUS
 62
    2
 10
1041.5443442418732
 20
1044.3952336548261
 11
999.8557325427156
 21
1044.3952336548261
  0
LINE
  8
_2-4_out_line
  6
CONTINUOUS
 62
    2
 10
989.35573254271605
 20
1047.8952336548252
 11
999.8557325427156
 21
1044.3952336548261
  0
LINE
  8
_2-4_out_line
  6
CONTINUOUS
 62
    2
 10
946.54434424187559
 20
1047.8952336548252
 11
989.35573254271605
 21
1047.8952336548252
  0
LINE
  8
_2-6_鋼板__アングル
  6
CONTINUOUS
 62
    2
 10
940.54434424187423
 20
1042.8952336548252
 11
988.54434424187605
 21
1042.8952336548252
  0
LINE
  8
_2-6_鋼板__アングル
  6
CONTINUOUS
 62
    2
 10
940.54434424187423
 20
1041.6952336548263
 11
956.59651444495341
 21
1041.6952336548263
  0
LINE
  8
_2-6_鋼板__アングル
  6
CONTINUOUS
 62
    2
 10
808.54434424187605
 20
1042.8952336548252
 11
808.54434424187605
 21
1041.6952336548263
  0
LINE
  8
_2-6_鋼板__アングル
  6
CONTINUOUS
 62
    2
 10
826.99511776394831
 20
1042.8952336548252
 11
830.49511776394968
 21
1039.3952336548261
  0
LINE
  8
_2-6_鋼板__アングル
  6
CONTINUOUS
 62
    2
 10
839.99511776395013
 20
1042.8952336548252
 11
836.49511776394877
 21
1039.3952336548261
  0
LINE
  8
_2-6_鋼板__アングル
  6
CONTINUOUS
 62
    2
 10
828.1951177639495
 20
1041.6952336548263
 11
838.79511776394895
 21
1041.6952336548263
  0
LINE
  8
_2-6_鋼板__アングル
  6
CONTINUOUS
 62
    2
 10
826.49806148910204
 20
1041.6952336548263
 11
828.79806148910222
 21
1039.3952336548261
  0
LINE
  8
_2-6_鋼板__アングル
  6
CONTINUOUS
 62
    2
 10
840.49217403879641
 20
1041.6952336548263
 11
838.19217403879622
 21
1039.3952336548261
  0
LINE
  8
_2-6_鋼板__アングル
  6
CONTINUOUS
 62
    2
 10
828.79806148910222
 20
1039.3952336548261
 11
838.19217403879622
 21
1039.3952336548261
  0
LINE
  8
_2-6_鋼板__アングル
  6
CONTINUOUS
 62
    2
 10
818.49511776394922
 20
1042.8952336548252
 11
850.49511776394968
 21
1042.8952336548252
  0
LINE
  8
_2-6_鋼板__アングル
  6
CONTINUOUS
 62
    2
 10
840.49217403879641
 20
1041.6952336548263
 11
850.30038457174771
 21
1041.6952336548263
  0
LINE
  8
_2-7_ビス
  6
CONTINUOUS
 62
    7
 10
835.62011858874814
 20
1039.3952336548261
 11
831.37011693915031
 21
1039.3952336548261
  0
LINE
  8
_2-7_ビス
  6
CONTINUOUS
 62
    7
 10
828.49511363995236
 20
1042.2702369540241
 11
831.37011693915031
 21
1039.3952336548261
  0
LINE
  8
_2-7_ビス
  6
CONTINUOUS
 62
    7
 10
838.49512188794608
 20
1042.2702369540241
 11
828.49511363995236
 21
1042.2702369540241
  0
LINE
  8
_2-7_ビス
  6
CONTINUOUS
 62
    7
 10
828.49511363995236
 20
1042.7702633476054
 11
828.49511363995236
 21
1042.2702369540241
  0
LINE
  8
_2-7_ビス
  6
CONTINUOUS
 62
    7
 10
838.49512188794608
 20
1042.2702369540241
 11
838.49512188794608
 21
1042.7702633476054
  0
LINE
  8
_2-7_ビス
  6
CONTINUOUS
 62
    7
 10
838.49512188794608
 20
1042.7702633476054
 11
828.49511363995236
 21
1042.7702633476054
  0
LINE
  8
_2-7_ビス
  6
CONTINUOUS
 62
    7
 10
838.49512188794608
 20
1042.2702369540241
 11
835.62011858874814
 21
1039.3952336548261
  0
ARC
  8
_2-7_ビス
  6
DASHED3
 62
    7
 10
833.49511776394922
 20
1041.5057963659763
 40
1.8403175392666382
 50
217.11750793457028
 51
322.88247680664062
  0
LINE
  8
_2-7_ビス
  6
DASHED3
 62
    7
 10
836.04513360009935
 20
1042.2702369540241
 11
834.9626091200513
 21
1040.3952122100429
  0
LINE
  8
_2-7_ビス
  6
DASHED3
 62
    7
 10
830.94513904377311
 20
1042.2702369540241
 11
832.02766352382116
 21
1040.3952122100429
  0
LINE
  8
_2-7_ビス
  6
DASHED3
 62
    7
 10
830.94513904377311
 20
1042.2702369540241
 11
830.94513904377311
 21
1042.7702633476054
  0
LINE
  8
_2-7_ビス
  6
DASHED3
 62
    7
 10
836.04513360009935
 20
1042.2702369540241
 11
836.04513360009935
 21
1042.7702633476054
  0
LINE
  8
_2-6_鋼板__アングル
  6
CONTINUOUS
 62
    2
 10
808.54434424187605
 20
1041.6952336548263
 11
826.49806148910204
 21
1041.6952336548263
  0
LINE
  8
_2-7_ビス
  6
CONTINUOUS
 62
    7
 10
831.49511776394877
 20
1039.3952336548261
 11
831.49511776394877
 21
999.39523365482614
  0
LINE
  8
_2-7_ビス
  6
CONTINUOUS
 62
    7
 10
835.49511776394968
 20
1039.3952336548261
 11
835.49511776394968
 21
999.39523365482614
  0
LINE
  8
_2-4_out_line
  6
CONTINUOUS
 62
    2
 10
850.54434424187423
 20
1047.8952336548252
 11
807.73295594103377
 21
1047.8952336548252
  0
LINE
  8
_2-4_out_line
  6
CONTINUOUS
 62
    2
 10
807.73295594103377
 20
1047.8952336548252
 11
797.23295594103422
 21
1044.3952336548261
  0
LINE
  8
_2-4_out_line
  6
CONTINUOUS
 62
    2
 10
755.5443442418765
 20
1044.3952336548261
 11
797.23295594103422
 21
1044.3952336548261
  0
LINE
  8
_2-4_out_line
  6
CONTINUOUS
 62
    2
 10
755.5443442418765
 20
1039.3952336548261
 11
755.5443442418765
 21
1044.3952336548261
  0
LINE
  8
_2-6_鋼板__アングル
  6
CONTINUOUS
 62
    2
 10
856.54434424187559
 20
1042.8952336548252
 11
808.54434424187605
 21
1042.8952336548252
  0
LINE
  8
_2-6_鋼板__アングル
  6
CONTINUOUS
 62
    2
 10
856.54434424187559
 20
1041.6952336548263
 11
840.49217403879641
 21
1041.6952336548263
  0
ARC
  8
_2-d_ハッチ他
  6
CONTINUOUS
 62
    4
 10
747.79067117857142
 20
1032.853566992693
 40
1.2083333333333581
 50
307.52351319535012
 51
232.47648679666085
  0
ARC
  8
_2-d_ハッチ他
  6
CONTINUOUS
 62
    4
 10
746.31871103409696
 20
1030.9369003260952
 40
1.2083333333333179
 50
127.52351319811918
 51
52.476486793893116
  0
ARC
  8
_2-d_ハッチ他
  6
CONTINUOUS
 62
    4
 10
750.73459146725656
 20
1032.853566992693
 40
1.2083333333333581
 50
307.52351319535012
 51
232.47648679666085
  0
ARC
  8
_2-d_ハッチ他
  6
CONTINUOUS
 62
    4
 10
749.26263132277984
 20
1030.9369003260952
 40
1.2083333333333179
 50
127.52351319811918
 51
52.476486793893116
  0
LINE
  8
_2-d_ハッチ他
  6
CONTINUOUS
 62
    4
 10
744.53421534724714
 20
1029.3952336548261
 11
774.53421534724487
 21
999.39523365482842
  0
LINE
  8
_2-d_ハッチ他
  6
CONTINUOUS
 62
    4
 10
720.83494630509324
 20
999.39523365482614
 11
750.83494630509324
 21
1029.3952336548261
  0
LINE
  8
_2-d_ハッチ他
  6
CONTINUOUS
 62
    4
 10
749.11921755255992
 20
999.39523365482614
 11
779.11921755255992
 21
1029.3952336548261
  0
ARC
  8
_2-d_ハッチ他
  6
CONTINUOUS
 62
    4
 10
831.69239940591171
 20
1030.9369003262998
 40
1.2083333333333179
 50
127.52351319811918
 51
260.60339139455675
  0
ARC
  8
_2-d_ハッチ他
  6
CONTINUOUS
 62
    4
 10
836.10827983907132
 20
1032.8535669928999
 40
1.2083333333333581
 50
307.52351319535012
 51
120.49375699388224
  0
ARC
  8
_2-d_ハッチ他
  6
CONTINUOUS
 62
    4
 10
960.9804086446785
 20
1032.8535669928999
 40
1.2083333333333581
 50
59.506243006117764
 51
232.47648680464988
  0
LINE
  8
_2-d_ハッチ他
  6
CONTINUOUS
 62
    4
 10
1031.961930027172
 20
999.39523365482614
 11
1061.961930027172
 21
1029.3952336548261
  0
LINE
  8
_2-d_ハッチ他
  6
CONTINUOUS
 62
    4
 10
1027.376927821866
 20
1029.3952336548284
 11
1057.3769278218683
 21
999.39523365482614
  0
ARC
  8
_2-d_ハッチ他
  6
CONTINUOUS
 62
    4
 10
1046.3540970164954
 20
1032.8535669939254
 40
1.2083333333333581
 50
307.52351320333912
 51
232.47648680464988
  0
ARC
  8
_2-d_ハッチ他
  6
CONTINUOUS
 62
    4
 10
1047.8260571609721
 20
1030.9369003273252
 40
1.2083333333333179
 50
127.52351320610693
 51
52.47648680188081
  0
ARC
  8
_2-d_ハッチ他
  6
CONTINUOUS
 62
    4
 10
1049.2980173051783
 20
1032.8535669939254
 40
1.2083333333333581
 50
307.52351320333912
 51
232.47648680464988
  0
ARC
  8
_2-d_ハッチ他
  6
CONTINUOUS
 62
    4
 10
1050.769977449655
 20
1030.9369003273252
 40
1.2083333333333179
 50
127.52351320610693
 51
52.47648680188081
  0
LINE
  8
_2-d_ハッチ他
  6
CONTINUOUS
 62
    4
 10
1371.3731849967178
 20
999.39523365482614
 11
1401.3731849967178
 21
1029.3952336548261
  0
LINE
  8
_2-d_ハッチ他
  6
CONTINUOUS
 62
    4
 10
1366.788182791405
 20
1029.3952336548261
 11
1396.788182791405
 21
999.39523365482614
  0
LINE
  8
_2-e_con他
  6
CONTINUOUS
 62
    4
 10
1262.122272437749
 20
849.39523365482614
 11
1412.1222724377492
 21
999.39523365482614
  0
LINE
  8
_2-e_con他
  6
CONTINUOUS
 62
    4
 10
1269.1933402496156
 20
849.39523365482614
 11
1419.1933402496159
 21
999.39523365482614
  0
LINE
  8
_2-e_con他
  6
CONTINUOUS
 62
    4
 10
1276.26440806148
 20
849.39523365482614
 11
1426.2644080614803
 21
999.39523365482614
  0
LINE
  8
_2-d_ハッチ他
  6
CONTINUOUS
 62
    4
 10
1399.6574562441822
 20
999.39523365482387
 11
1429.6574562441845
 21
1029.3952336548261
  0
LINE
  8
_2-d_ハッチ他
  6
CONTINUOUS
 62
    4
 10
1395.0724540388717
 20
1029.3952336548284
 11
1425.0724540388694
 21
999.39523365482842
  0
ARC
  8
_2-d_ハッチ他
  6
CONTINUOUS
 62
    4
 10
1390.7927707924489
 20
1032.8535669939254
 40
1.2083333333333581
 50
307.52351320333912
 51
232.47648680464988
  0
ARC
  8
_2-d_ハッチ他
  6
CONTINUOUS
 62
    4
 10
1392.2647309369233
 20
1030.9369003273252
 40
1.2083333333333179
 50
127.52351320610693
 51
52.47648680188081
  0
ARC
  8
_2-d_ハッチ他
  6
CONTINUOUS
 62
    4
 10
1387.8488505037637
 20
1032.8535669937207
 40
1.2083333333333581
 50
307.52351320333912
 51
232.47648680464988
  0
ARC
  8
_2-d_ハッチ他
  6
CONTINUOUS
 62
    4
 10
1389.3208106482405
 20
1030.9369003271206
 40
1.2083333333333179
 50
127.52351320610693
 51
52.47648680188081
  0
ARC
  8
_2-d_ハッチ他
  6
CONTINUOUS
 62
    4
 10
1395.2086512256062
 20
1030.9369003269137
 40
1.2083333333333179
 50
127.52351320610693
 51
52.47648680188081
  0
ARC
  8
_2-d_ハッチ他
  6
CONTINUOUS
 62
    4
 10
1393.7366910811318
 20
1032.8535669935138
 40
1.2083333333333581
 50
307.52351320333912
 51
232.47648680464988
  0
ARC
  8
_2-d_ハッチ他
  6
CONTINUOUS
 62
    4
 10
1411.4002128132313
 20
1032.8535669933092
 40
1.2083333333333581
 50
307.52351320333912
 51
232.47648680464988
  0
ARC
  8
_2-d_ハッチ他
  6
CONTINUOUS
 62
    4
 10
1408.4562925245484
 20
1032.8535669931046
 40
1.2083333333333581
 50
307.52351320333912
 51
232.47648680464988
  0
ARC
  8
_2-d_ハッチ他
  6
CONTINUOUS
 62
    4
 10
1409.9282526690229
 20
1030.9369003265044
 40
1.2083333333333179
 50
127.52351320610693
 51
52.47648680188081
  0
ARC
  8
_2-d_ハッチ他
  6
CONTINUOUS
 62
    4
 10
1405.5123722358655
 20
1032.8535669928999
 40
1.2083333333333581
 50
307.52351320333912
 51
232.47648680464988
  0
ARC
  8
_2-d_ハッチ他
  6
CONTINUOUS
 62
    4
 10
1406.98433238034
 20
1030.9369003262998
 40
1.2083333333333179
 50
127.52351320610693
 51
52.47648680188081
  0
ARC
  8
_2-d_ハッチ他
  6
CONTINUOUS
 62
    4
 10
1399.6245316584975
 20
1032.8535669924884
 40
1.2083333333333581
 50
307.52351320333912
 51
232.47648680464988
  0
ARC
  8
_2-d_ハッチ他
  6
CONTINUOUS
 62
    4
 10
1402.5684519471827
 20
1032.853566992693
 40
1.2083333333333581
 50
307.52351320333912
 51
232.47648680464988
  0
ARC
  8
_2-d_ハッチ他
  6
CONTINUOUS
 62
    4
 10
1401.0964918029742
 20
1030.9369003258882
 40
1.2083333333333179
 50
127.52351320610693
 51
52.47648680188081
  0
ARC
  8
_2-d_ハッチ他
  6
CONTINUOUS
 62
    4
 10
1404.0404120916571
 20
1030.9369003260952
 40
1.2083333333333179
 50
127.52351320610693
 51
52.47648680188081
  0
ARC
  8
_2-d_ハッチ他
  6
CONTINUOUS
 62
    4
 10
1398.1525715142914
 20
1030.9369003256836
 40
1.2083333333333179
 50
127.52351320610693
 51
52.47648680188081
  0
ARC
  8
_2-d_ハッチ他
  6
CONTINUOUS
 62
    4
 10
1396.6806113698146
 20
1032.8535669922837
 40
1.2083333333333581
 50
307.52351320333912
 51
232.47648680464988
  0
ARC
  8
_2-d_ハッチ他
  6
CONTINUOUS
 62
    4
 10
1417.2880533905993
 20
1032.8535669939254
 40
1.2083333333333581
 50
307.52351320333912
 51
232.47648680464988
  0
ARC
  8
_2-d_ハッチ他
  6
CONTINUOUS
 62
    4
 10
1418.7600135350738
 20
1030.9369003273252
 40
1.2083333333333179
 50
127.52351320610693
 51
52.47648680188081
  0
ARC
  8
_2-d_ハッチ他
  6
CONTINUOUS
 62
    4
 10
1414.3441331019142
 20
1032.8535669937207
 40
1.2083333333333581
 50
307.52351320333912
 51
232.47648680464988
  0
ARC
  8
_2-d_ハッチ他
  6
CONTINUOUS
 62
    4
 10
1415.8160932463909
 20
1030.9369003271206
 40
1.2083333333333179
 50
127.52351320610693
 51
52.47648680188081
  0
ARC
  8
_2-d_ハッチ他
  6
CONTINUOUS
 62
    4
 10
1412.872172957708
 20
1030.9369003269137
 40
1.2083333333333179
 50
127.52351320610693
 51
52.47648680188081
  0
ARC
  8
_2-d_ハッチ他
  6
CONTINUOUS
 62
    4
 10
1421.7039338237566
 20
1030.9369003269137
 40
1.2083333333333179
 50
127.52351320610693
 51
52.47648680188081
  0
ARC
  8
_2-d_ハッチ他
  6
CONTINUOUS
 62
    4
 10
1420.2319736792822
 20
1032.8535669935138
 40
1.2083333333333581
 50
307.52351320333912
 51
232.47648680464988
  0
ARC
  8
_2-d_ハッチ他
  6
CONTINUOUS
 62
    4
 10
1434.9515751226988
 20
1032.8535669931046
 40
1.2083333333333581
 50
307.52351320333912
 51
232.47648680464988
  0
ARC
  8
_2-d_ハッチ他
  6
CONTINUOUS
 62
    4
 10
1436.4235352671733
 20
1030.9369003265044
 40
1.2083333333333179
 50
127.52351320610693
 51
52.47648680188081
  0
ARC
  8
_2-d_ハッチ他
  6
CONTINUOUS
 62
    4
 10
1432.007654834016
 20
1032.8535669928999
 40
1.2083333333333581
 50
307.52351320333912
 51
232.47648680464988
  0
ARC
  8
_2-d_ハッチ他
  6
CONTINUOUS
 62
    4
 10
1433.4796149784904
 20
1030.9369003262998
 40
1.2083333333333179
 50
127.52351320610693
 51
52.47648680188081
  0
ARC
  8
_2-d_ハッチ他
  6
CONTINUOUS
 62
    4
 10
1426.1198142566479
 20
1032.8535669924884
 40
1.2083333333333581
 50
307.52351320333912
 51
232.47648680464988
  0
ARC
  8
_2-d_ハッチ他
  6
CONTINUOUS
 62
    4
 10
1429.0637345453331
 20
1032.853566992693
 40
1.2083333333333581
 50
307.52351320333912
 51
232.47648680464988
  0
ARC
  8
_2-d_ハッチ他
  6
CONTINUOUS
 62
    4
 10
1427.5917744011247
 20
1030.9369003258882
 40
1.2083333333333179
 50
127.52351320610693
 51
52.47648680188081
  0
ARC
  8
_2-d_ハッチ他
  6
CONTINUOUS
 62
    4
 10
1430.5356946898075
 20
1030.9369003260952
 40
1.2083333333333179
 50
127.52351320610693
 51
52.47648680188081
  0
ARC
  8
_2-d_ハッチ他
  6
CONTINUOUS
 62
    4
 10
1424.6478541124418
 20
1030.9369003256836
 40
1.2083333333333179
 50
127.52351320610693
 51
52.47648680188081
  0
ARC
  8
_2-d_ハッチ他
  6
CONTINUOUS
 62
    4
 10
1423.1758939679651
 20
1032.8535669922837
 40
1.2083333333333581
 50
307.52351320333912
 51
232.47648680464988
  0
TEXT
  8
_2-a_moji
 62
    7
 10
1005.305408632588
 20
1156.2233988987293
 40
15
 41
1
 50
0
  1
塩ビシート 接着工法
  0
LINE
  8
_2-4_out_line
  6
CONTINUOUS
 62
    2
 10
708.30625177879358
 20
1039.3952336548261
 11
755.5443442418765
 21
1039.3952336548261
  0
LINE
  8
_2-3_
  6
CONTINUOUS
 62
    3
 10
708.30625177879358
 20
849.39523365482614
 11
858.54434424187605
 21
849.39523365482614
  0
LINE
  8
_2-d_ハッチ他
  6
CONTINUOUS
 62
    4
 10
708.30625177879358
 20
1015.1508103759841
 11
722.55067505763566
 21
1029.3952336548261
  0
LINE
  8
_2-e_con他
  6
CONTINUOUS
 62
    4
 10
708.30625177879358
 20
981.21120991938938
 11
726.49027551423262
 21
999.39523365482614
  0
LINE
  8
_2-e_con他
  6
CONTINUOUS
 62
    4
 10
708.30625177879358
 20
967.06907429565831
 11
740.63241113796141
 21
999.39523365482614
  0
LINE
  8
_2-e_con他
  6
CONTINUOUS
 62
    4
 10
708.30625177879358
 20
974.14014210752271
 11
733.56134332609702
 21
999.39523365482614
  0
LINE
  8
_2-d_ハッチ他
  6
CONTINUOUS
 62
    4
 10
708.30625177879358
 20
1009.0546547283577
 11
717.96567285232061
 21
999.39523365482842
  0
LINE
  8
_2-3_
  6
CONTINUOUS
 62
    3
 10
1458.3062517787937
 20
849.39523365482614
 11
938.54434424187605
 21
849.39523365482614
  0
LINE
  8
_2-4_out_line
  6
CONTINUOUS
 62
    2
 10
1458.3062517787937
 20
1039.3952336548261
 11
1041.5443442418732
 21
1039.3952336548261
  0
LINE
  8
_2-d_ハッチ他
  6
CONTINUOUS
 62
    4
 10
1427.941727491642
 20
999.39523365482614
 11
1457.941727491642
 21
1029.3952336548261
  0
LINE
  8
_2-d_ハッチ他
  6
CONTINUOUS
 62
    4
 10
1423.3567252863293
 20
1029.3952336548261
 11
1453.3567252863293
 21
999.39523365482614
  0
LINE
  8
_2-d_ハッチ他
  6
CONTINUOUS
 62
    4
 10
1456.2259987390996
 20
999.39523365482614
 11
1458.3062517787937
 21
1001.4754866945225
  0
LINE
  8
_2-d_ハッチ他
  6
CONTINUOUS
 62
    4
 10
1451.6409965337868
 20
1029.3952336548261
 11
1458.3062517787937
 21
1022.7299784098193
  0
ARC
  8
_2-d_ハッチ他
  6
CONTINUOUS
 62
    4
 10
1449.6711765661155
 20
1032.8535669933092
 40
1.2083333333333581
 50
307.52351320333912
 51
232.47648680464988
  0
ARC
  8
_2-d_ハッチ他
  6
CONTINUOUS
 62
    4
 10
1446.7272562774303
 20
1032.8535669931046
 40
1.2083333333333581
 50
307.52351320333912
 51
232.47648680464988
  0
ARC
  8
_2-d_ハッチ他
  6
CONTINUOUS
 62
    4
 10
1448.1992164219071
 20
1030.9369003265044
 40
1.2083333333333179
 50
127.52351320610693
 51
52.47648680188081
  0
ARC
  8
_2-d_ハッチ他
  6
CONTINUOUS
 62
    4
 10
1443.7833359887497
 20
1032.8535669928999
 40
1.2083333333333581
 50
307.52351320333912
 51
232.47648680464988
  0
ARC
  8
_2-d_ハッチ他
  6
CONTINUOUS
 62
    4
 10
1445.2552961332242
 20
1030.9369003262998
 40
1.2083333333333179
 50
127.52351320610693
 51
52.47648680188081
  0
ARC
  8
_2-d_ハッチ他
  6
CONTINUOUS
 62
    4
 10
1437.8954954113817
 20
1032.8535669924884
 40
1.2083333333333581
 50
307.52351320333912
 51
232.47648680464988
  0
ARC
  8
_2-d_ハッチ他
  6
CONTINUOUS
 62
    4
 10
1440.8394157000646
 20
1032.853566992693
 40
1.2083333333333581
 50
307.52351320333912
 51
232.47648680464988
  0
ARC
  8
_2-d_ハッチ他
  6
CONTINUOUS
 62
    4
 10
1439.3674555558562
 20
1030.9369003258882
 40
1.2083333333333179
 50
127.52351320610693
 51
52.47648680188081
  0
ARC
  8
_2-d_ハッチ他
  6
CONTINUOUS
 62
    4
 10
1442.3113758445413
 20
1030.9369003260952
 40
1.2083333333333179
 50
127.52351320610693
 51
52.47648680188081
  0
ARC
  8
_2-d_ハッチ他
  6
CONTINUOUS
 62
    4
 10
1455.5590171434812
 20
1032.8535669939254
 40
1.2083333333333581
 50
307.52351320333912
 51
232.47648680464988
  0
ARC
  8
_2-d_ハッチ他
  6
CONTINUOUS
 62
    4
 10
1457.030977287958
 20
1030.9369003273252
 40
1.2083333333333179
 50
127.52351320610693
 51
52.47648680188081
  0
ARC
  8
_2-d_ハッチ他
  6
CONTINUOUS
 62
    4
 10
1452.6150968547984
 20
1032.8535669937207
 40
1.2083333333333581
 50
307.52351320333912
 51
232.47648680464988
  0
ARC
  8
_2-d_ハッチ他
  6
CONTINUOUS
 62
    4
 10
1454.0870569992728
 20
1030.9369003271206
 40
1.2083333333333179
 50
127.52351320610693
 51
52.47648680188081
  0
ARC
  8
_2-d_ハッチ他
  6
CONTINUOUS
 62
    4
 10
1451.1431367105922
 20
1030.9369003269137
 40
1.2083333333333179
 50
127.52351320610693
 51
52.47648680188081
  0
TEXT
  8
_2-a_moji
 62
    7
 10
1285.3266141165329
 20
1056.2233988987293
 40
15
 41
1
 50
0
  1
断熱材
  0
LINE
  8
_2-a_moji
  6
CONTINUOUS
 62
    7
 10
1275.3266141165327
 20
1138.7233988987293
 11
1245.0304145079972
 21
1138.7233988987293
  0
LINE
  8
_2-a_moji
  6
CONTINUOUS
 62
    7
 10
1275.3266141165327
 20
1163.7233988987293
 11
1251.7291443187751
 21
1163.7233988987293
  0
TEXT
  8
_2-a_moji
 62
    7
 10
1285.3266141165329
 20
1131.2233988987293
 40
15
 41
1
 50
0
  1
ラジアルシートＬ６００
  0
TEXT
  8
_2-a_moji
 62
    7
 10
1285.3266141165329
 20
1156.2233988987293
 40
15
 41
1
 50
0
  1
塩ビシート 機械的固定工法
  0
LINE
  8
_2-a_moji
  6
CONTINUOUS
 62
    7
 10
1275.3266141165327
 20
1063.7233988987293
 11
1224.9342250756613
 21
1063.7233988987293
  0
LINE
  8
_2-a_moji
  6
CONTINUOUS
 62
    7
 10
1212.0621450318558
 20
1015.6841421761544
 11
1251.7291443187751
 21
1163.7233988987293
  0
LINE
  8
_2-a_moji
  6
CONTINUOUS
 62
    7
 10
977.75177647990733
 20
1042.7630997139033
 11
1018.7207243160434
 21
1113.7233988987293
  0
TEXT
  8
_2-a_moji
 62
    7
 10
1100.7611816192716
 20
1081.2233988987293
 40
15
 41
1
 50
0
  1
プルーフシーラー
  0
LINE
  8
_2-a_moji
  6
CONTINUOUS
 62
    7
 10
1090.7611816192716
 20
1088.7233988987293
 11
1064.3778919928568
 21
1088.7233988987293
  0
LINE
  8
_2-a_moji
  6
CONTINUOUS
 62
    7
 10
1040.493222145818
 20
1047.3539372016523
 11
1064.3778919928568
 21
1088.7233988987293
  0
LINE
  8
_2-a_moji
  6
CONTINUOUS
 62
    7
 10
1050.9739233921105
 20
1113.7233988987293
 11
1018.7207243160434
 21
1113.7233988987293
  0
LINE
  8
_2-a_moji
  6
CONTINUOUS
 62
    7
 10
941.763000674399
 20
1103.6340902809172
 11
976.45557918031147
 21
1163.7233988987293
  0
LINE
  8
_2-a_moji
  6
CONTINUOUS
 62
    7
 10
995.30540863258796
 20
1163.7233988987293
 11
976.45557918031147
 21
1163.7233988987293
  0
POINT
  8
_2-b_dim
 62
    1
 10
1041.5443442418732
 20
952.3462018713883
  0
LINE
  8
_2-b_dim
  6
CONTINUOUS
 62
    7
 10
1041.5443442418732
 20
952.3462018713883
 11
1041.5443442418732
 21
992.99121623376891
  0
POINT
  8
_2-b_dim
 62
    1
 10
999.04434424187559
 20
952.3462018713883
  0
LINE
  8
_2-b_dim
  6
CONTINUOUS
 62
    7
 10
999.04434424187559
 20
952.3462018713883
 11
999.04434424187559
 21
992.99121623376891
  0
LINE
  8
_2-b_dim
  6
CONTINUOUS
 62
    7
 10
999.04434424187559
 20
952.3462018713883
 11
1041.5443442418732
 21
952.3462018713883
  0
LINE
  8
_2-a_moji
  6
CONTINUOUS
 62
    7
 10
1006.7732504870615
 20
920.80422679083426
 11
985.84128091019113
 21
920.80422679083426
  0
LINE
  8
_2-a_moji
  6
CONTINUOUS
 62
    7
 10
965.18830969918656
 20
956.57622225555201
 11
985.84128091019113
 21
920.80422679083426
  0
LINE
  8
_2-d_ハッチ他
  6
CONTINUOUS
 62
    4
 10
835.49511776394968
 20
1023.2871449805077
 11
858.54434424187605
 21
1000.2379185025814
  0
LINE
  8
_2-d_ハッチ他
  6
CONTINUOUS
 62
    4
 10
835.49511776394968
 20
1000.9183201238341
 11
858.54434424187605
 21
1023.9675466017604
  0
LINE
  8
_2-d_ハッチ他
  6
CONTINUOUS
 62
    4
 10
805.6877600474819
 20
999.39523365482387
 11
831.49511776394877
 21
1025.2025913712907
  0
LINE
  8
_2-d_ハッチ他
  6
CONTINUOUS
 62
    4
 10
947.10911628479028
 20
999.39523365482614
 11
961.59357071980014
 21
1013.879688089836
  0
LINE
  8
_2-d_ハッチ他
  6
CONTINUOUS
 62
    4
 10
965.59357071980105
 20
1017.8796880898369
 11
977.10911628479028
 21
1029.3952336548261
  0
LINE
  8
_2-d_ハッチ他
  6
CONTINUOUS
 62
    4
 10
942.5241140794775
 20
1029.3952336548261
 11
961.59357071980014
 21
1010.3257770145035
  0
LINE
  8
_2-d_ハッチ他
  6
CONTINUOUS
 62
    4
 10
965.59357071980105
 20
1006.3257770145049
 11
972.5241140794775
 21
999.39523365482614
  0
ARC
  8
_2-2_in_line
  6
CONTINUOUS
 62
    7
 10
946.54434424187559
 20
1050.8952336548271
 40
8
 50
180
 51
270
  0
ARC
  8
_2-2_in_line
  6
CONTINUOUS
 62
    7
 10
878.54434424187605
 20
1334.0163661266286
 40
26.979103191168559
 50
222.15648973860948
 51
317.84351026139063
  0
LINE
  8
_2-2_in_line
  6
CONTINUOUS
 62
    7
 10
940.54434424187423
 20
1179.3952336548261
 11
938.54434424187605
 21
1175.9311320396876
  0
LINE
  8
_2-2_in_line
  6
CONTINUOUS
 62
    7
 10
940.54434424187423
 20
1179.3952336548261
 11
938.54434424187605
 21
1179.3952336548261
  0
LINE
  8
_2-2_in_line
  6
CONTINUOUS
 62
    7
 10
940.54434424187423
 20
1229.3952336548261
 11
940.54434424187423
 21
1179.3952336548261
  0
LINE
  8
_2-2_in_line
  6
CONTINUOUS
 62
    7
 10
949.04434424187559
 20
1229.3952336548261
 11
938.54434424187605
 21
1229.3952336548261
  0
LINE
  8
_2-2_in_line
  6
CONTINUOUS
 62
    7
 10
945.54434424187423
 20
1214.3952336548261
 11
945.54434424187423
 21
1229.3952336548261
  0
ARC
  8
_2-2_in_line
  6
CONTINUOUS
 62
    7
 10
850.54434424187423
 20
1050.8952336548271
 40
8
 50
270
 51
0
  0
LINE
  8
_2-2_in_line
  6
CONTINUOUS
 62
    7
 10
856.54434424187559
 20
1179.3952336548261
 11
858.54434424187605
 21
1175.9311320396876
  0
LINE
  8
_2-2_in_line
  6
CONTINUOUS
 62
    7
 10
856.54434424187559
 20
1179.3952336548261
 11
858.54434424187605
 21
1179.3952336548261
  0
LINE
  8
_2-2_in_line
  6
CONTINUOUS
 62
    7
 10
856.54434424187559
 20
1229.3952336548261
 11
856.54434424187559
 21
1179.3952336548261
  0
LINE
  8
_2-2_in_line
  6
CONTINUOUS
 62
    7
 10
848.04434424187423
 20
1229.3952336548261
 11
858.54434424187605
 21
1229.3952336548261
  0
LINE
  8
_2-2_in_line
  6
CONTINUOUS
 62
    7
 10
851.54434424187559
 20
1214.3952336548261
 11
851.54434424187559
 21
1229.3952336548261
  0
ARC
  8
_2-2_in_line
  6
CONTINUOUS
 62
    7
 10
918.54434424187605
 20
815.88324153229792
 40
26.979103191168559
 50
42.156489738609473
 51
137.84351026139061
  0
LINE
  8
_2-2_in_line
  6
CONTINUOUS
 62
    7
 10
858.54434424187605
 20
1239.8952336548257
 11
858.54434424187605
 21
849.39523365482614
  0
LINE
  8
_2-2_in_line
  6
CONTINUOUS
 62
    7
 10
938.54434424187605
 20
1239.8952336548257
 11
938.54434424187605
 21
849.39523365482614
  0
LINE
  8
_2-2_in_line
  6
CONTINUOUS
 62
    7
 10
961.59357071980014
 20
1029.3952336548261
 11
938.54434424187605
 21
1029.3952336548261
  0
LINE
  8
_2-2_in_line
  6
CONTINUOUS
 62
    7
 10
1041.5443442418732
 20
1039.3952336548261
 11
938.5441539329928
 21
1039.3952336548261
  0
LINE
  8
_2-2_in_line
  6
CONTINUOUS
 62
    7
 10
1035.5472121749413
 20
1044.3952336548261
 11
1035.5654309624638
 21
1044.5261386015079
  0
LINE
  8
_2-2_in_line
  6
CONTINUOUS
 62
    7
 10
1035.5654309624638
 20
1044.5261386015079
 11
1035.5984977421244
 21
1044.7512125365267
  0
LINE
  8
_2-2_in_line
  6
CONTINUOUS
 62
    7
 10
1035.5984977421244
 20
1044.7512125365267
 11
1035.636161957992
 21
1044.9745524467846
  0
LINE
  8
_2-2_in_line
  6
CONTINUOUS
 62
    7
 10
1035.636161957992
 20
1044.9745524467846
 11
1035.681333379815
 21
1045.1950608482559
  0
LINE
  8
_2-2_in_line
  6
CONTINUOUS
 62
    7
 10
1035.681333379815
 20
1045.1950608482559
 11
1035.7369217773462
 21
1045.4116402569127
  0
LINE
  8
_2-2_in_line
  6
CONTINUOUS
 62
    7
 10
1035.7369217773462
 20
1045.4116402569127
 11
1035.8058369203341
 21
1045.6231931887316
  0
LINE
  8
_2-2_in_line
  6
CONTINUOUS
 62
    7
 10
1035.8058369203341
 20
1045.6231931887316
 11
1035.8530606186273
 21
1045.7431582917241
  0
LINE
  8
_2-2_in_line
  6
CONTINUOUS
 62
    7
 10
1035.8530606186273
 20
1045.7431582917241
 11
1035.8940016798906
 21
1045.8352751313157
  0
LINE
  8
_2-2_in_line
  6
CONTINUOUS
 62
    7
 10
1035.8940016798906
 20
1045.8352751313157
 11
1035.9724168525722
 21
1045.9909894343275
  0
LINE
  8
_2-2_in_line
  6
CONTINUOUS
 62
    7
 10
1035.9724168525722
 20
1045.9909894343275
 11
1036.0595238668984
 21
1046.1429930372094
  0
LINE
  8
_2-2_in_line
  6
CONTINUOUS
 62
    7
 10
1036.0595238668984
 20
1046.1429930372094
 11
1036.153908856048
 21
1046.2915455530094
  0
LINE
  8
_2-2_in_line
  6
CONTINUOUS
 62
    7
 10
1036.153908856048
 20
1046.2915455530094
 11
1036.2541579531908
 21
1046.4369065947824
  0
LINE
  8
_2-2_in_line
  6
CONTINUOUS
 62
    7
 10
1036.2541579531908
 20
1046.4369065947824
 11
1036.3588572915078
 21
1046.5793357755786
  0
LINE
  8
_2-2_in_line
  6
CONTINUOUS
 62
    7
 10
1036.3588572915078
 20
1046.5793357755786
 11
1036.4210648711864
 21
1046.6607036227822
  0
LINE
  8
_2-2_in_line
  6
CONTINUOUS
 62
    7
 10
1036.4210648711864
 20
1046.6607036227822
 11
1036.4952811451221
 21
1046.7553872155838
  0
LINE
  8
_2-2_in_line
  6
CONTINUOUS
 62
    7
 10
1036.4952811451221
 20
1046.7553872155838
 11
1036.6255060852254
 21
1046.9161060094473
  0
LINE
  8
_2-2_in_line
  6
CONTINUOUS
 62
    7
 10
1036.6255060852254
 20
1046.9161060094473
 11
1036.7583579044467
 21
1047.0739727718376
  0
LINE
  8
_2-2_in_line
  6
CONTINUOUS
 62
    7
 10
1036.7583579044467
 20
1047.0739727718376
 11
1036.8935560425743
 21
1047.2293932653031
  0
LINE
  8
_2-2_in_line
  6
CONTINUOUS
 62
    7
 10
1036.8935560425743
 20
1047.2293932653031
 11
1037.030819939399
 21
1047.3827732523898
  0
LINE
  8
_2-2_in_line
  6
CONTINUOUS
 62
    7
 10
1037.030819939399
 20
1047.3827732523898
 11
1037.1698690347066
 21
1047.5345184956461
  0
LINE
  8
_2-2_in_line
  6
CONTINUOUS
 62
    7
 10
1037.1698690347066
 20
1047.5345184956461
 11
1037.2512249326187
 21
1047.6219415886533
  0
LINE
  8
_2-2_in_line
  6
CONTINUOUS
 62
    7
 10
1037.2512249326187
 20
1047.6219415886533
 11
1037.3368600060335
 21
1047.713011763052
  0
LINE
  8
_2-2_in_line
  6
CONTINUOUS
 62
    7
 10
1037.3368600060335
 20
1047.713011763052
 11
1037.4860573643409
 21
1047.8687135118832
  0
LINE
  8
_2-2_in_line
  6
CONTINUOUS
 62
    7
 10
1037.4860573643409
 20
1047.8687135118832
 11
1037.6378075779107
 21
1048.0220594902846
  0
LINE
  8
_2-2_in_line
  6
CONTINUOUS
 62
    7
 10
1037.6378075779107
 20
1048.0220594902846
 11
1037.7927966574143
 21
1048.1722471292039
  0
LINE
  8
_2-2_in_line
  6
CONTINUOUS
 62
    7
 10
1037.7927966574143
 20
1048.1722471292039
 11
1037.9517106135208
 21
1048.3184738596003
  0
LINE
  8
_2-2_in_line
  6
CONTINUOUS
 62
    7
 10
1037.9517106135208
 20
1048.3184738596003
 11
1038.1152354569017
 21
1048.4599371124284
  0
LINE
  8
_2-2_in_line
  6
CONTINUOUS
 62
    7
 10
1038.1152354569017
 20
1048.4599371124284
 11
1038.2124628984898
 21
1048.5394869197091
  0
LINE
  8
_2-2_in_line
  6
CONTINUOUS
 62
    7
 10
1038.2124628984898
 20
1048.5394869197091
 11
1038.3001165980327
 21
1048.6082122722053
  0
LINE
  8
_2-2_in_line
  6
CONTINUOUS
 62
    7
 10
1038.3001165980327
 20
1048.6082122722053
 11
1038.4547296979517
 21
1048.7224250400061
  0
LINE
  8
_2-2_in_line
  6
CONTINUOUS
 62
    7
 10
1038.4547296979517
 20
1048.7224250400061
 11
1038.6136948411408
 21
1048.8303977289377
  0
LINE
  8
_2-2_in_line
  6
CONTINUOUS
 62
    7
 10
1038.6136948411408
 20
1048.8303977289377
 11
1038.7769414983686
 21
1048.9311729603639
  0
LINE
  8
_2-2_in_line
  6
CONTINUOUS
 62
    7
 10
1038.7769414983686
 20
1048.9311729603639
 11
1038.9443991403991
 21
1049.0237933556512
  0
LINE
  8
_2-2_in_line
  6
CONTINUOUS
 62
    7
 10
1038.9443991403991
 20
1049.0237933556512
 11
1039.1159972380033
 21
1049.107301536161
  0
LINE
  8
_2-2_in_line
  6
CONTINUOUS
 62
    7
 10
1039.1159972380033
 20
1049.107301536161
 11
1039.2173934991715
 21
1049.1511838070812
  0
LINE
  8
_2-2_in_line
  6
CONTINUOUS
 62
    7
 10
1039.2173934991715
 20
1049.1511838070812
 11
1039.3312989919114
 21
1049.1957125203464
  0
LINE
  8
_2-2_in_line
  6
CONTINUOUS
 62
    7
 10
1039.3312989919114
 20
1049.1957125203464
 11
1039.5311874497665
 21
1049.263023148759
  0
LINE
  8
_2-2_in_line
  6
CONTINUOUS
 62
    7
 10
1039.5311874497665
 20
1049.263023148759
 11
1039.734889548623
 21
1049.3196267002565
  0
LINE
  8
_2-2_in_line
  6
CONTINUOUS
 62
    7
 10
1039.734889548623
 20
1049.3196267002565
 11
1039.9416886254321
 21
1049.3670015739883
  0
LINE
  8
_2-2_in_line
  6
CONTINUOUS
 62
    7
 10
1039.9416886254321
 20
1049.3670015739883
 11
1040.150868017141
 21
1049.4066261690966
  0
LINE
  8
_2-2_in_line
  6
CONTINUOUS
 62
    7
 10
1040.150868017141
 20
1049.4066261690966
 11
1040.3617110606965
 21
1049.4399788847329
  0
LINE
  8
_2-2_in_line
  6
CONTINUOUS
 62
    7
 10
1040.3617110606965
 20
1049.4399788847329
 11
1040.4844799087286
 21
1049.4570322507673
  0
LINE
  8
_2-2_in_line
  6
CONTINUOUS
 62
    7
 10
1040.4844799087286
 20
1049.4570322507673
 11
1040.6329368788111
 21
1049.4757492500355
  0
LINE
  8
_2-2_in_line
  6
CONTINUOUS
 62
    7
 10
1040.6329368788111
 20
1049.4757492500355
 11
1040.8892571440956
 21
1049.5026560111239
  0
LINE
  8
_2-2_in_line
  6
CONTINUOUS
 62
    7
 10
1040.8892571440956
 20
1049.5026560111239
 11
1041.1456524726768
 21
1049.5215142584232
  0
LINE
  8
_2-2_in_line
  6
CONTINUOUS
 62
    7
 10
1041.1456524726768
 20
1049.5215142584232
 11
1041.4016803093077
 21
1049.5308603496107
  0
LINE
  8
_2-2_in_line
  6
CONTINUOUS
 62
    7
 10
1041.4016803093077
 20
1049.5308603496107
 11
1041.6568980987413
 21
1049.5292306423619
  0
LINE
  8
_2-2_in_line
  6
CONTINUOUS
 62
    7
 10
1041.6568980987413
 20
1049.5292306423619
 11
1041.9108632857328
 21
1049.5151614943609
  0
LINE
  8
_2-2_in_line
  6
CONTINUOUS
 62
    7
 10
1041.9108632857328
 20
1049.5151614943609
 11
1042.0574147619695
 21
1049.5007248855802
  0
LINE
  8
_2-2_in_line
  6
CONTINUOUS
 62
    7
 10
1042.0574147619695
 20
1049.5007248855802
 11
1042.1647589535369
 21
1049.487035099495
  0
LINE
  8
_2-2_in_line
  6
CONTINUOUS
 62
    7
 10
1042.1647589535369
 20
1049.487035099495
 11
1042.3492090143041
 21
1049.4580754682545
  0
LINE
  8
_2-2_in_line
  6
CONTINUOUS
 62
    7
 10
1042.3492090143041
 20
1049.4580754682545
 11
1042.5331798717466
 21
1049.4237599867154
  0
LINE
  8
_2-2_in_line
  6
CONTINUOUS
 62
    7
 10
1042.5331798717466
 20
1049.4237599867154
 11
1042.7170359076044
 21
1049.385745160688
  0
LINE
  8
_2-2_in_line
  6
CONTINUOUS
 62
    7
 10
1042.7170359076044
 20
1049.385745160688
 11
1042.9011415036243
 21
1049.3456874959804
  0
LINE
  8
_2-2_in_line
  6
CONTINUOUS
 62
    7
 10
1042.9011415036243
 20
1049.3456874959804
 11
1043.085861041553
 21
1049.3052434984054
  0
LINE
  8
_2-2_in_line
  6
CONTINUOUS
 62
    7
 10
1043.085861041553
 20
1049.3052434984054
 11
1043.1934232670878
 21
1049.2822617115178
  0
LINE
  8
_2-2_in_line
  6
CONTINUOUS
 62
    7
 10
1043.1934232670878
 20
1049.2822617115178
 11
1043.3155344984161
 21
1049.2569879900213
  0
LINE
  8
_2-2_in_line
  6
CONTINUOUS
 62
    7
 10
1043.3155344984161
 20
1049.2569879900213
 11
1043.5263325219794
 21
1049.2136384737853
  0
LINE
  8
_2-2_in_line
  6
CONTINUOUS
 62
    7
 10
1043.5263325219794
 20
1049.2136384737853
 11
1043.7360377458172
 21
1049.1675053156371
  0
LINE
  8
_2-2_in_line
  6
CONTINUOUS
 62
    7
 10
1043.7360377458172
 20
1049.1675053156371
 11
1043.9429946950859
 21
1049.1150192739326
  0
LINE
  8
_2-2_in_line
  6
CONTINUOUS
 62
    7
 10
1043.9429946950859
 20
1049.1150192739326
 11
1044.1455478949397
 21
1049.0526111070346
  0
LINE
  8
_2-2_in_line
  6
CONTINUOUS
 62
    7
 10
1044.1455478949397
 20
1049.0526111070346
 11
1044.3420418705396
 21
1048.9767115733014
  0
LINE
  8
_2-2_in_line
  6
CONTINUOUS
 62
    7
 10
1044.3420418705396
 20
1048.9767115733014
 11
1044.4525796966591
 21
1048.9251016326432
  0
LINE
  8
_2-2_in_line
  6
CONTINUOUS
 62
    7
 10
1044.4525796966591
 20
1048.9251016326432
 11
1044.5519019278399
 21
1048.8720161607205
  0
LINE
  8
_2-2_in_line
  6
CONTINUOUS
 62
    7
 10
1044.5519019278399
 20
1048.8720161607205
 11
1044.7173258430289
 21
1048.768729879622
  0
LINE
  8
_2-2_in_line
  6
CONTINUOUS
 62
    7
 10
1044.7173258430289
 20
1048.768729879622
 11
1044.8753774143879
 21
1048.6521802478899
  0
LINE
  8
_2-2_in_line
  6
CONTINUOUS
 62
    7
 10
1044.8753774143879
 20
1048.6521802478899
 11
1045.0260524608061
 21
1048.5242535745749
  0
LINE
  8
_2-2_in_line
  6
CONTINUOUS
 62
    7
 10
1045.0260524608061
 20
1048.5242535745749
 11
1045.1693468011727
 21
1048.386836168728
  0
LINE
  8
_2-2_in_line
  6
CONTINUOUS
 62
    7
 10
1045.1693468011727
 20
1048.386836168728
 11
1045.3052562543767
 21
1048.2418143393977
  0
LINE
  8
_2-2_in_line
  6
CONTINUOUS
 62
    7
 10
1045.3052562543767
 20
1048.2418143393977
 11
1045.380698334362
 21
1048.1549606354008
  0
LINE
  8
_2-2_in_line
  6
CONTINUOUS
 62
    7
 10
1045.380698334362
 20
1048.1549606354008
 11
1045.4649933587334
 21
1048.0523932474091
  0
LINE
  8
_2-2_in_line
  6
CONTINUOUS
 62
    7
 10
1045.4649933587334
 20
1048.0523932474091
 11
1045.6031652180022
 21
1047.8711082376742
  0
LINE
  8
_2-2_in_line
  6
CONTINUOUS
 62
    7
 10
1045.6031652180022
 20
1047.8711082376742
 11
1045.7332754850208
 21
1047.6848835630528
  0
LINE
  8
_2-2_in_line
  6
CONTINUOUS
 62
    7
 10
1045.7332754850208
 20
1047.6848835630528
 11
1045.8564953870073
 21
1047.494517501965
  0
LINE
  8
_2-2_in_line
  6
CONTINUOUS
 62
    7
 10
1045.8564953870073
 20
1047.494517501965
 11
1045.9739961511773
 21
1047.3008083328216
  0
LINE
  8
_2-2_in_line
  6
CONTINUOUS
 62
    7
 10
1045.9739961511773
 20
1047.3008083328216
 11
1046.0869490047467
 21
1047.1045543340381
  0
LINE
  8
_2-2_in_line
  6
CONTINUOUS
 62
    7
 10
1046.0869490047467
 20
1047.1045543340381
 11
1046.1508393316044
 21
1046.9898755370093
  0
LINE
  8
_2-2_in_line
  6
CONTINUOUS
 62
    7
 10
1046.1508393316044
 20
1046.9898755370093
 11
1046.2181066991125
 21
1046.8668089448727
  0
LINE
  8
_2-2_in_line
  6
CONTINUOUS
 62
    7
 10
1046.2181066991125
 20
1046.8668089448727
 11
1046.3320879403191
 21
1046.6536021885042
  0
LINE
  8
_2-2_in_line
  6
CONTINUOUS
 62
    7
 10
1046.3320879403191
 20
1046.6536021885042
 11
1046.4442024886839
 21
1046.4393051889681
  0
LINE
  8
_2-2_in_line
  6
CONTINUOUS
 62
    7
 10
1046.4442024886839
 20
1046.4393051889681
 11
1046.5552190979301
 21
1046.2241559278925
  0
LINE
  8
_2-2_in_line
  6
CONTINUOUS
 62
    7
 10
1046.5552190979301
 20
1046.2241559278925
 11
1046.66590652179
 21
1046.0083923869126
  0
LINE
  8
_2-2_in_line
  6
CONTINUOUS
 62
    7
 10
1046.66590652179
 20
1046.0083923869126
 11
1046.7770335139867
 21
1045.7922525476567
  0
LINE
  8
_2-2_in_line
  6
CONTINUOUS
 62
    7
 10
1046.7770335139867
 20
1045.7922525476567
 11
1046.8419915086188
 21
1045.6668127981573
  0
LINE
  8
_2-2_in_line
  6
CONTINUOUS
 62
    7
 10
1046.8419915086188
 20
1045.6668127981573
 11
1046.930404962794
 21
1045.4979846151502
  0
LINE
  8
_2-2_in_line
  6
CONTINUOUS
 62
    7
 10
1046.930404962794
 20
1045.4979846151502
 11
1047.0869097787236
 21
1045.2085888492627
  0
LINE
  8
_2-2_in_line
  6
CONTINUOUS
 62
    7
 10
1047.0869097787236
 20
1045.2085888492627
 11
1047.2511313719506
 21
1044.9238806730102
  0
LINE
  8
_2-2_in_line
  6
CONTINUOUS
 62
    7
 10
1047.2511313719506
 20
1044.9238806730102
 11
1047.4260553593363
 21
1044.6468272449931
  0
LINE
  8
_2-2_in_line
  6
CONTINUOUS
 62
    7
 10
1047.4260553593363
 20
1044.6468272449931
 11
1047.6146673577373
 21
1044.3803957238072
  0
LINE
  8
_2-2_in_line
  6
CONTINUOUS
 62
    7
 10
1047.6146673577373
 20
1044.3803957238072
 11
1047.8199529840126
 21
1044.1275532680481
  0
LINE
  8
_2-2_in_line
  6
CONTINUOUS
 62
    7
 10
1047.8199529840126
 20
1044.1275532680481
 11
1047.9478349918381
 21
1043.9883003682678
  0
LINE
  8
_2-2_in_line
  6
CONTINUOUS
 62
    7
 10
1047.9478349918381
 20
1043.9883003682678
 11
1047.9940501641418
 21
1043.9411953623573
  0
LINE
  8
_2-2_in_line
  6
CONTINUOUS
 62
    7
 10
1047.9940501641418
 20
1043.9411953623573
 11
1048.0757494256827
 21
1043.8618502673228
  0
LINE
  8
_2-2_in_line
  6
CONTINUOUS
 62
    7
 10
1048.0757494256827
 20
1043.8618502673228
 11
1048.1599518180142
 21
1043.7850501578816
  0
LINE
  8
_2-2_in_line
  6
CONTINUOUS
 62
    7
 10
1048.1599518180142
 20
1043.7850501578816
 11
1048.2465977935076
 21
1043.7110012545543
  0
LINE
  8
_2-2_in_line
  6
CONTINUOUS
 62
    7
 10
1048.2465977935076
 20
1043.7110012545543
 11
1048.3356278045435
 21
1043.6399097778656
  0
LINE
  8
_2-2_in_line
  6
CONTINUOUS
 62
    7
 10
1048.3356278045435
 20
1043.6399097778656
 11
1048.4269823034956
 21
1043.5719819483359
  0
LINE
  8
_2-2_in_line
  6
CONTINUOUS
 62
    7
 10
1048.4269823034956
 20
1043.5719819483359
 11
1048.4810095283897
 21
1043.5341146519465
  0
LINE
  8
_2-2_in_line
  6
CONTINUOUS
 62
    7
 10
1048.4810095283897
 20
1043.5341146519465
 11
1048.5706109394787
 21
1043.4748219615688
  0
LINE
  8
_2-2_in_line
  6
CONTINUOUS
 62
    7
 10
1048.5706109394787
 20
1043.4748219615688
 11
1048.7288023836491
 21
1043.3784086973731
  0
LINE
  8
_2-2_in_line
  6
CONTINUOUS
 62
    7
 10
1048.7288023836491
 20
1043.3784086973731
 11
1048.8902136706824
 21
1043.2870802883019
  0
LINE
  8
_2-2_in_line
  6
CONTINUOUS
 62
    7
 10
1048.8902136706824
 20
1043.2870802883019
 11
1049.0531336189756
 21
1043.1981895798515
  0
LINE
  8
_2-2_in_line
  6
CONTINUOUS
 62
    7
 10
1049.0531336189756
 20
1043.1981895798515
 11
1049.2158510469276
 21
1043.1090894175156
  0
LINE
  8
_2-2_in_line
  6
CONTINUOUS
 62
    7
 10
1049.2158510469276
 20
1043.1090894175156
 11
1049.3766547729397
 21
1043.0171326467905
  0
LINE
  8
_2-2_in_line
  6
CONTINUOUS
 62
    7
 10
1049.3766547729397
 20
1043.0171326467905
 11
1049.4683697812648
 21
1042.9614457052787
  0
LINE
  8
_2-2_in_line
  6
CONTINUOUS
 62
    7
 10
1049.4683697812648
 20
1042.9614457052787
 11
1049.5607807736642
 21
1042.9020809354063
  0
LINE
  8
_2-2_in_line
  6
CONTINUOUS
 62
    7
 10
1049.5607807736642
 20
1042.9020809354063
 11
1049.7167237758194
 21
1042.7945791736386
  0
LINE
  8
_2-2_in_line
  6
CONTINUOUS
 62
    7
 10
1049.7167237758194
 20
1042.7945791736386
 11
1049.869046318041
 21
1042.6815959836688
  0
LINE
  8
_2-2_in_line
  6
CONTINUOUS
 62
    7
 10
1049.869046318041
 20
1042.6815959836688
 11
1050.0185228067753
 21
1042.5643359312733
  0
LINE
  8
_2-2_in_line
  6
CONTINUOUS
 62
    7
 10
1050.0185228067753
 20
1042.5643359312733
 11
1050.1659276484688
 21
1042.4440035822261
  0
LINE
  8
_2-2_in_line
  6
CONTINUOUS
 62
    7
 10
1050.1659276484688
 20
1042.4440035822261
 11
1050.3120352495657
 21
1042.3218035023012
  0
LINE
  8
_2-2_in_line
  6
CONTINUOUS
 62
    7
 10
1050.3120352495657
 20
1042.3218035023012
 11
1050.3964884189677
 21
1042.2505463232085
  0
LINE
  8
_2-2_in_line
  6
CONTINUOUS
 62
    7
 10
1050.3964884189677
 20
1042.2505463232085
 11
1050.5023302825871
 21
1042.1610657393069
  0
LINE
  8
_2-2_in_line
  6
CONTINUOUS
 62
    7
 10
1050.5023302825871
 20
1042.1610657393069
 11
1050.6839030608953
 21
1042.0059826855129
  0
LINE
  8
_2-2_in_line
  6
CONTINUOUS
 62
    7
 10
1050.6839030608953
 20
1042.0059826855129
 11
1050.8630777135213
 21
1041.8485935172714
  0
LINE
  8
_2-2_in_line
  6
CONTINUOUS
 62
    7
 10
1050.8630777135213
 20
1041.8485935172714
 11
1051.0384098397467
 21
1041.687403319346
  0
LINE
  8
_2-2_in_line
  6
CONTINUOUS
 62
    7
 10
1051.0384098397467
 20
1041.687403319346
 11
1051.2084550388554
 21
1041.5209171764957
  0
LINE
  8
_2-2_in_line
  6
CONTINUOUS
 62
    7
 10
1051.2084550388554
 20
1041.5209171764957
 11
1051.3717689101336
 21
1041.3476401734863
  0
LINE
  8
_2-2_in_line
  6
CONTINUOUS
 62
    7
 10
1051.3717689101336
 20
1041.3476401734863
 11
1051.462837492073
 21
1041.2434388652753
  0
LINE
  8
_2-2_in_line
  6
CONTINUOUS
 62
    7
 10
1051.462837492073
 20
1041.2434388652753
 11
1051.5144967647107
 21
1041.1813515897518
  0
LINE
  8
_2-2_in_line
  6
CONTINUOUS
 62
    7
 10
1051.5144967647107
 20
1041.1813515897518
 11
1051.6008218750162
 21
1041.071878849915
  0
LINE
  8
_2-2_in_line
  6
CONTINUOUS
 62
    7
 10
1051.6008218750162
 20
1041.071878849915
 11
1051.683181747147
 21
1040.9593775921564
  0
LINE
  8
_2-2_in_line
  6
CONTINUOUS
 62
    7
 10
1051.683181747147
 20
1040.9593775921564
 11
1051.7610024378937
 21
1040.8438966594451
  0
LINE
  8
_2-2_in_line
  6
CONTINUOUS
 62
    7
 10
1051.7610024378937
 20
1040.8438966594451
 11
1051.8337100040376
 21
1040.7254848947525
  0
LINE
  8
_2-2_in_line
  6
CONTINUOUS
 62
    7
 10
1051.8337100040376
 20
1040.7254848947525
 11
1051.900730502367
 21
1040.6041911410477
  0
LINE
  8
_2-2_in_line
  6
CONTINUOUS
 62
    7
 10
1051.900730502367
 20
1040.6041911410477
 11
1051.9367704134525
 21
1040.532539483205
  0
LINE
  8
_2-2_in_line
  6
CONTINUOUS
 62
    7
 10
1051.9367704134525
 20
1040.532539483205
 11
1051.983422266811
 21
1040.4310635921559
  0
LINE
  8
_2-2_in_line
  6
CONTINUOUS
 62
    7
 10
1051.983422266811
 20
1040.4310635921559
 11
1052.0549090251629
 21
1040.2522992131037
  0
LINE
  8
_2-2_in_line
  6
CONTINUOUS
 62
    7
 10
1052.0549090251629
 20
1040.2522992131037
 11
1052.1168603637861
 21
1040.0694787949567
  0
LINE
  8
_2-2_in_line
  6
CONTINUOUS
 62
    7
 10
1052.1168603637861
 20
1040.0694787949567
 11
1052.1713582520542
 21
1039.8834879357662
  0
LINE
  8
_2-2_in_line
  6
CONTINUOUS
 62
    7
 10
1052.1713582520542
 20
1039.8834879357662
 11
1052.2204846593409
 21
1039.6952122335904
  0
LINE
  8
_2-2_in_line
  6
CONTINUOUS
 62
    7
 10
1052.2204846593409
 20
1039.6952122335904
 11
1052.2663215550197
 21
1039.5055372864874
  0
LINE
  8
_2-2_in_line
  6
CONTINUOUS
 62
    7
 10
1052.2663215550197
 20
1039.5055372864874
 11
1052.2922201044876
 21
1039.3952336548261
  0
LINE
  8
_2-2_in_line
  6
CONTINUOUS
 62
    7
 10
988.54434424187605
 20
1042.8952336548252
 11
999.04434424187559
 21
1039.3952336548261
  0
LINE
  8
_2-2_in_line
  6
CONTINUOUS
 62
    7
 10
961.59357071980014
 20
1034.3952336548261
 11
938.54434424187605
 21
1034.3952336548261
  0
LINE
  8
_2-2_in_line
  6
CONTINUOUS
 62
    7
 10
835.49511776394968
 20
1029.3952336548261
 11
858.54434424187605
 21
1029.3952336548261
  0
LINE
  8
_2-2_in_line
  6
CONTINUOUS
 62
    7
 10
755.5443442418765
 20
1039.3952336548261
 11
858.54453455075702
 21
1039.3952336548261
  0
LINE
  8
_2-2_in_line
  6
CONTINUOUS
 62
    7
 10
761.54147630880846
 20
1044.3952336548261
 11
761.52325752128593
 21
1044.5261386015079
  0
LINE
  8
_2-2_in_line
  6
CONTINUOUS
 62
    7
 10
761.52325752128593
 20
1044.5261386015079
 11
761.49019074162527
 21
1044.7512125365267
  0
LINE
  8
_2-2_in_line
  6
CONTINUOUS
 62
    7
 10
761.49019074162527
 20
1044.7512125365267
 11
761.45252652575766
 21
1044.9745524467846
  0
LINE
  8
_2-2_in_line
  6
CONTINUOUS
 62
    7
 10
761.45252652575766
 20
1044.9745524467846
 11
761.40735510393472
 21
1045.1950608482559
  0
LINE
  8
_2-2_in_line
  6
CONTINUOUS
 62
    7
 10
761.40735510393472
 20
1045.1950608482559
 11
761.35176670640351
 21
1045.4116402569127
  0
LINE
  8
_2-2_in_line
  6
CONTINUOUS
 62
    7
 10
761.35176670640351
 20
1045.4116402569127
 11
761.28285156341565
 21
1045.6231931887316
  0
LINE
  8
_2-2_in_line
  6
CONTINUOUS
 62
    7
 10
761.28285156341565
 20
1045.6231931887316
 11
761.23562786512241
 21
1045.7431582917241
  0
LINE
  8
_2-2_in_line
  6
CONTINUOUS
 62
    7
 10
761.23562786512241
 20
1045.7431582917241
 11
761.1946868038591
 21
1045.8352751313157
  0
LINE
  8
_2-2_in_line
  6
CONTINUOUS
 62
    7
 10
761.1946868038591
 20
1045.8352751313157
 11
761.11627163117748
 21
1045.9909894343275
  0
LINE
  8
_2-2_in_line
  6
CONTINUOUS
 62
    7
 10
761.11627163117748
 20
1045.9909894343275
 11
761.02916461685129
 21
1046.1429930372094
  0
LINE
  8
_2-2_in_line
  6
CONTINUOUS
 62
    7
 10
761.02916461685129
 20
1046.1429930372094
 11
760.93477962770169
 21
1046.2915455530094
  0
LINE
  8
_2-2_in_line
  6
CONTINUOUS
 62
    7
 10
760.93477962770169
 20
1046.2915455530094
 11
760.83453053055894
 21
1046.4369065947824
  0
LINE
  8
_2-2_in_line
  6
CONTINUOUS
 62
    7
 10
760.83453053055894
 20
1046.4369065947824
 11
760.72983119224193
 21
1046.5793357755786
  0
LINE
  8
_2-2_in_line
  6
CONTINUOUS
 62
    7
 10
760.72983119224193
 20
1046.5793357755786
 11
760.66762361256326
 21
1046.6607036227822
  0
LINE
  8
_2-2_in_line
  6
CONTINUOUS
 62
    7
 10
760.66762361256326
 20
1046.6607036227822
 11
760.59340733862757
 21
1046.7553872155838
  0
LINE
  8
_2-2_in_line
  6
CONTINUOUS
 62
    7
 10
760.59340733862757
 20
1046.7553872155838
 11
760.46318239852428
 21
1046.9161060094473
  0
LINE
  8
_2-2_in_line
  6
CONTINUOUS
 62
    7
 10
760.46318239852428
 20
1046.9161060094473
 11
760.33033057930299
 21
1047.0739727718376
  0
LINE
  8
_2-2_in_line
  6
CONTINUOUS
 62
    7
 10
760.33033057930299
 20
1047.0739727718376
 11
760.19513244117536
 21
1047.2293932653031
  0
LINE
  8
_2-2_in_line
  6
CONTINUOUS
 62
    7
 10
760.19513244117536
 20
1047.2293932653031
 11
760.05786854435075
 21
1047.3827732523898
  0
LINE
  8
_2-2_in_line
  6
CONTINUOUS
 62
    7
 10
760.05786854435075
 20
1047.3827732523898
 11
759.9188194490431
 21
1047.5345184956461
  0
LINE
  8
_2-2_in_line
  6
CONTINUOUS
 62
    7
 10
759.9188194490431
 20
1047.5345184956461
 11
759.83746355113101
 21
1047.6219415886533
  0
LINE
  8
_2-2_in_line
  6
CONTINUOUS
 62
    7
 10
759.83746355113101
 20
1047.6219415886533
 11
759.75182847771623
 21
1047.713011763052
  0
LINE
  8
_2-2_in_line
  6
CONTINUOUS
 62
    7
 10
759.75182847771623
 20
1047.713011763052
 11
759.60263111940878
 21
1047.8687135118832
  0
LINE
  8
_2-2_in_line
  6
CONTINUOUS
 62
    7
 10
759.60263111940878
 20
1047.8687135118832
 11
759.45088090583897
 21
1048.0220594902846
  0
LINE
  8
_2-2_in_line
  6
CONTINUOUS
 62
    7
 10
759.45088090583897
 20
1048.0220594902846
 11
759.29589182633538
 21
1048.1722471292039
  0
LINE
  8
_2-2_in_line
  6
CONTINUOUS
 62
    7
 10
759.29589182633538
 20
1048.1722471292039
 11
759.13697787022886
 21
1048.3184738596003
  0
LINE
  8
_2-2_in_line
  6
CONTINUOUS
 62
    7
 10
759.13697787022886
 20
1048.3184738596003
 11
758.97345302684801
 21
1048.4599371124284
  0
LINE
  8
_2-2_in_line
  6
CONTINUOUS
 62
    7
 10
758.97345302684801
 20
1048.4599371124284
 11
758.87622558525993
 21
1048.5394869197091
  0
LINE
  8
_2-2_in_line
  6
CONTINUOUS
 62
    7
 10
758.87622558525993
 20
1048.5394869197091
 11
758.78857188571703
 21
1048.6082122722053
  0
LINE
  8
_2-2_in_line
  6
CONTINUOUS
 62
    7
 10
758.78857188571703
 20
1048.6082122722053
 11
758.63395878579797
 21
1048.7224250400061
  0
LINE
  8
_2-2_in_line
  6
CONTINUOUS
 62
    7
 10
758.63395878579797
 20
1048.7224250400061
 11
758.47499364260887
 21
1048.8303977289377
  0
LINE
  8
_2-2_in_line
  6
CONTINUOUS
 62
    7
 10
758.47499364260887
 20
1048.8303977289377
 11
758.31174698538109
 21
1048.9311729603639
  0
LINE
  8
_2-2_in_line
  6
CONTINUOUS
 62
    7
 10
758.31174698538109
 20
1048.9311729603639
 11
758.14428934335058
 21
1049.0237933556512
  0
LINE
  8
_2-2_in_line
  6
CONTINUOUS
 62
    7
 10
758.14428934335058
 20
1049.0237933556512
 11
757.97269124574643
 21
1049.107301536161
  0
LINE
  8
_2-2_in_line
  6
CONTINUOUS
 62
    7
 10
757.97269124574643
 20
1049.107301536161
 11
757.87129498457818
 21
1049.1511838070812
  0
LINE
  8
_2-2_in_line
  6
CONTINUOUS
 62
    7
 10
757.87129498457818
 20
1049.1511838070812
 11
757.75738949183835
 21
1049.1957125203464
  0
LINE
  8
_2-2_in_line
  6
CONTINUOUS
 62
    7
 10
757.75738949183835
 20
1049.1957125203464
 11
757.55750103398316
 21
1049.263023148759
  0
LINE
  8
_2-2_in_line
  6
CONTINUOUS
 62
    7
 10
757.55750103398316
 20
1049.263023148759
 11
757.35379893512675
 21
1049.3196267002565
  0
LINE
  8
_2-2_in_line
  6
CONTINUOUS
 62
    7
 10
757.35379893512675
 20
1049.3196267002565
 11
757.1469998583176
 21
1049.3670015739883
  0
LINE
  8
_2-2_in_line
  6
CONTINUOUS
 62
    7
 10
757.1469998583176
 20
1049.3670015739883
 11
756.93782046660874
 21
1049.4066261690966
  0
LINE
  8
_2-2_in_line
  6
CONTINUOUS
 62
    7
 10
756.93782046660874
 20
1049.4066261690966
 11
756.7269774230532
 21
1049.4399788847329
  0
LINE
  8
_2-2_in_line
  6
CONTINUOUS
 62
    7
 10
756.7269774230532
 20
1049.4399788847329
 11
756.60420857502106
 21
1049.4570322507673
  0
LINE
  8
_2-2_in_line
  6
CONTINUOUS
 62
    7
 10
756.60420857502106
 20
1049.4570322507673
 11
756.45575160493865
 21
1049.4757492500355
  0
LINE
  8
_2-2_in_line
  6
CONTINUOUS
 62
    7
 10
756.45575160493865
 20
1049.4757492500355
 11
756.1994313396541
 21
1049.5026560111239
  0
LINE
  8
_2-2_in_line
  6
CONTINUOUS
 62
    7
 10
756.1994313396541
 20
1049.5026560111239
 11
755.94303601107288
 21
1049.5215142584232
  0
LINE
  8
_2-2_in_line
  6
CONTINUOUS
 62
    7
 10
755.94303601107288
 20
1049.5215142584232
 11
755.68700817444198
 21
1049.5308603496107
  0
LINE
  8
_2-2_in_line
  6
CONTINUOUS
 62
    7
 10
755.68700817444198
 20
1049.5308603496107
 11
755.43179038500841
 21
1049.5292306423619
  0
LINE
  8
_2-2_in_line
  6
CONTINUOUS
 62
    7
 10
755.43179038500841
 20
1049.5292306423619
 11
755.17782519801688
 21
1049.5151614943609
  0
LINE
  8
_2-2_in_line
  6
CONTINUOUS
 62
    7
 10
755.17782519801688
 20
1049.5151614943609
 11
755.03127372178017
 21
1049.5007248855802
  0
LINE
  8
_2-2_in_line
  6
CONTINUOUS
 62
    7
 10
755.03127372178017
 20
1049.5007248855802
 11
754.92392953021283
 21
1049.487035099495
  0
LINE
  8
_2-2_in_line
  6
CONTINUOUS
 62
    7
 10
754.92392953021283
 20
1049.487035099495
 11
754.73947946944566
 21
1049.4580754682545
  0
LINE
  8
_2-2_in_line
  6
CONTINUOUS
 62
    7
 10
754.73947946944566
 20
1049.4580754682545
 11
754.55550861200311
 21
1049.4237599867154
  0
LINE
  8
_2-2_in_line
  6
CONTINUOUS
 62
    7
 10
754.55550861200311
 20
1049.4237599867154
 11
754.37165257614527
 21
1049.385745160688
  0
LINE
  8
_2-2_in_line
  6
CONTINUOUS
 62
    7
 10
754.37165257614527
 20
1049.385745160688
 11
754.18754698012538
 21
1049.3456874959804
  0
LINE
  8
_2-2_in_line
  6
CONTINUOUS
 62
    7
 10
754.18754698012538
 20
1049.3456874959804
 11
754.00282744219669
 21
1049.3052434984054
  0
LINE
  8
_2-2_in_line
  6
CONTINUOUS
 62
    7
 10
754.00282744219669
 20
1049.3052434984054
 11
753.89526521666187
 21
1049.2822617115178
  0
LINE
  8
_2-2_in_line
  6
CONTINUOUS
 62
    7
 10
753.89526521666187
 20
1049.2822617115178
 11
753.77315398533358
 21
1049.2569879900213
  0
LINE
  8
_2-2_in_line
  6
CONTINUOUS
 62
    7
 10
753.77315398533358
 20
1049.2569879900213
 11
753.56235596177032
 21
1049.2136384737853
  0
LINE
  8
_2-2_in_line
  6
CONTINUOUS
 62
    7
 10
753.56235596177032
 20
1049.2136384737853
 11
753.35265073793255
 21
1049.1675053156371
  0
LINE
  8
_2-2_in_line
  6
CONTINUOUS
 62
    7
 10
753.35265073793255
 20
1049.1675053156371
 11
753.14569378866383
 21
1049.1150192739326
  0
LINE
  8
_2-2_in_line
  6
CONTINUOUS
 62
    7
 10
753.14569378866383
 20
1049.1150192739326
 11
752.94314058881002
 21
1049.0526111070346
  0
LINE
  8
_2-2_in_line
  6
CONTINUOUS
 62
    7
 10
752.94314058881002
 20
1049.0526111070346
 11
752.74664661321015
 21
1048.9767115733014
  0
LINE
  8
_2-2_in_line
  6
CONTINUOUS
 62
    7
 10
752.74664661321015
 20
1048.9767115733014
 11
752.63610878709062
 21
1048.9251016326432
  0
LINE
  8
_2-2_in_line
  6
CONTINUOUS
 62
    7
 10
752.63610878709062
 20
1048.9251016326432
 11
752.53678655590977
 21
1048.8720161607205
  0
LINE
  8
_2-2_in_line
  6
CONTINUOUS
 62
    7
 10
752.53678655590977
 20
1048.8720161607205
 11
752.3713626407208
 21
1048.768729879622
  0
LINE
  8
_2-2_in_line
  6
CONTINUOUS
 62
    7
 10
752.3713626407208
 20
1048.768729879622
 11
752.21331106936179
 21
1048.6521802478899
  0
LINE
  8
_2-2_in_line
  6
CONTINUOUS
 62
    7
 10
752.21331106936179
 20
1048.6521802478899
 11
752.06263602294359
 21
1048.5242535745749
  0
LINE
  8
_2-2_in_line
  6
CONTINUOUS
 62
    7
 10
752.06263602294359
 20
1048.5242535745749
 11
751.91934168257706
 21
1048.386836168728
  0
LINE
  8
_2-2_in_line
  6
CONTINUOUS
 62
    7
 10
751.91934168257706
 20
1048.386836168728
 11
751.78343222937303
 21
1048.2418143393977
  0
LINE
  8
_2-2_in_line
  6
CONTINUOUS
 62
    7
 10
751.78343222937303
 20
1048.2418143393977
 11
751.70799014938768
 21
1048.1549606354008
  0
LINE
  8
_2-2_in_line
  6
CONTINUOUS
 62
    7
 10
751.70799014938768
 20
1048.1549606354008
 11
751.6236951250163
 21
1048.0523932474091
  0
LINE
  8
_2-2_in_line
  6
CONTINUOUS
 62
    7
 10
751.6236951250163
 20
1048.0523932474091
 11
751.48552326574747
 21
1047.8711082376742
  0
LINE
  8
_2-2_in_line
  6
CONTINUOUS
 62
    7
 10
751.48552326574747
 20
1047.8711082376742
 11
751.35541299872887
 21
1047.6848835630528
  0
LINE
  8
_2-2_in_line
  6
CONTINUOUS
 62
    7
 10
751.35541299872887
 20
1047.6848835630528
 11
751.23219309674244
 21
1047.494517501965
  0
LINE
  8
_2-2_in_line
  6
CONTINUOUS
 62
    7
 10
751.23219309674244
 20
1047.494517501965
 11
751.11469233257242
 21
1047.3008083328216
  0
LINE
  8
_2-2_in_line
  6
CONTINUOUS
 62
    7
 10
751.11469233257242
 20
1047.3008083328216
 11
751.00173947900305
 21
1047.1045543340381
  0
LINE
  8
_2-2_in_line
  6
CONTINUOUS
 62
    7
 10
751.00173947900305
 20
1047.1045543340381
 11
750.9378491521453
 21
1046.9898755370093
  0
LINE
  8
_2-2_in_line
  6
CONTINUOUS
 62
    7
 10
750.9378491521453
 20
1046.9898755370093
 11
750.87058178463724
 21
1046.8668089448727
  0
LINE
  8
_2-2_in_line
  6
CONTINUOUS
 62
    7
 10
750.87058178463724
 20
1046.8668089448727
 11
750.75660054343064
 21
1046.6536021885042
  0
LINE
  8
_2-2_in_line
  6
CONTINUOUS
 62
    7
 10
750.75660054343064
 20
1046.6536021885042
 11
750.64448599506579
 21
1046.4393051889681
  0
LINE
  8
_2-2_in_line
  6
CONTINUOUS
 62
    7
 10
750.64448599506579
 20
1046.4393051889681
 11
750.53346938581956
 21
1046.2241559278925
  0
LINE
  8
_2-2_in_line
  6
CONTINUOUS
 62
    7
 10
750.53346938581956
 20
1046.2241559278925
 11
750.42278196195969
 21
1046.0083923869126
  0
LINE
  8
_2-2_in_line
  6
CONTINUOUS
 62
    7
 10
750.42278196195969
 20
1046.0083923869126
 11
750.31165496976303
 21
1045.7922525476567
  0
LINE
  8
_2-2_in_line
  6
CONTINUOUS
 62
    7
 10
750.31165496976303
 20
1045.7922525476567
 11
750.24669697513093
 21
1045.6668127981573
  0
LINE
  8
_2-2_in_line
  6
CONTINUOUS
 62
    7
 10
750.24669697513093
 20
1045.6668127981573
 11
750.15828352095571
 21
1045.4979846151502
  0
LINE
  8
_2-2_in_line
  6
CONTINUOUS
 62
    7
 10
750.15828352095571
 20
1045.4979846151502
 11
750.00177870502614
 21
1045.2085888492627
  0
LINE
  8
_2-2_in_line
  6
CONTINUOUS
 62
    7
 10
750.00177870502614
 20
1045.2085888492627
 11
749.83755711179913
 21
1044.9238806730102
  0
LINE
  8
_2-2_in_line
  6
CONTINUOUS
 62
    7
 10
749.83755711179913
 20
1044.9238806730102
 11
749.66263312441345
 21
1044.6468272449931
  0
LINE
  8
_2-2_in_line
  6
CONTINUOUS
 62
    7
 10
749.66263312441345
 20
1044.6468272449931
 11
749.47402112601242
 21
1044.3803957238072
  0
LINE
  8
_2-2_in_line
  6
CONTINUOUS
 62
    7
 10
749.47402112601242
 20
1044.3803957238072
 11
749.26873549973709
 21
1044.1275532680481
  0
LINE
  8
_2-2_in_line
  6
CONTINUOUS
 62
    7
 10
749.26873549973709
 20
1044.1275532680481
 11
749.14085349191157
 21
1043.9883003682678
  0
LINE
  8
_2-2_in_line
  6
CONTINUOUS
 62
    7
 10
749.14085349191157
 20
1043.9883003682678
 11
749.09463831960795
 21
1043.9411953623573
  0
LINE
  8
_2-2_in_line
  6
CONTINUOUS
 62
    7
 10
749.09463831960795
 20
1043.9411953623573
 11
749.01293905806699
 21
1043.8618502673228
  0
LINE
  8
_2-2_in_line
  6
CONTINUOUS
 62
    7
 10
749.01293905806699
 20
1043.8618502673228
 11
748.92873666573553
 21
1043.7850501578816
  0
LINE
  8
_2-2_in_line
  6
CONTINUOUS
 62
    7
 10
748.92873666573553
 20
1043.7850501578816
 11
748.84209069024212
 21
1043.7110012545543
  0
LINE
  8
_2-2_in_line
  6
CONTINUOUS
 62
    7
 10
748.84209069024212
 20
1043.7110012545543
 11
748.75306067920621
 21
1043.6399097778656
  0
LINE
  8
_2-2_in_line
  6
CONTINUOUS
 62
    7
 10
748.75306067920621
 20
1043.6399097778656
 11
748.6617061802541
 21
1043.5719819483359
  0
LINE
  8
_2-2_in_line
  6
CONTINUOUS
 62
    7
 10
748.6617061802541
 20
1043.5719819483359
 11
748.60767895536003
 21
1043.5341146519465
  0
LINE
  8
_2-2_in_line
  6
CONTINUOUS
 62
    7
 10
748.60767895536003
 20
1043.5341146519465
 11
748.51807754427102
 21
1043.4748219615688
  0
LINE
  8
_2-2_in_line
  6
CONTINUOUS
 62
    7
 10
748.51807754427102
 20
1043.4748219615688
 11
748.35988610010065
 21
1043.3784086973731
  0
LINE
  8
_2-2_in_line
  6
CONTINUOUS
 62
    7
 10
748.35988610010065
 20
1043.3784086973731
 11
748.19847481306726
 21
1043.2870802883019
  0
LINE
  8
_2-2_in_line
  6
CONTINUOUS
 62
    7
 10
748.19847481306726
 20
1043.2870802883019
 11
748.0355548647741
 21
1043.1981895798515
  0
LINE
  8
_2-2_in_line
  6
CONTINUOUS
 62
    7
 10
748.0355548647741
 20
1043.1981895798515
 11
747.87283743682212
 21
1043.1090894175156
  0
LINE
  8
_2-2_in_line
  6
CONTINUOUS
 62
    7
 10
747.87283743682212
 20
1043.1090894175156
 11
747.71203371081003
 21
1043.0171326467905
  0
LINE
  8
_2-2_in_line
  6
CONTINUOUS
 62
    7
 10
747.71203371081003
 20
1043.0171326467905
 11
747.62031870248495
 21
1042.9614457052787
  0
LINE
  8
_2-2_in_line
  6
CONTINUOUS
 62
    7
 10
747.62031870248495
 20
1042.9614457052787
 11
747.52790771008551
 21
1042.9020809354063
  0
LINE
  8
_2-2_in_line
  6
CONTINUOUS
 62
    7
 10
747.52790771008551
 20
1042.9020809354063
 11
747.37196470793026
 21
1042.7945791736386
  0
LINE
  8
_2-2_in_line
  6
CONTINUOUS
 62
    7
 10
747.37196470793026
 20
1042.7945791736386
 11
747.21964216570871
 21
1042.6815959836688
  0
LINE
  8
_2-2_in_line
  6
CONTINUOUS
 62
    7
 10
747.21964216570871
 20
1042.6815959836688
 11
747.0701656769744
 21
1042.5643359312733
  0
LINE
  8
_2-2_in_line
  6
CONTINUOUS
 62
    7
 10
747.0701656769744
 20
1042.5643359312733
 11
746.92276083528088
 21
1042.4440035822261
  0
LINE
  8
_2-2_in_line
  6
CONTINUOUS
 62
    7
 10
746.92276083528088
 20
1042.4440035822261
 11
746.77665323418398
 21
1042.3218035023012
  0
LINE
  8
_2-2_in_line
  6
CONTINUOUS
 62
    7
 10
746.77665323418398
 20
1042.3218035023012
 11
746.69220006478201
 21
1042.2505463232085
  0
LINE
  8
_2-2_in_line
  6
CONTINUOUS
 62
    7
 10
746.69220006478201
 20
1042.2505463232085
 11
746.58635820116262
 21
1042.1610657393069
  0
LINE
  8
_2-2_in_line
  6
CONTINUOUS
 62
    7
 10
746.58635820116262
 20
1042.1610657393069
 11
746.40478542285439
 21
1042.0059826855129
  0
LINE
  8
_2-2_in_line
  6
CONTINUOUS
 62
    7
 10
746.40478542285439
 20
1042.0059826855129
 11
746.2256107702284
 21
1041.8485935172714
  0
LINE
  8
_2-2_in_line
  6
CONTINUOUS
 62
    7
 10
746.2256107702284
 20
1041.8485935172714
 11
746.05027864400301
 21
1041.687403319346
  0
LINE
  8
_2-2_in_line
  6
CONTINUOUS
 62
    7
 10
746.05027864400301
 20
1041.687403319346
 11
745.88023344489432
 21
1041.5209171764957
  0
LINE
  8
_2-2_in_line
  6
CONTINUOUS
 62
    7
 10
745.88023344489432
 20
1041.5209171764957
 11
745.71691957361611
 21
1041.3476401734863
  0
LINE
  8
_2-2_in_line
  6
CONTINUOUS
 62
    7
 10
745.71691957361611
 20
1041.3476401734863
 11
745.62585099167666
 21
1041.2434388652753
  0
LINE
  8
_2-2_in_line
  6
CONTINUOUS
 62
    7
 10
745.62585099167666
 20
1041.2434388652753
 11
745.57419171903905
 21
1041.1813515897518
  0
LINE
  8
_2-2_in_line
  6
CONTINUOUS
 62
    7
 10
745.57419171903905
 20
1041.1813515897518
 11
745.4878666087335
 21
1041.071878849915
  0
LINE
  8
_2-2_in_line
  6
CONTINUOUS
 62
    7
 10
745.4878666087335
 20
1041.071878849915
 11
745.40550673660266
 21
1040.9593775921564
  0
LINE
  8
_2-2_in_line
  6
CONTINUOUS
 62
    7
 10
745.40550673660266
 20
1040.9593775921564
 11
745.32768604585601
 21
1040.8438966594451
  0
LINE
  8
_2-2_in_line
  6
CONTINUOUS
 62
    7
 10
745.32768604585601
 20
1040.8438966594451
 11
745.25497847971212
 21
1040.7254848947525
  0
LINE
  8
_2-2_in_line
  6
CONTINUOUS
 62
    7
 10
745.25497847971212
 20
1040.7254848947525
 11
745.18795798138274
 21
1040.6041911410477
  0
LINE
  8
_2-2_in_line
  6
CONTINUOUS
 62
    7
 10
745.18795798138274
 20
1040.6041911410477
 11
745.15191807029726
 21
1040.532539483205
  0
LINE
  8
_2-2_in_line
  6
CONTINUOUS
 62
    7
 10
745.15191807029726
 20
1040.532539483205
 11
745.10526621693873
 21
1040.4310635921559
  0
LINE
  8
_2-2_in_line
  6
CONTINUOUS
 62
    7
 10
745.10526621693873
 20
1040.4310635921559
 11
745.03377945858676
 21
1040.2522992131037
  0
LINE
  8
_2-2_in_line
  6
CONTINUOUS
 62
    7
 10
745.03377945858676
 20
1040.2522992131037
 11
744.97182811996356
 21
1040.0694787949567
  0
LINE
  8
_2-2_in_line
  6
CONTINUOUS
 62
    7
 10
744.97182811996356
 20
1040.0694787949567
 11
744.91733023169547
 21
1039.8834879357662
  0
LINE
  8
_2-2_in_line
  6
CONTINUOUS
 62
    7
 10
744.91733023169547
 20
1039.8834879357662
 11
744.86820382440885
 21
1039.6952122335904
  0
LINE
  8
_2-2_in_line
  6
CONTINUOUS
 62
    7
 10
744.86820382440885
 20
1039.6952122335904
 11
744.82236692873005
 21
1039.5055372864874
  0
LINE
  8
_2-2_in_line
  6
CONTINUOUS
 62
    7
 10
744.82236692873005
 20
1039.5055372864874
 11
744.79646837926214
 21
1039.3952336548261
  0
LINE
  8
_2-2_in_line
  6
CONTINUOUS
 62
    7
 10
808.54434424187605
 20
1042.8952336548252
 11
798.04434424187423
 21
1039.3952336548261
  0
LINE
  8
_2-2_in_line
  6
CONTINUOUS
 62
    7
 10
835.49511776394968
 20
1034.3952336548261
 11
858.54434424187605
 21
1034.3952336548261
  0
LINE
  8
_2-2_in_line
  6
CONTINUOUS
 62
    7
 10
708.30625177879358
 20
999.39523365482614
 11
858.54434424187605
 21
999.39523365482614
  0
LINE
  8
_2-2_in_line
  6
CONTINUOUS
 62
    7
 10
708.30625177879358
 20
1034.3952336548261
 11
831.49511776394877
 21
1034.3952336548261
  0
LINE
  8
_2-2_in_line
  6
CONTINUOUS
 62
    7
 10
708.30625177879358
 20
1029.3952336548261
 11
831.49511776394877
 21
1029.3952336548261
  0
LINE
  8
_2-2_in_line
  6
CONTINUOUS
 62
    7
 10
1458.3062517787937
 20
999.39523365482614
 11
938.54434424187605
 21
999.39523365482614
  0
LINE
  8
_2-2_in_line
  6
CONTINUOUS
 62
    7
 10
1458.3062517787937
 20
1034.3952336548261
 11
965.59357071980105
 21
1034.3952336548261
  0
LINE
  8
_2-2_in_line
  6
CONTINUOUS
 62
    7
 10
1458.3062517787937
 20
1029.3952336548261
 11
965.59357071980105
 21
1029.3952336548261
  0
TEXT
  8
_2-a_moji
 62
    7
 10
1060.9739233921105
 20
1106.2233988987293
 40
15
 41
1
 50
0
  1
ＢＰ－Ｈ７を加工
  0
LINE
  8
_2-a_moji
  6
CONTINUOUS
 62
    7
 10
804.16042744822892
 20
920.80422679083426
 11
811.24740757355869
 21
920.80422679083426
  0
LINE
  8
_2-a_moji
  6
CONTINUOUS
 62
    7
 10
831.90037878456326
 20
956.57622225555201
 11
811.24740757355869
 21
920.80422679083426
  0
TEXT
  8
_2-a_moji
 62
    7
 10
1016.7732504870615
 20
913.30422679083426
 40
15
 41
1
 50
0
  1
ＥＬ-2001注入
  0
TEXT
  8
_2-a_moji
 62
    7
 10
696.66042744822892
 20
913.30422679083426
 40
15
 41
1
 50
0
  1
ＥＬ-2001注入
  0
TEXT
  8
_2-b_dim
 62
    7
 10
1001.0567868068562
 20
954.8462018713883
 40
15
 41
1
 50
0
  1
40以上
  0
LINE
  8
_2-7_ビス
  6
CONTINUOUS
 62
    7
 10
836.49511776394991
 20
995.29974848191387
 11
836.49511776394991
 21
999.39523365482614
  0
LINE
  8
_2-7_ビス
  6
CONTINUOUS
 62
    7
 10
836.49511776394991
 20
999.39523365482614
 11
833.49511776394922
 21
999.39523365482614
  0
LINE
  8
_2-7_ビス
  6
CONTINUOUS
 62
    7
 10
836.49511776394991
 20
995.29974848191387
 11
837.24511776394922
 21
994.47518756171007
  0
LINE
  8
_2-7_ビス
  6
CONTINUOUS
 62
    7
 10
837.24511776394922
 20
994.47518756171007
 11
837.24511776394922
 21
992.3765818345953
  0
LINE
  8
_2-7_ビス
  6
CONTINUOUS
 62
    7
 10
837.24511776394922
 20
992.3765818345953
 11
836.69689851394867
 21
988.25898852134628
  0
LINE
  8
_2-7_ビス
  6
CONTINUOUS
 62
    7
 10
836.69689851394867
 20
988.25898852134628
 11
836.45497476394883
 21
987.85137401282554
  0
LINE
  8
_2-7_ビス
  6
CONTINUOUS
 62
    7
 10
836.45497476394883
 20
987.85137401282554
 11
836.49511776394991
 21
987.85137401282554
  0
LINE
  8
_2-7_ビス
  6
CONTINUOUS
 62
    7
 10
836.49511776394991
 20
987.85137401282554
 11
836.49511776394991
 21
986.03733892622586
  0
LINE
  8
_2-7_ビス
  6
CONTINUOUS
 62
    7
 10
836.49511776394991
 20
986.03733892622586
 11
836.06210520338198
 21
985.2127775232259
  0
LINE
  8
_2-7_ビス
  6
CONTINUOUS
 62
    7
 10
836.19200901394936
 20
984.96540910232511
 11
837.17011776394872
 21
984.96540910232511
  0
LINE
  8
_2-7_ビス
  6
CONTINUOUS
 62
    7
 10
837.17011776394872
 20
984.96540910232511
 11
837.17011776394872
 21
980.73201850844612
  0
LINE
  8
_2-7_ビス
  6
CONTINUOUS
 62
    7
 10
837.17011776394872
 20
980.73201850844612
 11
836.66864826394874
 21
979.77067226342569
  0
LINE
  8
_2-7_ビス
  6
CONTINUOUS
 62
    7
 10
836.66864826394874
 20
979.77067226342569
 11
836.66386776394904
 21
979.77067226342569
  0
LINE
  8
_2-7_ビス
  6
CONTINUOUS
 62
    7
 10
836.66386359066439
 20
979.77067261720777
 11
836.66386776394904
 21
979.77067226342569
  0
LINE
  8
_2-7_ビス
  6
CONTINUOUS
 62
    7
 10
836.66386359066439
 20
979.77067261720777
 11
836.66386776394904
 21
979.77067226342569
  0
LINE
  8
_2-7_ビス
  6
CONTINUOUS
 62
    7
 10
836.63127651394905
 20
978.69874243952609
 11
837.17011776394872
 21
978.69874243952609
  0
LINE
  8
_2-7_ビス
  6
CONTINUOUS
 62
    7
 10
837.17011776394872
 20
978.69874243952609
 11
837.17011776394872
 21
972.90150930275217
  0
LINE
  8
_2-7_ビス
  6
CONTINUOUS
 62
    7
 10
837.17011776394872
 20
972.90150930275217
 11
836.66387057688883
 21
971.93735793298742
  0
LINE
  8
_2-7_ビス
  6
CONTINUOUS
 62
    7
 10
836.66386776394904
 20
971.93733893492549
 11
836.66027613359336
 21
972.41479033216592
  0
LINE
  8
_2-7_ビス
  6
CONTINUOUS
 62
    7
 10
836.66027613359336
 20
972.41479033216592
 11
836.33959612596971
 21
972.43207577672592
  0
LINE
  8
_2-7_ビス
  6
CONTINUOUS
 62
    7
 10
836.18093408580182
 20
972.67944419762557
 11
836.63127651394905
 21
973.50400560062553
  0
LINE
  8
_2-7_ビス
  6
CONTINUOUS
 62
    7
 10
836.63127651394905
 20
973.50400560062553
 11
836.63127666607227
 21
973.98145706962055
  0
LINE
  8
_2-7_ビス
  6
CONTINUOUS
 62
    7
 10
836.63127666607227
 20
973.98145706962055
 11
836.28324426395
 21
973.99874244242596
  0
LINE
  8
_2-7_ビス
  6
CONTINUOUS
 62
    7
 10
836.12365451422863
 20
974.24611086332561
 11
836.63127651394905
 21
975.07067226632557
  0
LINE
  8
_2-7_ビス
  6
CONTINUOUS
 62
    7
 10
836.63127651394905
 20
975.07067226632557
 11
836.63127651394905
 21
975.54812382743421
  0
LINE
  8
_2-7_ビス
  6
CONTINUOUS
 62
    7
 10
836.63127651394905
 20
975.54812382743421
 11
836.28324426395
 21
975.565409108126
  0
LINE
  8
_2-7_ビス
  6
CONTINUOUS
 62
    7
 10
836.12365451422863
 20
975.81277752902565
 11
836.63127651394905
 21
976.63733893202561
  0
LINE
  8
_2-7_ビス
  6
CONTINUOUS
 62
    7
 10
836.63127651394905
 20
976.63733893202561
 11
836.63127651394905
 21
977.11479049313425
  0
LINE
  8
_2-7_ビス
  6
CONTINUOUS
 62
    7
 10
836.63127651394905
 20
977.11479049313425
 11
836.28324426395
 21
977.13207577382605
  0
LINE
  8
_2-7_ビス
  6
CONTINUOUS
 62
    7
 10
836.12365451422863
 20
977.37944419472569
 11
836.63127666607227
 21
978.20400559772565
  0
LINE
  8
_2-7_ビス
  6
CONTINUOUS
 62
    7
 10
836.63127666607227
 20
978.20400559772565
 11
836.63127651394905
 21
978.69874243952609
  0
LINE
  8
_2-7_ビス
  6
CONTINUOUS
 62
    7
 10
836.66386359066439
 20
979.77067261720777
 11
836.660178389419
 21
980.24812408620164
  0
LINE
  8
_2-7_ビス
  6
CONTINUOUS
 62
    7
 10
836.660178389419
 20
980.24812408620164
 11
836.34273351394984
 21
980.26540910522613
  0
LINE
  8
_2-7_ビス
  6
CONTINUOUS
 62
    7
 10
836.1806413736291
 20
980.51277752612577
 11
836.63127666607227
 21
981.33733892912574
  0
LINE
  8
_2-7_ビス
  6
CONTINUOUS
 62
    7
 10
836.63127666607227
 20
981.33733892912574
 11
836.63127666607227
 21
981.81479039811961
  0
LINE
  8
_2-7_ビス
  6
CONTINUOUS
 62
    7
 10
836.63127666607227
 20
981.81479039811961
 11
836.28324426395
 21
981.83207577092617
  0
LINE
  8
_2-7_ビス
  6
CONTINUOUS
 62
    7
 10
836.12365451422863
 20
982.07944419182581
 11
836.63127651394905
 21
982.90400559482578
  0
LINE
  8
_2-7_ビス
  6
CONTINUOUS
 62
    7
 10
836.63127651394905
 20
982.90400559482578
 11
836.63127666607227
 21
983.38145706381965
  0
LINE
  8
_2-7_ビス
  6
CONTINUOUS
 62
    7
 10
836.63127666607227
 20
983.38145706381965
 11
836.28235817146094
 21
983.39897401778558
  0
LINE
  8
_2-7_ビス
  6
CONTINUOUS
 62
    7
 10
836.12365451422863
 20
983.64611085752585
 11
836.63127666607227
 21
984.47067226052582
  0
LINE
  8
_2-7_ビス
  6
CONTINUOUS
 62
    7
 10
836.63127666607227
 20
984.47067226052582
 11
836.63127650844206
 21
984.96540910232511
  0
LINE
  8
_2-7_ビス
  6
CONTINUOUS
 62
    7
 10
836.63127651394905
 20
970.86540911102588
 11
837.17011776394872
 21
970.86540911102588
  0
LINE
  8
_2-7_ビス
  6
CONTINUOUS
 62
    7
 10
837.17011776394872
 20
970.86540911102588
 11
837.17011776394872
 21
967.61716737618826
  0
LINE
  8
_2-7_ビス
  6
CONTINUOUS
 62
    7
 10
837.17011776394872
 20
967.61716737618826
 11
836.66433201394955
 21
964.10400560642529
  0
LINE
  8
_2-7_ビス
  6
CONTINUOUS
 62
    7
 10
836.66433201394955
 20
964.10400560642529
 11
836.66359749628543
 21
964.58145669056648
  0
LINE
  8
_2-7_ビス
  6
CONTINUOUS
 62
    7
 10
836.66359749628543
 20
964.58145669056648
 11
836.35490901394849
 21
964.59874244822572
  0
LINE
  8
_2-7_ビス
  6
CONTINUOUS
 62
    7
 10
836.66433201394955
 20
964.10400560642529
 11
836.23085520338225
 21
963.27944420342533
  0
LINE
  8
_2-7_ビス
  6
CONTINUOUS
 62
    7
 10
836.21035244916118
 20
964.84611086912537
 11
836.66095478262139
 21
965.67067227212533
  0
LINE
  8
_2-7_ビス
  6
CONTINUOUS
 62
    7
 10
836.66095478262139
 20
965.67067227212533
 11
836.6588698783595
 21
966.14812335626539
  0
LINE
  8
_2-7_ビス
  6
CONTINUOUS
 62
    7
 10
836.6588698783595
 20
966.14812335626539
 11
836.33654301394915
 21
966.16540911392576
  0
LINE
  8
_2-7_ビス
  6
CONTINUOUS
 62
    7
 10
836.18803751813164
 20
966.41277753482541
 11
836.65190537745491
 21
967.23733855297155
  0
LINE
  8
_2-7_ビス
  6
CONTINUOUS
 62
    7
 10
836.65190537745491
 20
967.23733855297155
 11
836.6478425367585
 21
967.71479002196656
  0
LINE
  8
_2-7_ビス
  6
CONTINUOUS
 62
    7
 10
836.6478425367585
 20
967.71479002196656
 11
836.31318918149066
 21
967.7320757796258
  0
LINE
  8
_2-7_ビス
  6
CONTINUOUS
 62
    7
 10
836.15593456532213
 20
967.97944420052545
 11
836.63613718952763
 21
968.80400521867159
  0
LINE
  8
_2-7_ビス
  6
CONTINUOUS
 62
    7
 10
836.63613718952763
 20
968.80400521867159
 11
836.63127651394905
 21
969.28145716463405
  0
LINE
  8
_2-7_ビス
  6
CONTINUOUS
 62
    7
 10
836.63127651394905
 20
969.28145716463405
 11
836.28324426395
 21
969.29874244532584
  0
LINE
  8
_2-7_ビス
  6
CONTINUOUS
 62
    7
 10
836.12365451422863
 20
969.54611086622549
 11
836.63127666607227
 21
970.37067226922545
  0
LINE
  8
_2-7_ビス
  6
CONTINUOUS
 62
    7
 10
836.63127666607227
 20
970.37067226922545
 11
836.63127651394905
 21
970.86540911102588
  0
LINE
  8
_2-7_ビス
  6
CONTINUOUS
 62
    7
 10
836.3607590139485
 20
963.03207578252568
 11
836.49511776394991
 21
963.03207578252568
  0
LINE
  8
_2-7_ビス
  6
CONTINUOUS
 62
    7
 10
836.49511776394991
 20
963.03207578252568
 11
836.49511776394991
 21
962.24874244967509
  0
LINE
  8
_2-7_ビス
  6
CONTINUOUS
 62
    7
 10
836.49511776394991
 20
962.24874244967509
 11
836.34511776394891
 21
962.24874244967509
  0
LINE
  8
_2-7_ビス
  6
CONTINUOUS
 62
    7
 10
836.34511776394891
 20
962.24874244967509
 11
836.34511776394891
 21
960.64084771382568
  0
LINE
  8
_2-7_ビス
  6
CONTINUOUS
 62
    7
 10
836.34511776394891
 20
960.64084771382568
 11
836.3386509531482
 21
960.64084771382568
  0
LINE
  8
_2-7_ビス
  6
CONTINUOUS
 62
    7
 10
836.2883757639496
 20
960.31102315262615
 11
836.28837561741068
 21
954.36058155980618
  0
LINE
  8
_2-7_ビス
  6
CONTINUOUS
 62
    7
 10
836.28837561741068
 20
954.36058155980618
 11
835.84793826394946
 21
953.70916073564672
  0
LINE
  8
_2-7_ビス
  6
CONTINUOUS
 62
    7
 10
835.84793826394946
 20
953.70916073564672
 11
834.84511776394913
 21
952.39523368382606
  0
LINE
  8
_2-7_ビス
  6
CONTINUOUS
 62
    7
 10
834.84511776394913
 20
952.39523368382606
 11
834.69573928445459
 21
952.39523368382606
  0
LINE
  8
_2-7_ビス
  6
CONTINUOUS
 62
    7
 10
834.69573928445459
 20
952.39523368382606
 11
835.78083339376906
 21
954.36058155980618
  0
LINE
  8
_2-7_ビス
  6
CONTINUOUS
 62
    7
 10
835.78083339376906
 20
954.36058155980618
 11
835.78083351394969
 21
958.33207578542556
  0
LINE
  8
_2-7_ビス
  6
CONTINUOUS
 62
    7
 10
835.19747001394978
 20
958.33207578542556
 11
835.19747028738141
 21
954.36058171250465
  0
LINE
  8
_2-7_ビス
  6
CONTINUOUS
 62
    7
 10
835.19747028738141
 20
954.36058171250465
 11
834.11237592214877
 21
952.39523368382606
  0
LINE
  8
_2-7_ビス
  6
CONTINUOUS
 62
    7
 10
834.11237592214877
 20
952.39523368382606
 11
833.49511776394922
 21
952.39523368382606
  0
LINE
  8
_2-7_ビス
  6
CONTINUOUS
 62
    7
 10
836.07281786903241
 20
985.23317693589127
 11
836.07281786903241
 21
985.23317693589127
  0
LINE
  8
_2-7_ビス
  6
CONTINUOUS
 62
    7
 10
836.07281786903241
 20
985.23317693589127
 11
836.05961974367756
 21
985.20691758051464
  0
LINE
  8
_2-7_ビス
  6
CONTINUOUS
 62
    7
 10
836.05961974367756
 20
985.20691758051464
 11
836.05076968630613
 21
985.17853749054575
  0
LINE
  8
_2-7_ビス
  6
CONTINUOUS
 62
    7
 10
836.05076968630613
 20
985.17853749054575
 11
836.04653660143299
 21
985.14889898065735
  0
LINE
  8
_2-7_ビス
  6
CONTINUOUS
 62
    7
 10
836.04653660143299
 20
985.14889898065735
 11
836.0470491092002
 21
985.11890260197436
  0
LINE
  8
_2-7_ビス
  6
CONTINUOUS
 62
    7
 10
836.0470491092002
 20
985.11890260197436
 11
836.05229163731838
 21
985.08945977928443
  0
LINE
  8
_2-7_ビス
  6
CONTINUOUS
 62
    7
 10
836.05229163731838
 20
985.08945977928443
 11
836.06210489422358
 21
985.06146511785607
  0
LINE
  8
_2-7_ビス
  6
CONTINUOUS
 62
    7
 10
836.06210489422358
 20
985.06146511785607
 11
836.07619070907049
 21
985.03576922131083
  0
LINE
  8
_2-7_ビス
  6
CONTINUOUS
 62
    7
 10
836.07619070907049
 20
985.03576922131083
 11
836.09412109150276
 21
985.0131528464625
  0
LINE
  8
_2-7_ビス
  6
CONTINUOUS
 62
    7
 10
836.09412109150276
 20
985.0131528464625
 11
836.1153512359233
 21
984.99430318041641
  0
LINE
  8
_2-7_ビス
  6
CONTINUOUS
 62
    7
 10
836.1153512359233
 20
984.99430318041641
 11
836.13923607513698
 21
984.97979296073686
  0
LINE
  8
_2-7_ビス
  6
CONTINUOUS
 62
    7
 10
836.13923607513698
 20
984.97979296073686
 11
836.1650498803906
 21
984.97006307310653
  0
LINE
  8
_2-7_ビス
  6
CONTINUOUS
 62
    7
 10
836.1650498803906
 20
984.97006307310653
 11
836.19200831227386
 21
984.96540915523724
  0
LINE
  8
_2-7_ビス
  6
CONTINUOUS
 62
    7
 10
836.19200831227386
 20
984.96540915523724
 11
836.19200901394936
 21
984.96540910232511
  0
LINE
  8
_2-7_ビス
  6
CONTINUOUS
 62
    7
 10
836.12365451422795
 20
983.64611085752551
 11
836.12365451422795
 21
983.64611085752551
  0
LINE
  8
_2-7_ビス
  6
CONTINUOUS
 62
    7
 10
836.12365451422795
 20
983.64611085752551
 11
836.12298340864083
 21
983.60615270353719
  0
LINE
  8
_2-7_ビス
  6
CONTINUOUS
 62
    7
 10
836.12298340864083
 20
983.60615270353719
 11
836.12863372720494
 21
983.56667348195492
  0
LINE
  8
_2-7_ビス
  6
CONTINUOUS
 62
    7
 10
836.12863372720494
 20
983.56667348195492
 11
836.1404337878497
 21
983.52887274894908
  0
LINE
  8
_2-7_ビス
  6
CONTINUOUS
 62
    7
 10
836.1404337878497
 20
983.52887274894908
 11
836.15802505170359
 21
983.49389906066392
  0
LINE
  8
_2-7_ビス
  6
CONTINUOUS
 62
    7
 10
836.15802505170359
 20
983.49389906066392
 11
836.18087301711614
 21
983.4628150749204
  0
LINE
  8
_2-7_ビス
  6
CONTINUOUS
 62
    7
 10
836.18087301711614
 20
983.4628150749204
 11
836.20828346021995
 21
983.43656526289612
  0
LINE
  8
_2-7_ビス
  6
CONTINUOUS
 62
    7
 10
836.20828346021995
 20
983.43656526289612
 11
836.23942352857136
 21
983.4159472118464
  0
LINE
  8
_2-7_ビス
  6
CONTINUOUS
 62
    7
 10
836.23942352857136
 20
983.4159472118464
 11
836.27334704695147
 21
983.40158739081915
  0
LINE
  8
_2-7_ビス
  6
CONTINUOUS
 62
    7
 10
836.27334704695147
 20
983.40158739081915
 11
836.28324426394863
 21
983.39874243662553
  0
LINE
  8
_2-7_ビス
  6
CONTINUOUS
 62
    7
 10
836.12365451422795
 20
982.07944419182547
 11
836.12365451422795
 21
982.07944419182547
  0
LINE
  8
_2-7_ビス
  6
CONTINUOUS
 62
    7
 10
836.12365451422795
 20
982.07944419182547
 11
836.12298340864083
 21
982.03948603783715
  0
LINE
  8
_2-7_ビス
  6
CONTINUOUS
 62
    7
 10
836.12298340864083
 20
982.03948603783715
 11
836.12863372720494
 21
982.00000681625488
  0
LINE
  8
_2-7_ビス
  6
CONTINUOUS
 62
    7
 10
836.12863372720494
 20
982.00000681625488
 11
836.1404337878497
 21
981.96220608324904
  0
LINE
  8
_2-7_ビス
  6
CONTINUOUS
 62
    7
 10
836.1404337878497
 20
981.96220608324904
 11
836.15802505170359
 21
981.92723239496388
  0
LINE
  8
_2-7_ビス
  6
CONTINUOUS
 62
    7
 10
836.15802505170359
 20
981.92723239496388
 11
836.18087301711614
 21
981.89614840922036
  0
LINE
  8
_2-7_ビス
  6
CONTINUOUS
 62
    7
 10
836.18087301711614
 20
981.89614840922036
 11
836.20828346021995
 21
981.86989859719608
  0
LINE
  8
_2-7_ビス
  6
CONTINUOUS
 62
    7
 10
836.20828346021995
 20
981.86989859719608
 11
836.23942352857136
 21
981.84928054614636
  0
LINE
  8
_2-7_ビス
  6
CONTINUOUS
 62
    7
 10
836.23942352857136
 20
981.84928054614636
 11
836.27334704695147
 21
981.8349207251191
  0
LINE
  8
_2-7_ビス
  6
CONTINUOUS
 62
    7
 10
836.27334704695147
 20
981.8349207251191
 11
836.28324426394863
 21
981.83207577092548
  0
LINE
  8
_2-7_ビス
  6
CONTINUOUS
 62
    7
 10
836.18064137362956
 20
980.51277752612543
 11
836.18064137362956
 21
980.51277752612543
  0
LINE
  8
_2-7_ビス
  6
CONTINUOUS
 62
    7
 10
836.18064137362956
 20
980.51277752612543
 11
836.17997026804244
 21
980.47281937213711
  0
LINE
  8
_2-7_ビス
  6
CONTINUOUS
 62
    7
 10
836.17997026804244
 20
980.47281937213711
 11
836.18562058660655
 21
980.43334015055484
  0
LINE
  8
_2-7_ビス
  6
CONTINUOUS
 62
    7
 10
836.18562058660655
 20
980.43334015055484
 11
836.19742064725131
 21
980.395539417549
  0
LINE
  8
_2-7_ビス
  6
CONTINUOUS
 62
    7
 10
836.19742064725131
 20
980.395539417549
 11
836.21501191110519
 21
980.36056572926384
  0
LINE
  8
_2-7_ビス
  6
CONTINUOUS
 62
    7
 10
836.21501191110519
 20
980.36056572926384
 11
836.23785987651775
 21
980.32948174352032
  0
LINE
  8
_2-7_ビス
  6
CONTINUOUS
 62
    7
 10
836.23785987651775
 20
980.32948174352032
 11
836.26527031962155
 21
980.30323193149604
  0
LINE
  8
_2-7_ビス
  6
CONTINUOUS
 62
    7
 10
836.26527031962155
 20
980.30323193149604
 11
836.29641038797297
 21
980.28261388044632
  0
LINE
  8
_2-7_ビス
  6
CONTINUOUS
 62
    7
 10
836.29641038797297
 20
980.28261388044632
 11
836.33033390635308
 21
980.26825405941906
  0
LINE
  8
_2-7_ビス
  6
CONTINUOUS
 62
    7
 10
836.33033390635308
 20
980.26825405941906
 11
836.34023112335024
 21
980.26540910522544
  0
LINE
  8
_2-7_ビス
  6
CONTINUOUS
 62
    7
 10
836.12365451422795
 20
977.37944419472535
 11
836.12365451422795
 21
977.37944419472535
  0
LINE
  8
_2-7_ビス
  6
CONTINUOUS
 62
    7
 10
836.12365451422795
 20
977.37944419472535
 11
836.12298340864083
 21
977.33948604073703
  0
LINE
  8
_2-7_ビス
  6
CONTINUOUS
 62
    7
 10
836.12298340864083
 20
977.33948604073703
 11
836.12863372720494
 21
977.30000681915476
  0
LINE
  8
_2-7_ビス
  6
CONTINUOUS
 62
    7
 10
836.12863372720494
 20
977.30000681915476
 11
836.1404337878497
 21
977.26220608614892
  0
LINE
  8
_2-7_ビス
  6
CONTINUOUS
 62
    7
 10
836.1404337878497
 20
977.26220608614892
 11
836.15802505170359
 21
977.22723239786376
  0
LINE
  8
_2-7_ビス
  6
CONTINUOUS
 62
    7
 10
836.15802505170359
 20
977.22723239786376
 11
836.18087301711614
 21
977.19614841212024
  0
LINE
  8
_2-7_ビス
  6
CONTINUOUS
 62
    7
 10
836.18087301711614
 20
977.19614841212024
 11
836.20828346021995
 21
977.16989860009596
  0
LINE
  8
_2-7_ビス
  6
CONTINUOUS
 62
    7
 10
836.20828346021995
 20
977.16989860009596
 11
836.23942352857136
 21
977.14928054904624
  0
LINE
  8
_2-7_ビス
  6
CONTINUOUS
 62
    7
 10
836.23942352857136
 20
977.14928054904624
 11
836.27334704695147
 21
977.13492072801898
  0
LINE
  8
_2-7_ビス
  6
CONTINUOUS
 62
    7
 10
836.27334704695147
 20
977.13492072801898
 11
836.28324426394863
 21
977.13207577382536
  0
LINE
  8
_2-7_ビス
  6
CONTINUOUS
 62
    7
 10
836.12365451422795
 20
975.81277752902531
 11
836.12365451422795
 21
975.81277752902531
  0
LINE
  8
_2-7_ビス
  6
CONTINUOUS
 62
    7
 10
836.12365451422795
 20
975.81277752902531
 11
836.12298340864083
 21
975.77281937503699
  0
LINE
  8
_2-7_ビス
  6
CONTINUOUS
 62
    7
 10
836.12298340864083
 20
975.77281937503699
 11
836.12863372720494
 21
975.73334015345472
  0
LINE
  8
_2-7_ビス
  6
CONTINUOUS
 62
    7
 10
836.12863372720494
 20
975.73334015345472
 11
836.1404337878497
 21
975.69553942044888
  0
LINE
  8
_2-7_ビス
  6
CONTINUOUS
 62
    7
 10
836.1404337878497
 20
975.69553942044888
 11
836.15802505170359
 21
975.66056573216372
  0
LINE
  8
_2-7_ビス
  6
CONTINUOUS
 62
    7
 10
836.15802505170359
 20
975.66056573216372
 11
836.18087301711614
 21
975.6294817464202
  0
LINE
  8
_2-7_ビス
  6
CONTINUOUS
 62
    7
 10
836.18087301711614
 20
975.6294817464202
 11
836.20828346021995
 21
975.60323193439592
  0
LINE
  8
_2-7_ビス
  6
CONTINUOUS
 62
    7
 10
836.20828346021995
 20
975.60323193439592
 11
836.23942352857136
 21
975.5826138833462
  0
LINE
  8
_2-7_ビス
  6
CONTINUOUS
 62
    7
 10
836.23942352857136
 20
975.5826138833462
 11
836.27334704695147
 21
975.56825406231894
  0
LINE
  8
_2-7_ビス
  6
CONTINUOUS
 62
    7
 10
836.27334704695147
 20
975.56825406231894
 11
836.28324426394863
 21
975.56540910812532
  0
LINE
  8
_2-7_ビス
  6
CONTINUOUS
 62
    7
 10
836.12365451422795
 20
974.24611086332527
 11
836.12365451422795
 21
974.24611086332527
  0
LINE
  8
_2-7_ビス
  6
CONTINUOUS
 62
    7
 10
836.12365451422795
 20
974.24611086332527
 11
836.12298340864083
 21
974.20615270933695
  0
LINE
  8
_2-7_ビス
  6
CONTINUOUS
 62
    7
 10
836.12298340864083
 20
974.20615270933695
 11
836.12863372720494
 21
974.16667348775468
  0
LINE
  8
_2-7_ビス
  6
CONTINUOUS
 62
    7
 10
836.12863372720494
 20
974.16667348775468
 11
836.1404337878497
 21
974.12887275474884
  0
LINE
  8
_2-7_ビス
  6
CONTINUOUS
 62
    7
 10
836.1404337878497
 20
974.12887275474884
 11
836.15802505170359
 21
974.09389906646368
  0
LINE
  8
_2-7_ビス
  6
CONTINUOUS
 62
    7
 10
836.15802505170359
 20
974.09389906646368
 11
836.18087301711614
 21
974.06281508072016
  0
LINE
  8
_2-7_ビス
  6
CONTINUOUS
 62
    7
 10
836.18087301711614
 20
974.06281508072016
 11
836.20828346021995
 21
974.03656526869588
  0
LINE
  8
_2-7_ビス
  6
CONTINUOUS
 62
    7
 10
836.20828346021995
 20
974.03656526869588
 11
836.23942352857136
 21
974.01594721764616
  0
LINE
  8
_2-7_ビス
  6
CONTINUOUS
 62
    7
 10
836.23942352857136
 20
974.01594721764616
 11
836.27334704695147
 21
974.0015873966189
  0
LINE
  8
_2-7_ビス
  6
CONTINUOUS
 62
    7
 10
836.27334704695147
 20
974.0015873966189
 11
836.28324426394863
 21
973.99874244242528
  0
LINE
  8
_2-7_ビス
  6
CONTINUOUS
 62
    7
 10
836.18093408580228
 20
972.67944419762523
 11
836.18093408580228
 21
972.67944419762523
  0
LINE
  8
_2-7_ビス
  6
CONTINUOUS
 62
    7
 10
836.18093408580228
 20
972.67944419762523
 11
836.18026298021516
 21
972.63948604363691
  0
LINE
  8
_2-7_ビス
  6
CONTINUOUS
 62
    7
 10
836.18026298021516
 20
972.63948604363691
 11
836.18591329877927
 21
972.60000682205464
  0
LINE
  8
_2-7_ビス
  6
CONTINUOUS
 62
    7
 10
836.18591329877927
 20
972.60000682205464
 11
836.19771335942403
 21
972.5622060890488
  0
LINE
  8
_2-7_ビス
  6
CONTINUOUS
 62
    7
 10
836.19771335942403
 20
972.5622060890488
 11
836.21530462327792
 21
972.52723240076364
  0
LINE
  8
_2-7_ビス
  6
CONTINUOUS
 62
    7
 10
836.21530462327792
 20
972.52723240076364
 11
836.23815258869047
 21
972.49614841502012
  0
LINE
  8
_2-7_ビス
  6
CONTINUOUS
 62
    7
 10
836.23815258869047
 20
972.49614841502012
 11
836.26556303179427
 21
972.46989860299584
  0
LINE
  8
_2-7_ビス
  6
CONTINUOUS
 62
    7
 10
836.26556303179427
 20
972.46989860299584
 11
836.29670310014569
 21
972.44928055194612
  0
LINE
  8
_2-7_ビス
  6
CONTINUOUS
 62
    7
 10
836.29670310014569
 20
972.44928055194612
 11
836.3306266185258
 21
972.43492073091886
  0
LINE
  8
_2-7_ビス
  6
CONTINUOUS
 62
    7
 10
836.3306266185258
 20
972.43492073091886
 11
836.34052383552296
 21
972.43207577672524
  0
LINE
  8
_2-7_ビス
  6
CONTINUOUS
 62
    7
 10
836.12365451422795
 20
969.54611086622515
 11
836.12365451422795
 21
969.54611086622515
  0
LINE
  8
_2-7_ビス
  6
CONTINUOUS
 62
    7
 10
836.12365451422795
 20
969.54611086622515
 11
836.12298340864083
 21
969.50615271223683
  0
LINE
  8
_2-7_ビス
  6
CONTINUOUS
 62
    7
 10
836.12298340864083
 20
969.50615271223683
 11
836.12863372720494
 21
969.46667349065456
  0
LINE
  8
_2-7_ビス
  6
CONTINUOUS
 62
    7
 10
836.12863372720494
 20
969.46667349065456
 11
836.1404337878497
 21
969.42887275764872
  0
LINE
  8
_2-7_ビス
  6
CONTINUOUS
 62
    7
 10
836.1404337878497
 20
969.42887275764872
 11
836.15802505170359
 21
969.39389906936356
  0
LINE
  8
_2-7_ビス
  6
CONTINUOUS
 62
    7
 10
836.15802505170359
 20
969.39389906936356
 11
836.18087301711614
 21
969.36281508362003
  0
LINE
  8
_2-7_ビス
  6
CONTINUOUS
 62
    7
 10
836.18087301711614
 20
969.36281508362003
 11
836.20828346021995
 21
969.33656527159576
  0
LINE
  8
_2-7_ビス
  6
CONTINUOUS
 62
    7
 10
836.20828346021995
 20
969.33656527159576
 11
836.23942352857136
 21
969.31594722054604
  0
LINE
  8
_2-7_ビス
  6
CONTINUOUS
 62
    7
 10
836.23942352857136
 20
969.31594722054604
 11
836.27334704695147
 21
969.30158739951878
  0
LINE
  8
_2-7_ビス
  6
CONTINUOUS
 62
    7
 10
836.27334704695147
 20
969.30158739951878
 11
836.28324426394863
 21
969.29874244532516
  0
LINE
  8
_2-7_ビス
  6
CONTINUOUS
 62
    7
 10
836.15593456532258
 20
967.97944420052511
 11
836.15593456532258
 21
967.97944420052511
  0
LINE
  8
_2-7_ビス
  6
CONTINUOUS
 62
    7
 10
836.15593456532258
 20
967.97944420052511
 11
836.15526345973547
 21
967.93948604653679
  0
LINE
  8
_2-7_ビス
  6
CONTINUOUS
 62
    7
 10
836.15526345973547
 20
967.93948604653679
 11
836.16091377829957
 21
967.90000682495452
  0
LINE
  8
_2-7_ビス
  6
CONTINUOUS
 62
    7
 10
836.16091377829957
 20
967.90000682495452
 11
836.17271383894433
 21
967.86220609194868
  0
LINE
  8
_2-7_ビス
  6
CONTINUOUS
 62
    7
 10
836.17271383894433
 20
967.86220609194868
 11
836.19030510279822
 21
967.82723240366352
  0
LINE
  8
_2-7_ビス
  6
CONTINUOUS
 62
    7
 10
836.19030510279822
 20
967.82723240366352
 11
836.21315306821077
 21
967.79614841791999
  0
LINE
  8
_2-7_ビス
  6
CONTINUOUS
 62
    7
 10
836.21315306821077
 20
967.79614841791999
 11
836.24056351131458
 21
967.76989860589572
  0
LINE
  8
_2-7_ビス
  6
CONTINUOUS
 62
    7
 10
836.24056351131458
 20
967.76989860589572
 11
836.271703579666
 21
967.749280554846
  0
LINE
  8
_2-7_ビス
  6
CONTINUOUS
 62
    7
 10
836.271703579666
 20
967.749280554846
 11
836.3056270980461
 21
967.73492073381874
  0
LINE
  8
_2-7_ビス
  6
CONTINUOUS
 62
    7
 10
836.3056270980461
 20
967.73492073381874
 11
836.31552431504326
 21
967.73207577962512
  0
LINE
  8
_2-7_ビス
  6
CONTINUOUS
 62
    7
 10
836.18803751813095
 20
966.41277753482507
 11
836.18803751813095
 21
966.41277753482507
  0
LINE
  8
_2-7_ビス
  6
CONTINUOUS
 62
    7
 10
836.18803751813095
 20
966.41277753482507
 11
836.18736641254384
 21
966.37281938083675
  0
LINE
  8
_2-7_ビス
  6
CONTINUOUS
 62
    7
 10
836.18736641254384
 20
966.37281938083675
 11
836.19301673110795
 21
966.33334015925448
  0
LINE
  8
_2-7_ビス
  6
CONTINUOUS
 62
    7
 10
836.19301673110795
 20
966.33334015925448
 11
836.20481679175271
 21
966.29553942624864
  0
LINE
  8
_2-7_ビス
  6
CONTINUOUS
 62
    7
 10
836.20481679175271
 20
966.29553942624864
 11
836.22240805560659
 21
966.26056573796347
  0
LINE
  8
_2-7_ビス
  6
CONTINUOUS
 62
    7
 10
836.22240805560659
 20
966.26056573796347
 11
836.24525602101915
 21
966.22948175221995
  0
LINE
  8
_2-7_ビス
  6
CONTINUOUS
 62
    7
 10
836.24525602101915
 20
966.22948175221995
 11
836.27266646412295
 21
966.20323194019568
  0
LINE
  8
_2-7_ビス
  6
CONTINUOUS
 62
    7
 10
836.27266646412295
 20
966.20323194019568
 11
836.30380653247437
 21
966.18261388914595
  0
LINE
  8
_2-7_ビス
  6
CONTINUOUS
 62
    7
 10
836.30380653247437
 20
966.18261388914595
 11
836.33773005085447
 21
966.1682540681187
  0
LINE
  8
_2-7_ビス
  6
CONTINUOUS
 62
    7
 10
836.33773005085447
 20
966.1682540681187
 11
836.34762726785164
 21
966.16540911392508
  0
LINE
  8
_2-7_ビス
  6
CONTINUOUS
 62
    7
 10
836.2103524491605
 20
964.84611086912616
 11
836.2103524491605
 21
964.84611086912616
  0
LINE
  8
_2-7_ビス
  6
CONTINUOUS
 62
    7
 10
836.2103524491605
 20
964.84611086912616
 11
836.20968134357338
 21
964.80615271513784
  0
LINE
  8
_2-7_ビス
  6
CONTINUOUS
 62
    7
 10
836.20968134357338
 20
964.80615271513784
 11
836.21533166213749
 21
964.76667349355557
  0
LINE
  8
_2-7_ビス
  6
CONTINUOUS
 62
    7
 10
836.21533166213749
 20
964.76667349355557
 11
836.22713172278225
 21
964.72887276054973
  0
LINE
  8
_2-7_ビス
  6
CONTINUOUS
 62
    7
 10
836.22713172278225
 20
964.72887276054973
 11
836.24472298663613
 21
964.69389907226457
  0
LINE
  8
_2-7_ビス
  6
CONTINUOUS
 62
    7
 10
836.24472298663613
 20
964.69389907226457
 11
836.26757095204869
 21
964.66281508652105
  0
LINE
  8
_2-7_ビス
  6
CONTINUOUS
 62
    7
 10
836.26757095204869
 20
964.66281508652105
 11
836.29498139515249
 21
964.63656527449677
  0
LINE
  8
_2-7_ビス
  6
CONTINUOUS
 62
    7
 10
836.29498139515249
 20
964.63656527449677
 11
836.32612146350391
 21
964.61594722344705
  0
LINE
  8
_2-7_ビス
  6
CONTINUOUS
 62
    7
 10
836.32612146350391
 20
964.61594722344705
 11
836.36004498188402
 21
964.6015874024198
  0
LINE
  8
_2-7_ビス
  6
CONTINUOUS
 62
    7
 10
836.36004498188402
 20
964.6015874024198
 11
836.36994219888118
 21
964.59874244822618
  0
LINE
  8
_2-7_ビス
  6
CONTINUOUS
 62
    7
 10
836.24385502809503
 20
963.30417252439543
 11
836.24385502809503
 21
963.30417252439543
  0
LINE
  8
_2-7_ビス
  6
CONTINUOUS
 62
    7
 10
836.24385502809503
 20
963.30417252439543
 11
836.23019287634497
 21
963.27788452241828
  0
LINE
  8
_2-7_ビス
  6
CONTINUOUS
 62
    7
 10
836.23019287634497
 20
963.27788452241828
 11
836.22089036679654
 21
963.24938763310467
  0
LINE
  8
_2-7_ビス
  6
CONTINUOUS
 62
    7
 10
836.22089036679654
 20
963.24938763310467
 11
836.2162301514951
 21
963.21954772001641
  0
LINE
  8
_2-7_ビス
  6
CONTINUOUS
 62
    7
 10
836.2162301514951
 20
963.21954772001641
 11
836.21635382872432
 21
963.18927145381281
  0
LINE
  8
_2-7_ビス
  6
CONTINUOUS
 62
    7
 10
836.21635382872432
 20
963.18927145381281
 11
836.22125764061411
 21
963.15947876352197
  0
LINE
  8
_2-7_ビス
  6
CONTINUOUS
 62
    7
 10
836.22125764061411
 20
963.15947876352197
 11
836.23079258732184
 21
963.13107488496246
  0
LINE
  8
_2-7_ビス
  6
CONTINUOUS
 62
    7
 10
836.23079258732184
 20
963.13107488496246
 11
836.24466895431658
 21
963.10492285561156
  0
LINE
  8
_2-7_ビス
  6
CONTINUOUS
 62
    7
 10
836.24466895431658
 20
963.10492285561156
 11
836.2624651152089
 21
963.08181729164721
  0
LINE
  8
_2-7_ビス
  6
CONTINUOUS
 62
    7
 10
836.2624651152089
 20
963.08181729164721
 11
836.28364034265564
 21
963.06246024393863
  0
LINE
  8
_2-7_ビス
  6
CONTINUOUS
 62
    7
 10
836.28364034265564
 20
963.06246024393863
 11
836.30755123808581
 21
963.04743986658525
  0
LINE
  8
_2-7_ビス
  6
CONTINUOUS
 62
    7
 10
836.30755123808581
 20
963.04743986658525
 11
836.33347128104128
 21
963.03721254615243
  0
LINE
  8
_2-7_ビス
  6
CONTINUOUS
 62
    7
 10
836.33347128104128
 20
963.03721254615243
 11
836.36061290413295
 21
963.03208903459597
  0
LINE
  8
_2-7_ビス
  6
CONTINUOUS
 62
    7
 10
836.36061290413295
 20
963.03208903459597
 11
836.36075901394918
 21
963.03207578252602
  0
LINE
  8
_2-7_ビス
  6
CONTINUOUS
 62
    7
 10
836.66386776394995
 20
971.93733893492572
 11
836.66386776394995
 21
971.93733893492572
  0
LINE
  8
_2-7_ビス
  6
CONTINUOUS
 62
    7
 10
836.66386776394995
 20
971.93733893492572
 11
836.57954193315618
 21
971.92507897827795
  0
LINE
  8
_2-7_ビス
  6
CONTINUOUS
 62
    7
 10
836.57954193315618
 20
971.92507897827795
 11
836.49843361169792
 21
971.89690651157082
  0
LINE
  8
_2-7_ビス
  6
CONTINUOUS
 62
    7
 10
836.49843361169792
 20
971.89690651157082
 11
836.42300723487983
 21
971.85367754094932
  0
LINE
  8
_2-7_ビス
  6
CONTINUOUS
 62
    7
 10
836.42300723487983
 20
971.85367754094932
 11
836.35555459499392
 21
971.79670555681082
  0
LINE
  8
_2-7_ビス
  6
CONTINUOUS
 62
    7
 10
836.35555459499392
 20
971.79670555681082
 11
836.29812520637051
 21
971.72772162406409
  0
LINE
  8
_2-7_ビス
  6
CONTINUOUS
 62
    7
 10
836.29812520637051
 20
971.72772162406409
 11
836.25246403192227
 21
971.64882178459823
  0
LINE
  8
_2-7_ビス
  6
CONTINUOUS
 62
    7
 10
836.25246403192227
 20
971.64882178459823
 11
836.21995846332902
 21
971.56240337011002
  0
LINE
  8
_2-7_ビス
  6
CONTINUOUS
 62
    7
 10
836.21995846332902
 20
971.56240337011002
 11
836.20159616584397
 21
971.47109216039394
  0
LINE
  8
_2-7_ビス
  6
CONTINUOUS
 62
    7
 10
836.20159616584397
 20
971.47109216039394
 11
836.19793506858434
 21
971.37766260035141
  0
LINE
  8
_2-7_ビス
  6
CONTINUOUS
 62
    7
 10
836.19793506858434
 20
971.37766260035141
 11
836.20908641213782
 21
971.2849534998868
  0
LINE
  8
_2-7_ビス
  6
CONTINUOUS
 62
    7
 10
836.20908641213782
 20
971.2849534998868
 11
836.23471136857336
 21
971.19578177810467
  0
LINE
  8
_2-7_ビス
  6
CONTINUOUS
 62
    7
 10
836.23471136857336
 20
971.19578177810467
 11
836.2740313365565
 21
971.11285687264819
  0
LINE
  8
_2-7_ビス
  6
CONTINUOUS
 62
    7
 10
836.2740313365565
 20
971.11285687264819
 11
836.32585159875703
 21
971.03869841480775
  0
LINE
  8
_2-7_ビス
  6
CONTINUOUS
 62
    7
 10
836.32585159875703
 20
971.03869841480775
 11
836.38859762273023
 21
970.97555967179869
  0
LINE
  8
_2-7_ビス
  6
CONTINUOUS
 62
    7
 10
836.38859762273023
 20
970.97555967179869
 11
836.46036290228881
 21
970.92535908237778
  0
LINE
  8
_2-7_ビス
  6
CONTINUOUS
 62
    7
 10
836.46036290228881
 20
970.92535908237778
 11
836.53896688572809
 21
970.88962196605166
  0
LINE
  8
_2-7_ビス
  6
CONTINUOUS
 62
    7
 10
836.53896688572809
 20
970.88962196605166
 11
836.62202123078714
 21
970.86943417701627
  0
LINE
  8
_2-7_ビス
  6
CONTINUOUS
 62
    7
 10
836.62202123078714
 20
970.86943417701627
 11
836.66386776394995
 21
970.86540911102566
  0
LINE
  8
_2-7_ビス
  6
CONTINUOUS
 62
    7
 10
836.66386776394995
 20
979.77067226342592
 11
836.66386776394995
 21
979.77067226342592
  0
LINE
  8
_2-7_ビス
  6
CONTINUOUS
 62
    7
 10
836.66386776394995
 20
979.77067226342592
 11
836.57954193315618
 21
979.75841230677815
  0
LINE
  8
_2-7_ビス
  6
CONTINUOUS
 62
    7
 10
836.57954193315618
 20
979.75841230677815
 11
836.49843361169792
 21
979.73023984007102
  0
LINE
  8
_2-7_ビス
  6
CONTINUOUS
 62
    7
 10
836.49843361169792
 20
979.73023984007102
 11
836.42300723487983
 21
979.68701086944952
  0
LINE
  8
_2-7_ビス
  6
CONTINUOUS
 62
    7
 10
836.42300723487983
 20
979.68701086944952
 11
836.35555459499392
 21
979.63003888531102
  0
LINE
  8
_2-7_ビス
  6
CONTINUOUS
 62
    7
 10
836.35555459499392
 20
979.63003888531102
 11
836.29812520637051
 21
979.56105495256429
  0
LINE
  8
_2-7_ビス
  6
CONTINUOUS
 62
    7
 10
836.29812520637051
 20
979.56105495256429
 11
836.25246403192227
 21
979.48215511309843
  0
LINE
  8
_2-7_ビス
  6
CONTINUOUS
 62
    7
 10
836.25246403192227
 20
979.48215511309843
 11
836.21995846332902
 21
979.39573669861022
  0
LINE
  8
_2-7_ビス
  6
CONTINUOUS
 62
    7
 10
836.21995846332902
 20
979.39573669861022
 11
836.20159616584397
 21
979.30442548889414
  0
LINE
  8
_2-7_ビス
  6
CONTINUOUS
 62
    7
 10
836.20159616584397
 20
979.30442548889414
 11
836.19793506858434
 21
979.21099592885162
  0
LINE
  8
_2-7_ビス
  6
CONTINUOUS
 62
    7
 10
836.19793506858434
 20
979.21099592885162
 11
836.20908641213782
 21
979.118286828387
  0
LINE
  8
_2-7_ビス
  6
CONTINUOUS
 62
    7
 10
836.20908641213782
 20
979.118286828387
 11
836.23471136857336
 21
979.02911510660488
  0
LINE
  8
_2-7_ビス
  6
CONTINUOUS
 62
    7
 10
836.23471136857336
 20
979.02911510660488
 11
836.2740313365565
 21
978.9461902011484
  0
LINE
  8
_2-7_ビス
  6
CONTINUOUS
 62
    7
 10
836.2740313365565
 20
978.9461902011484
 11
836.32585159875703
 21
978.87203174330796
  0
LINE
  8
_2-7_ビス
  6
CONTINUOUS
 62
    7
 10
836.32585159875703
 20
978.87203174330796
 11
836.38859762273023
 21
978.80889300029889
  0
LINE
  8
_2-7_ビス
  6
CONTINUOUS
 62
    7
 10
836.38859762273023
 20
978.80889300029889
 11
836.46036290228881
 21
978.75869241087798
  0
LINE
  8
_2-7_ビス
  6
CONTINUOUS
 62
    7
 10
836.46036290228881
 20
978.75869241087798
 11
836.53896688572809
 21
978.72295529455187
  0
LINE
  8
_2-7_ビス
  6
CONTINUOUS
 62
    7
 10
836.53896688572809
 20
978.72295529455187
 11
836.62202123078714
 21
978.70276750551648
  0
LINE
  8
_2-7_ビス
  6
CONTINUOUS
 62
    7
 10
836.62202123078714
 20
978.70276750551648
 11
836.66386776394995
 21
978.69874243952586
  0
LINE
  8
_2-7_ビス
  6
CONTINUOUS
 62
    7
 10
836.33865095314752
 20
960.64084771382534
 11
836.33865095314752
 21
960.64084771382534
  0
LINE
  8
_2-7_ビス
  6
CONTINUOUS
 62
    7
 10
836.33865095314752
 20
960.64084771382534
 11
836.30246573924569
 21
960.50726338705817
  0
LINE
  8
_2-7_ビス
  6
CONTINUOUS
 62
    7
 10
836.30246573924569
 20
960.50726338705817
 11
836.28792936330444
 21
960.36880033484272
  0
LINE
  8
_2-7_ビス
  6
CONTINUOUS
 62
    7
 10
836.28792936330444
 20
960.36880033484272
 11
836.28837562005936
 21
960.31102315262535
  0
LINE
  8
_2-7_ビス
  6
CONTINUOUS
 62
    7
 10
835.78083351394969
 20
958.33207578542567
 11
835.78083351394969
 21
958.33207578542567
  0
LINE
  8
_2-7_ビス
  6
CONTINUOUS
 62
    7
 10
835.78083351394969
 20
958.33207578542567
 11
835.77479273640688
 21
958.38760636060351
  0
LINE
  8
_2-7_ビス
  6
CONTINUOUS
 62
    7
 10
835.77479273640688
 20
958.38760636060351
 11
835.76007290245718
 21
958.44114004798803
  0
LINE
  8
_2-7_ビス
  6
CONTINUOUS
 62
    7
 10
835.76007290245718
 20
958.44114004798803
 11
835.73712126680664
 21
958.49105025357744
  0
LINE
  8
_2-7_ビス
  6
CONTINUOUS
 62
    7
 10
835.73712126680664
 20
958.49105025357744
 11
835.70663520329049
 21
958.5358204810309
  0
LINE
  8
_2-7_ビス
  6
CONTINUOUS
 62
    7
 10
835.70663520329049
 20
958.5358204810309
 11
835.66954101552187
 21
958.57409040964183
  0
LINE
  8
_2-7_ビス
  6
CONTINUOUS
 62
    7
 10
835.66954101552187
 20
958.57409040964183
 11
835.62696579162559
 21
958.60469722699497
  0
LINE
  8
_2-7_ビス
  6
CONTINUOUS
 62
    7
 10
835.62696579162559
 20
958.60469722699497
 11
835.58020315823558
 21
958.62671096043289
  0
LINE
  8
_2-7_ビス
  6
CONTINUOUS
 62
    7
 10
835.58020315823558
 20
958.62671096043289
 11
835.53067397430448
 21
958.63946273380452
  0
LINE
  8
_2-7_ビス
  6
CONTINUOUS
 62
    7
 10
835.53067397430448
 20
958.63946273380452
 11
835.47988315902296
 21
958.64256509092877
  0
LINE
  8
_2-7_ビス
  6
CONTINUOUS
 62
    7
 10
835.47988315902296
 20
958.64256509092877
 11
835.42937396561206
 21
958.63592376825409
  0
LINE
  8
_2-7_ビス
  6
CONTINUOUS
 62
    7
 10
835.42937396561206
 20
958.63592376825409
 11
835.38068109035464
 21
958.61974055900953
  0
LINE
  8
_2-7_ビス
  6
CONTINUOUS
 62
    7
 10
835.38068109035464
 20
958.61974055900953
 11
835.33528404162553
 21
958.59450718181859
  0
LINE
  8
_2-7_ビス
  6
CONTINUOUS
 62
    7
 10
835.33528404162553
 20
958.59450718181859
 11
835.29456218577843
 21
958.56099034007877
  0
LINE
  8
_2-7_ビス
  6
CONTINUOUS
 62
    7
 10
835.29456218577843
 20
958.56099034007877
 11
835.25975283579703
 21
958.52020842606589
  0
LINE
  8
_2-7_ビス
  6
CONTINUOUS
 62
    7
 10
835.25975283579703
 20
958.52020842606589
 11
835.23191365616606
 21
958.47340057760061
  0
LINE
  8
_2-7_ビス
  6
CONTINUOUS
 62
    7
 10
835.23191365616606
 20
958.47340057760061
 11
835.2118905262713
 21
958.4219890274727
  0
LINE
  8
_2-7_ビス
  6
CONTINUOUS
 62
    7
 10
835.2118905262713
 20
958.4219890274727
 11
835.2002918387825
 21
958.3675358896171
  0
LINE
  8
_2-7_ビス
  6
CONTINUOUS
 62
    7
 10
835.2002918387825
 20
958.3675358896171
 11
835.19747001394978
 21
958.31169569507313
  0
LINE
  8
_2-7_ビス
  6
CONTINUOUS
 62
    7
 10
835.19747001394978
 20
958.31169569507313
 11
835.19747001394978
 21
958.31169569507301
  0
LINE
  8
_2-7_ビス
  6
CONTINUOUS
 62
    7
 10
830.49511776394854
 20
995.29974848191387
 11
830.49511776394854
 21
999.39523365482614
  0
LINE
  8
_2-7_ビス
  6
CONTINUOUS
 62
    7
 10
830.49511776394854
 20
999.39523365482614
 11
833.49511776394922
 21
999.39523365482614
  0
LINE
  8
_2-7_ビス
  6
CONTINUOUS
 62
    7
 10
830.49511776394854
 20
995.29974848191387
 11
829.74511776394922
 21
994.47518756171007
  0
LINE
  8
_2-7_ビス
  6
CONTINUOUS
 62
    7
 10
829.74511776394922
 20
994.47518756171007
 11
829.74511776394922
 21
992.3765818345953
  0
LINE
  8
_2-7_ビス
  6
CONTINUOUS
 62
    7
 10
829.74511776394922
 20
992.3765818345953
 11
830.29333701394978
 21
988.25898852134628
  0
LINE
  8
_2-7_ビス
  6
CONTINUOUS
 62
    7
 10
830.29333701394978
 20
988.25898852134628
 11
830.53526076394962
 21
987.85137401282554
  0
LINE
  8
_2-7_ビス
  6
CONTINUOUS
 62
    7
 10
830.53526076394962
 20
987.85137401282554
 11
830.49511776394854
 21
987.85137401282554
  0
LINE
  8
_2-7_ビス
  6
CONTINUOUS
 62
    7
 10
830.49511776394854
 20
987.85137401282554
 11
830.49511776394854
 21
986.03733892622586
  0
LINE
  8
_2-7_ビス
  6
CONTINUOUS
 62
    7
 10
830.49511776394854
 20
986.03733892622586
 11
830.92813032451647
 21
985.2127775232259
  0
LINE
  8
_2-7_ビス
  6
CONTINUOUS
 62
    7
 10
830.79822651394909
 20
984.96540910232511
 11
829.82011776394972
 21
984.96540910232511
  0
LINE
  8
_2-7_ビス
  6
CONTINUOUS
 62
    7
 10
829.82011776394972
 20
984.96540910232511
 11
829.82011776394972
 21
980.73201850844612
  0
LINE
  8
_2-7_ビス
  6
CONTINUOUS
 62
    7
 10
829.82011776394972
 20
980.73201850844612
 11
830.32158726394971
 21
979.77067226342569
  0
LINE
  8
_2-7_ビス
  6
CONTINUOUS
 62
    7
 10
830.32158726394971
 20
979.77067226342569
 11
830.32636776394941
 21
979.77067226342569
  0
LINE
  8
_2-7_ビス
  6
CONTINUOUS
 62
    7
 10
830.32637193723406
 20
979.77067261720777
 11
830.32636776394941
 21
979.77067226342569
  0
LINE
  8
_2-7_ビス
  6
CONTINUOUS
 62
    7
 10
830.32637193723406
 20
979.77067261720777
 11
830.32636776394941
 21
979.77067226342569
  0
LINE
  8
_2-7_ビス
  6
CONTINUOUS
 62
    7
 10
830.3589590139494
 20
978.69874243952609
 11
829.82011776394972
 21
978.69874243952609
  0
LINE
  8
_2-7_ビス
  6
CONTINUOUS
 62
    7
 10
829.82011776394972
 20
978.69874243952609
 11
829.82011776394972
 21
972.90150930275217
  0
LINE
  8
_2-7_ビス
  6
CONTINUOUS
 62
    7
 10
829.82011776394972
 20
972.90150930275217
 11
830.32636495101076
 21
971.93735793298742
  0
LINE
  8
_2-7_ビス
  6
CONTINUOUS
 62
    7
 10
830.32636776394941
 20
971.93733893492549
 11
830.32995939430509
 21
972.41479033216592
  0
LINE
  8
_2-7_ビス
  6
CONTINUOUS
 62
    7
 10
830.32995939430509
 20
972.41479033216592
 11
830.65063940192874
 21
972.43207577672592
  0
LINE
  8
_2-7_ビス
  6
CONTINUOUS
 62
    7
 10
830.80930144209663
 20
972.67944419762557
 11
830.3589590139494
 21
973.50400560062553
  0
LINE
  8
_2-7_ビス
  6
CONTINUOUS
 62
    7
 10
830.3589590139494
 20
973.50400560062553
 11
830.35895886182618
 21
973.98145706962055
  0
LINE
  8
_2-7_ビス
  6
CONTINUOUS
 62
    7
 10
830.35895886182618
 20
973.98145706962055
 11
830.70699126394959
 21
973.99874244242596
  0
LINE
  8
_2-7_ビス
  6
CONTINUOUS
 62
    7
 10
830.86658101366982
 20
974.24611086332561
 11
830.3589590139494
 21
975.07067226632557
  0
LINE
  8
_2-7_ビス
  6
CONTINUOUS
 62
    7
 10
830.3589590139494
 20
975.07067226632557
 11
830.3589590139494
 21
975.54812382743421
  0
LINE
  8
_2-7_ビス
  6
CONTINUOUS
 62
    7
 10
830.3589590139494
 20
975.54812382743421
 11
830.70699126394959
 21
975.565409108126
  0
LINE
  8
_2-7_ビス
  6
CONTINUOUS
 62
    7
 10
830.86658101366982
 20
975.81277752902565
 11
830.3589590139494
 21
976.63733893202561
  0
LINE
  8
_2-7_ビス
  6
CONTINUOUS
 62
    7
 10
830.3589590139494
 20
976.63733893202561
 11
830.3589590139494
 21
977.11479049313425
  0
LINE
  8
_2-7_ビス
  6
CONTINUOUS
 62
    7
 10
830.3589590139494
 20
977.11479049313425
 11
830.70699126394959
 21
977.13207577382605
  0
LINE
  8
_2-7_ビス
  6
CONTINUOUS
 62
    7
 10
830.86658101366982
 20
977.37944419472569
 11
830.35895886182618
 21
978.20400559772565
  0
LINE
  8
_2-7_ビス
  6
CONTINUOUS
 62
    7
 10
830.35895886182618
 20
978.20400559772565
 11
830.3589590139494
 21
978.69874243952609
  0
LINE
  8
_2-7_ビス
  6
CONTINUOUS
 62
    7
 10
830.32637193723406
 20
979.77067261720777
 11
830.33005713847945
 21
980.24812408620164
  0
LINE
  8
_2-7_ビス
  6
CONTINUOUS
 62
    7
 10
830.33005713847945
 20
980.24812408620164
 11
830.64750201394861
 21
980.26540910522613
  0
LINE
  8
_2-7_ビス
  6
CONTINUOUS
 62
    7
 10
830.80959415427048
 20
980.51277752612577
 11
830.35895886182618
 21
981.33733892912574
  0
LINE
  8
_2-7_ビス
  6
CONTINUOUS
 62
    7
 10
830.35895886182618
 20
981.33733892912574
 11
830.35895886182618
 21
981.81479039811961
  0
LINE
  8
_2-7_ビス
  6
CONTINUOUS
 62
    7
 10
830.35895886182618
 20
981.81479039811961
 11
830.70699126394959
 21
981.83207577092617
  0
LINE
  8
_2-7_ビス
  6
CONTINUOUS
 62
    7
 10
830.86658101366982
 20
982.07944419182581
 11
830.3589590139494
 21
982.90400559482578
  0
LINE
  8
_2-7_ビス
  6
CONTINUOUS
 62
    7
 10
830.3589590139494
 20
982.90400559482578
 11
830.35895886182618
 21
983.38145706381965
  0
LINE
  8
_2-7_ビス
  6
CONTINUOUS
 62
    7
 10
830.35895886182618
 20
983.38145706381965
 11
830.70787735643751
 21
983.39897401778558
  0
LINE
  8
_2-7_ビス
  6
CONTINUOUS
 62
    7
 10
830.86658101366982
 20
983.64611085752585
 11
830.35895886182618
 21
984.47067226052582
  0
LINE
  8
_2-7_ビス
  6
CONTINUOUS
 62
    7
 10
830.35895886182618
 20
984.47067226052582
 11
830.35895901945639
 21
984.96540910232511
  0
LINE
  8
_2-7_ビス
  6
CONTINUOUS
 62
    7
 10
830.3589590139494
 20
970.86540911102588
 11
829.82011776394972
 21
970.86540911102588
  0
LINE
  8
_2-7_ビス
  6
CONTINUOUS
 62
    7
 10
829.82011776394972
 20
970.86540911102588
 11
829.82011776394972
 21
967.61716737618826
  0
LINE
  8
_2-7_ビス
  6
CONTINUOUS
 62
    7
 10
829.82011776394972
 20
967.61716737618826
 11
830.3259035139489
 21
964.10400560642529
  0
LINE
  8
_2-7_ビス
  6
CONTINUOUS
 62
    7
 10
830.3259035139489
 20
964.10400560642529
 11
830.32663803161302
 21
964.58145669056648
  0
LINE
  8
_2-7_ビス
  6
CONTINUOUS
 62
    7
 10
830.32663803161302
 20
964.58145669056648
 11
830.63532651394996
 21
964.59874244822572
  0
LINE
  8
_2-7_ビス
  6
CONTINUOUS
 62
    7
 10
830.3259035139489
 20
964.10400560642529
 11
830.7593803245162
 21
963.27944420342533
  0
LINE
  8
_2-7_ビス
  6
CONTINUOUS
 62
    7
 10
830.77988307873727
 20
964.84611086912537
 11
830.32928074527706
 21
965.67067227212533
  0
LINE
  8
_2-7_ビス
  6
CONTINUOUS
 62
    7
 10
830.32928074527706
 20
965.67067227212533
 11
830.33136564953895
 21
966.14812335626539
  0
LINE
  8
_2-7_ビス
  6
CONTINUOUS
 62
    7
 10
830.33136564953895
 20
966.14812335626539
 11
830.6536925139493
 21
966.16540911392576
  0
LINE
  8
_2-7_ビス
  6
CONTINUOUS
 62
    7
 10
830.80219800976795
 20
966.41277753482541
 11
830.33833015044354
 21
967.23733855297155
  0
LINE
  8
_2-7_ビス
  6
CONTINUOUS
 62
    7
 10
830.33833015044354
 20
967.23733855297155
 11
830.34239299113995
 21
967.71479002196656
  0
LINE
  8
_2-7_ビス
  6
CONTINUOUS
 62
    7
 10
830.34239299113995
 20
967.71479002196656
 11
830.67704634640893
 21
967.7320757796258
  0
LINE
  8
_2-7_ビス
  6
CONTINUOUS
 62
    7
 10
830.83430096257632
 20
967.97944420052545
 11
830.35409833837082
 21
968.80400521867159
  0
LINE
  8
_2-7_ビス
  6
CONTINUOUS
 62
    7
 10
830.35409833837082
 20
968.80400521867159
 11
830.3589590139494
 21
969.28145716463405
  0
LINE
  8
_2-7_ビス
  6
CONTINUOUS
 62
    7
 10
830.3589590139494
 20
969.28145716463405
 11
830.70699126394959
 21
969.29874244532584
  0
LINE
  8
_2-7_ビス
  6
CONTINUOUS
 62
    7
 10
830.86658101366982
 20
969.54611086622549
 11
830.35895886182618
 21
970.37067226922545
  0
LINE
  8
_2-7_ビス
  6
CONTINUOUS
 62
    7
 10
830.35895886182618
 20
970.37067226922545
 11
830.3589590139494
 21
970.86540911102588
  0
LINE
  8
_2-7_ビス
  6
CONTINUOUS
 62
    7
 10
830.62947651394995
 20
963.03207578252568
 11
830.49511776394854
 21
963.03207578252568
  0
LINE
  8
_2-7_ビス
  6
CONTINUOUS
 62
    7
 10
830.49511776394854
 20
963.03207578252568
 11
830.49511776394854
 21
962.24874244967509
  0
LINE
  8
_2-7_ビス
  6
CONTINUOUS
 62
    7
 10
830.49511776394854
 20
962.24874244967509
 11
830.64511776394954
 21
962.24874244967509
  0
LINE
  8
_2-7_ビス
  6
CONTINUOUS
 62
    7
 10
830.64511776394954
 20
962.24874244967509
 11
830.64511776394954
 21
960.64084771382568
  0
LINE
  8
_2-7_ビス
  6
CONTINUOUS
 62
    7
 10
830.64511776394954
 20
960.64084771382568
 11
830.65158457475025
 21
960.64084771382568
  0
LINE
  8
_2-7_ビス
  6
CONTINUOUS
 62
    7
 10
830.70185976394885
 20
960.31102315262615
 11
830.70185991048777
 21
954.36058155980618
  0
LINE
  8
_2-7_ビス
  6
CONTINUOUS
 62
    7
 10
830.70185991048777
 20
954.36058155980618
 11
831.14229726394899
 21
953.70916073564672
  0
LINE
  8
_2-7_ビス
  6
CONTINUOUS
 62
    7
 10
831.14229726394899
 20
953.70916073564672
 11
832.14511776394932
 21
952.39523368382606
  0
LINE
  8
_2-7_ビス
  6
CONTINUOUS
 62
    7
 10
832.14511776394932
 20
952.39523368382606
 11
832.29449624344386
 21
952.39523368382606
  0
LINE
  8
_2-7_ビス
  6
CONTINUOUS
 62
    7
 10
832.29449624344386
 20
952.39523368382606
 11
831.20940213412939
 21
954.36058155980618
  0
LINE
  8
_2-7_ビス
  6
CONTINUOUS
 62
    7
 10
831.20940213412939
 20
954.36058155980618
 11
831.20940201394876
 21
958.33207578542556
  0
LINE
  8
_2-7_ビス
  6
CONTINUOUS
 62
    7
 10
831.79276551394867
 20
958.33207578542556
 11
831.79276524051704
 21
954.36058171250465
  0
LINE
  8
_2-7_ビス
  6
CONTINUOUS
 62
    7
 10
831.79276524051704
 20
954.36058171250465
 11
832.87785960575081
 21
952.39523368382606
  0
LINE
  8
_2-7_ビス
  6
CONTINUOUS
 62
    7
 10
832.87785960575081
 20
952.39523368382606
 11
833.49511776394922
 21
952.39523368382606
  0
LINE
  8
_2-7_ビス
  6
CONTINUOUS
 62
    7
 10
830.79822651394909
 20
984.96540910232511
 11
830.79822651394909
 21
984.96540910232511
  0
LINE
  8
_2-7_ビス
  6
CONTINUOUS
 62
    7
 10
830.79822651394909
 20
984.96540910232511
 11
830.82518496484965
 21
984.97006288704029
  0
LINE
  8
_2-7_ビス
  6
CONTINUOUS
 62
    7
 10
830.82518496484965
 20
984.97006288704029
 11
830.85099880986274
 21
984.97979264717026
  0
LINE
  8
_2-7_ビス
  6
CONTINUOUS
 62
    7
 10
830.85099880986274
 20
984.97979264717026
 11
830.87488370837013
 21
984.99430274887686
  0
LINE
  8
_2-7_ビス
  6
CONTINUOUS
 62
    7
 10
830.87488370837013
 20
984.99430274887686
 11
830.89611392981692
 21
985.01315231006208
  0
LINE
  8
_2-7_ビス
  6
CONTINUOUS
 62
    7
 10
830.89611392981692
 20
985.01315231006208
 11
830.91404440466749
 21
985.03576859634791
  0
LINE
  8
_2-7_ビス
  6
CONTINUOUS
 62
    7
 10
830.91404440466749
 20
985.03576859634791
 11
830.92813032451681
 21
985.06146442331976
  0
LINE
  8
_2-7_ビス
  6
CONTINUOUS
 62
    7
 10
830.92813032451681
 20
985.06146442331976
 11
830.93794369581803
 21
985.08945903627784
  0
LINE
  8
_2-7_ビス
  6
CONTINUOUS
 62
    7
 10
830.93794369581803
 20
985.08945903627784
 11
830.94318634424997
 21
985.11890183307344
  0
LINE
  8
_2-7_ビス
  6
CONTINUOUS
 62
    7
 10
830.94318634424997
 20
985.11890183307344
 11
830.94369897459296
 21
985.14889820922463
  0
LINE
  8
_2-7_ビス
  6
CONTINUOUS
 62
    7
 10
830.94369897459296
 20
985.14889820922463
 11
830.93946601083337
 21
985.17853674002106
  0
LINE
  8
_2-7_ビス
  6
CONTINUOUS
 62
    7
 10
830.93946601083337
 20
985.17853674002106
 11
830.9306160694332
 21
985.20691687370208
  0
LINE
  8
_2-7_ビス
  6
CONTINUOUS
 62
    7
 10
830.9306160694332
 20
985.20691687370208
 11
830.91741805138338
 21
985.23317629426708
  0
LINE
  8
_2-7_ビス
  6
CONTINUOUS
 62
    7
 10
830.91741805138338
 20
985.23317629426708
 11
830.91741765886604
 21
985.23317693589127
  0
LINE
  8
_2-7_ビス
  6
CONTINUOUS
 62
    7
 10
830.70699126394982
 20
983.39874243662553
 11
830.70699126394982
 21
983.39874243662553
  0
LINE
  8
_2-7_ビス
  6
CONTINUOUS
 62
    7
 10
830.70699126394982
 20
983.39874243662553
 11
830.74151449228486
 21
983.41125598688461
  0
LINE
  8
_2-7_ビス
  6
CONTINUOUS
 62
    7
 10
830.74151449228486
 20
983.41125598688461
 11
830.77353677063797
 21
983.43017030766271
  0
LINE
  8
_2-7_ビス
  6
CONTINUOUS
 62
    7
 10
830.77353677063797
 20
983.43017030766271
 11
830.8020851182855
 21
983.45491069689422
  0
LINE
  8
_2-7_ビス
  6
CONTINUOUS
 62
    7
 10
830.8020851182855
 20
983.45491069689422
 11
830.82629210813036
 21
983.48472543037133
  0
LINE
  8
_2-7_ビス
  6
CONTINUOUS
 62
    7
 10
830.82629210813036
 20
983.48472543037133
 11
830.84542222303537
 21
983.5187086025046
  0
LINE
  8
_2-7_ビス
  6
CONTINUOUS
 62
    7
 10
830.84542222303537
 20
983.5187086025046
 11
830.85889420413957
 21
983.55582765180498
  0
LINE
  8
_2-7_ビス
  6
CONTINUOUS
 62
    7
 10
830.85889420413957
 20
983.55582765180498
 11
830.86629871211426
 21
983.59495473474249
  0
LINE
  8
_2-7_ビス
  6
CONTINUOUS
 62
    7
 10
830.86629871211426
 20
983.59495473474249
 11
830.86741076473129
 21
983.63490099470152
  0
LINE
  8
_2-7_ビス
  6
CONTINUOUS
 62
    7
 10
830.86741076473129
 20
983.63490099470152
 11
830.8665810136705
 21
983.64611085752551
  0
LINE
  8
_2-7_ビス
  6
CONTINUOUS
 62
    7
 10
830.70699126394982
 20
981.83207577092548
 11
830.70699126394982
 21
981.83207577092548
  0
LINE
  8
_2-7_ビス
  6
CONTINUOUS
 62
    7
 10
830.70699126394982
 20
981.83207577092548
 11
830.74151449228486
 21
981.84458932118457
  0
LINE
  8
_2-7_ビス
  6
CONTINUOUS
 62
    7
 10
830.74151449228486
 20
981.84458932118457
 11
830.77353677063797
 21
981.86350364196267
  0
LINE
  8
_2-7_ビス
  6
CONTINUOUS
 62
    7
 10
830.77353677063797
 20
981.86350364196267
 11
830.8020851182855
 21
981.88824403119418
  0
LINE
  8
_2-7_ビス
  6
CONTINUOUS
 62
    7
 10
830.8020851182855
 20
981.88824403119418
 11
830.82629210813036
 21
981.91805876467129
  0
LINE
  8
_2-7_ビス
  6
CONTINUOUS
 62
    7
 10
830.82629210813036
 20
981.91805876467129
 11
830.84542222303537
 21
981.95204193680456
  0
LINE
  8
_2-7_ビス
  6
CONTINUOUS
 62
    7
 10
830.84542222303537
 20
981.95204193680456
 11
830.85889420413957
 21
981.98916098610493
  0
LINE
  8
_2-7_ビス
  6
CONTINUOUS
 62
    7
 10
830.85889420413957
 20
981.98916098610493
 11
830.86629871211426
 21
982.02828806904245
  0
LINE
  8
_2-7_ビス
  6
CONTINUOUS
 62
    7
 10
830.86629871211426
 20
982.02828806904245
 11
830.86741076473129
 21
982.06823432900148
  0
LINE
  8
_2-7_ビス
  6
CONTINUOUS
 62
    7
 10
830.86741076473129
 20
982.06823432900148
 11
830.8665810136705
 21
982.07944419182547
  0
LINE
  8
_2-7_ビス
  6
CONTINUOUS
 62
    7
 10
830.65000440454821
 20
980.26540910522544
 11
830.65000440454821
 21
980.26540910522544
  0
LINE
  8
_2-7_ビス
  6
CONTINUOUS
 62
    7
 10
830.65000440454821
 20
980.26540910522544
 11
830.68452763288326
 21
980.27792265548453
  0
LINE
  8
_2-7_ビス
  6
CONTINUOUS
 62
    7
 10
830.68452763288326
 20
980.27792265548453
 11
830.71654991123637
 21
980.29683697626263
  0
LINE
  8
_2-7_ビス
  6
CONTINUOUS
 62
    7
 10
830.71654991123637
 20
980.29683697626263
 11
830.7450982588839
 21
980.32157736549414
  0
LINE
  8
_2-7_ビス
  6
CONTINUOUS
 62
    7
 10
830.7450982588839
 20
980.32157736549414
 11
830.76930524872876
 21
980.35139209897125
  0
LINE
  8
_2-7_ビス
  6
CONTINUOUS
 62
    7
 10
830.76930524872876
 20
980.35139209897125
 11
830.78843536363377
 21
980.38537527110452
  0
LINE
  8
_2-7_ビス
  6
CONTINUOUS
 62
    7
 10
830.78843536363377
 20
980.38537527110452
 11
830.80190734473797
 21
980.42249432040489
  0
LINE
  8
_2-7_ビス
  6
CONTINUOUS
 62
    7
 10
830.80190734473797
 20
980.42249432040489
 11
830.80931185271265
 21
980.46162140334241
  0
LINE
  8
_2-7_ビス
  6
CONTINUOUS
 62
    7
 10
830.80931185271265
 20
980.46162140334241
 11
830.81042390532969
 21
980.50156766330144
  0
LINE
  8
_2-7_ビス
  6
CONTINUOUS
 62
    7
 10
830.81042390532969
 20
980.50156766330144
 11
830.80959415426889
 21
980.51277752612543
  0
LINE
  8
_2-7_ビス
  6
CONTINUOUS
 62
    7
 10
830.70699126394982
 20
977.13207577382536
 11
830.70699126394982
 21
977.13207577382536
  0
LINE
  8
_2-7_ビス
  6
CONTINUOUS
 62
    7
 10
830.70699126394982
 20
977.13207577382536
 11
830.74151449228486
 21
977.14458932408445
  0
LINE
  8
_2-7_ビス
  6
CONTINUOUS
 62
    7
 10
830.74151449228486
 20
977.14458932408445
 11
830.77353677063797
 21
977.16350364486254
  0
LINE
  8
_2-7_ビス
  6
CONTINUOUS
 62
    7
 10
830.77353677063797
 20
977.16350364486254
 11
830.8020851182855
 21
977.18824403409405
  0
LINE
  8
_2-7_ビス
  6
CONTINUOUS
 62
    7
 10
830.8020851182855
 20
977.18824403409405
 11
830.82629210813036
 21
977.21805876757116
  0
LINE
  8
_2-7_ビス
  6
CONTINUOUS
 62
    7
 10
830.82629210813036
 20
977.21805876757116
 11
830.84542222303537
 21
977.25204193970444
  0
LINE
  8
_2-7_ビス
  6
CONTINUOUS
 62
    7
 10
830.84542222303537
 20
977.25204193970444
 11
830.85889420413957
 21
977.28916098900481
  0
LINE
  8
_2-7_ビス
  6
CONTINUOUS
 62
    7
 10
830.85889420413957
 20
977.28916098900481
 11
830.86629871211426
 21
977.32828807194232
  0
LINE
  8
_2-7_ビス
  6
CONTINUOUS
 62
    7
 10
830.86629871211426
 20
977.32828807194232
 11
830.86741076473129
 21
977.36823433190136
  0
LINE
  8
_2-7_ビス
  6
CONTINUOUS
 62
    7
 10
830.86741076473129
 20
977.36823433190136
 11
830.8665810136705
 21
977.37944419472535
  0
LINE
  8
_2-7_ビス
  6
CONTINUOUS
 62
    7
 10
830.70699126394982
 20
975.56540910812532
 11
830.70699126394982
 21
975.56540910812532
  0
LINE
  8
_2-7_ビス
  6
CONTINUOUS
 62
    7
 10
830.70699126394982
 20
975.56540910812532
 11
830.74151449228486
 21
975.57792265838441
  0
LINE
  8
_2-7_ビス
  6
CONTINUOUS
 62
    7
 10
830.74151449228486
 20
975.57792265838441
 11
830.77353677063797
 21
975.5968369791625
  0
LINE
  8
_2-7_ビス
  6
CONTINUOUS
 62
    7
 10
830.77353677063797
 20
975.5968369791625
 11
830.8020851182855
 21
975.62157736839401
  0
LINE
  8
_2-7_ビス
  6
CONTINUOUS
 62
    7
 10
830.8020851182855
 20
975.62157736839401
 11
830.82629210813036
 21
975.65139210187112
  0
LINE
  8
_2-7_ビス
  6
CONTINUOUS
 62
    7
 10
830.82629210813036
 20
975.65139210187112
 11
830.84542222303537
 21
975.6853752740044
  0
LINE
  8
_2-7_ビス
  6
CONTINUOUS
 62
    7
 10
830.84542222303537
 20
975.6853752740044
 11
830.85889420413957
 21
975.72249432330477
  0
LINE
  8
_2-7_ビス
  6
CONTINUOUS
 62
    7
 10
830.85889420413957
 20
975.72249432330477
 11
830.86629871211426
 21
975.76162140624228
  0
LINE
  8
_2-7_ビス
  6
CONTINUOUS
 62
    7
 10
830.86629871211426
 20
975.76162140624228
 11
830.86741076473129
 21
975.80156766620132
  0
LINE
  8
_2-7_ビス
  6
CONTINUOUS
 62
    7
 10
830.86741076473129
 20
975.80156766620132
 11
830.8665810136705
 21
975.81277752902531
  0
LINE
  8
_2-7_ビス
  6
CONTINUOUS
 62
    7
 10
830.70699126394982
 20
973.99874244242528
 11
830.70699126394982
 21
973.99874244242528
  0
LINE
  8
_2-7_ビス
  6
CONTINUOUS
 62
    7
 10
830.70699126394982
 20
973.99874244242528
 11
830.74151449228486
 21
974.01125599268437
  0
LINE
  8
_2-7_ビス
  6
CONTINUOUS
 62
    7
 10
830.74151449228486
 20
974.01125599268437
 11
830.77353677063797
 21
974.03017031346246
  0
LINE
  8
_2-7_ビス
  6
CONTINUOUS
 62
    7
 10
830.77353677063797
 20
974.03017031346246
 11
830.8020851182855
 21
974.05491070269397
  0
LINE
  8
_2-7_ビス
  6
CONTINUOUS
 62
    7
 10
830.8020851182855
 20
974.05491070269397
 11
830.82629210813036
 21
974.08472543617108
  0
LINE
  8
_2-7_ビス
  6
CONTINUOUS
 62
    7
 10
830.82629210813036
 20
974.08472543617108
 11
830.84542222303537
 21
974.11870860830436
  0
LINE
  8
_2-7_ビス
  6
CONTINUOUS
 62
    7
 10
830.84542222303537
 20
974.11870860830436
 11
830.85889420413957
 21
974.15582765760473
  0
LINE
  8
_2-7_ビス
  6
CONTINUOUS
 62
    7
 10
830.85889420413957
 20
974.15582765760473
 11
830.86629871211426
 21
974.19495474054224
  0
LINE
  8
_2-7_ビス
  6
CONTINUOUS
 62
    7
 10
830.86629871211426
 20
974.19495474054224
 11
830.86741076473129
 21
974.23490100050128
  0
LINE
  8
_2-7_ビス
  6
CONTINUOUS
 62
    7
 10
830.86741076473129
 20
974.23490100050128
 11
830.8665810136705
 21
974.24611086332527
  0
LINE
  8
_2-7_ビス
  6
CONTINUOUS
 62
    7
 10
830.64971169237549
 20
972.43207577672524
 11
830.64971169237549
 21
972.43207577672524
  0
LINE
  8
_2-7_ビス
  6
CONTINUOUS
 62
    7
 10
830.64971169237549
 20
972.43207577672524
 11
830.68423492071054
 21
972.44458932698433
  0
LINE
  8
_2-7_ビス
  6
CONTINUOUS
 62
    7
 10
830.68423492071054
 20
972.44458932698433
 11
830.71625719906365
 21
972.46350364776242
  0
LINE
  8
_2-7_ビス
  6
CONTINUOUS
 62
    7
 10
830.71625719906365
 20
972.46350364776242
 11
830.74480554671118
 21
972.48824403699393
  0
LINE
  8
_2-7_ビス
  6
CONTINUOUS
 62
    7
 10
830.74480554671118
 20
972.48824403699393
 11
830.76901253655603
 21
972.51805877047104
  0
LINE
  8
_2-7_ビス
  6
CONTINUOUS
 62
    7
 10
830.76901253655603
 20
972.51805877047104
 11
830.78814265146104
 21
972.55204194260432
  0
LINE
  8
_2-7_ビス
  6
CONTINUOUS
 62
    7
 10
830.78814265146104
 20
972.55204194260432
 11
830.80161463256525
 21
972.58916099190469
  0
LINE
  8
_2-7_ビス
  6
CONTINUOUS
 62
    7
 10
830.80161463256525
 20
972.58916099190469
 11
830.80901914053993
 21
972.6282880748422
  0
LINE
  8
_2-7_ビス
  6
CONTINUOUS
 62
    7
 10
830.80901914053993
 20
972.6282880748422
 11
830.81013119315696
 21
972.66823433480124
  0
LINE
  8
_2-7_ビス
  6
CONTINUOUS
 62
    7
 10
830.81013119315696
 20
972.66823433480124
 11
830.80930144209617
 21
972.67944419762523
  0
LINE
  8
_2-7_ビス
  6
CONTINUOUS
 62
    7
 10
830.70699126394982
 20
969.29874244532516
 11
830.70699126394982
 21
969.29874244532516
  0
LINE
  8
_2-7_ビス
  6
CONTINUOUS
 62
    7
 10
830.70699126394982
 20
969.29874244532516
 11
830.74151449228486
 21
969.31125599558425
  0
LINE
  8
_2-7_ビス
  6
CONTINUOUS
 62
    7
 10
830.74151449228486
 20
969.31125599558425
 11
830.77353677063797
 21
969.33017031636234
  0
LINE
  8
_2-7_ビス
  6
CONTINUOUS
 62
    7
 10
830.77353677063797
 20
969.33017031636234
 11
830.8020851182855
 21
969.35491070559385
  0
LINE
  8
_2-7_ビス
  6
CONTINUOUS
 62
    7
 10
830.8020851182855
 20
969.35491070559385
 11
830.82629210813036
 21
969.38472543907096
  0
LINE
  8
_2-7_ビス
  6
CONTINUOUS
 62
    7
 10
830.82629210813036
 20
969.38472543907096
 11
830.84542222303537
 21
969.41870861120424
  0
LINE
  8
_2-7_ビス
  6
CONTINUOUS
 62
    7
 10
830.84542222303537
 20
969.41870861120424
 11
830.85889420413957
 21
969.45582766050461
  0
LINE
  8
_2-7_ビス
  6
CONTINUOUS
 62
    7
 10
830.85889420413957
 20
969.45582766050461
 11
830.86629871211426
 21
969.49495474344212
  0
LINE
  8
_2-7_ビス
  6
CONTINUOUS
 62
    7
 10
830.86629871211426
 20
969.49495474344212
 11
830.86741076473129
 21
969.53490100340116
  0
LINE
  8
_2-7_ビス
  6
CONTINUOUS
 62
    7
 10
830.86741076473129
 20
969.53490100340116
 11
830.8665810136705
 21
969.54611086622515
  0
LINE
  8
_2-7_ビス
  6
CONTINUOUS
 62
    7
 10
830.67471121285519
 20
967.73207577962512
 11
830.67471121285519
 21
967.73207577962512
  0
LINE
  8
_2-7_ビス
  6
CONTINUOUS
 62
    7
 10
830.67471121285519
 20
967.73207577962512
 11
830.70923444119023
 21
967.74458932988421
  0
LINE
  8
_2-7_ビス
  6
CONTINUOUS
 62
    7
 10
830.70923444119023
 20
967.74458932988421
 11
830.74125671954334
 21
967.7635036506623
  0
LINE
  8
_2-7_ビス
  6
CONTINUOUS
 62
    7
 10
830.74125671954334
 20
967.7635036506623
 11
830.76980506719087
 21
967.78824403989381
  0
LINE
  8
_2-7_ビス
  6
CONTINUOUS
 62
    7
 10
830.76980506719087
 20
967.78824403989381
 11
830.79401205703573
 21
967.81805877337092
  0
LINE
  8
_2-7_ビス
  6
CONTINUOUS
 62
    7
 10
830.79401205703573
 20
967.81805877337092
 11
830.81314217194074
 21
967.8520419455042
  0
LINE
  8
_2-7_ビス
  6
CONTINUOUS
 62
    7
 10
830.81314217194074
 20
967.8520419455042
 11
830.82661415304494
 21
967.88916099480457
  0
LINE
  8
_2-7_ビス
  6
CONTINUOUS
 62
    7
 10
830.82661415304494
 20
967.88916099480457
 11
830.83401866101963
 21
967.92828807774208
  0
LINE
  8
_2-7_ビス
  6
CONTINUOUS
 62
    7
 10
830.83401866101963
 20
967.92828807774208
 11
830.83513071363666
 21
967.96823433770112
  0
LINE
  8
_2-7_ビス
  6
CONTINUOUS
 62
    7
 10
830.83513071363666
 20
967.96823433770112
 11
830.83430096257587
 21
967.97944420052511
  0
LINE
  8
_2-7_ビス
  6
CONTINUOUS
 62
    7
 10
830.64260826004681
 20
966.16540911392508
 11
830.64260826004681
 21
966.16540911392508
  0
LINE
  8
_2-7_ビス
  6
CONTINUOUS
 62
    7
 10
830.64260826004681
 20
966.16540911392508
 11
830.67713148838186
 21
966.17792266418417
  0
LINE
  8
_2-7_ビス
  6
CONTINUOUS
 62
    7
 10
830.67713148838186
 20
966.17792266418417
 11
830.70915376673497
 21
966.19683698496226
  0
LINE
  8
_2-7_ビス
  6
CONTINUOUS
 62
    7
 10
830.70915376673497
 20
966.19683698496226
 11
830.7377021143825
 21
966.22157737419377
  0
LINE
  8
_2-7_ビス
  6
CONTINUOUS
 62
    7
 10
830.7377021143825
 20
966.22157737419377
 11
830.76190910422736
 21
966.25139210767088
  0
LINE
  8
_2-7_ビス
  6
CONTINUOUS
 62
    7
 10
830.76190910422736
 20
966.25139210767088
 11
830.78103921913237
 21
966.28537527980416
  0
LINE
  8
_2-7_ビス
  6
CONTINUOUS
 62
    7
 10
830.78103921913237
 20
966.28537527980416
 11
830.79451120023657
 21
966.32249432910453
  0
LINE
  8
_2-7_ビス
  6
CONTINUOUS
 62
    7
 10
830.79451120023657
 20
966.32249432910453
 11
830.80191570821125
 21
966.36162141204204
  0
LINE
  8
_2-7_ビス
  6
CONTINUOUS
 62
    7
 10
830.80191570821125
 20
966.36162141204204
 11
830.80302776082829
 21
966.40156767200108
  0
LINE
  8
_2-7_ビス
  6
CONTINUOUS
 62
    7
 10
830.80302776082829
 20
966.40156767200108
 11
830.80219800976749
 21
966.41277753482507
  0
LINE
  8
_2-7_ビス
  6
CONTINUOUS
 62
    7
 10
830.62029332901727
 20
964.59874244822618
 11
830.62029332901727
 21
964.59874244822618
  0
LINE
  8
_2-7_ビス
  6
CONTINUOUS
 62
    7
 10
830.62029332901727
 20
964.59874244822618
 11
830.65481655735232
 21
964.61125599848526
  0
LINE
  8
_2-7_ビス
  6
CONTINUOUS
 62
    7
 10
830.65481655735232
 20
964.61125599848526
 11
830.68683883570543
 21
964.63017031926336
  0
LINE
  8
_2-7_ビス
  6
CONTINUOUS
 62
    7
 10
830.68683883570543
 20
964.63017031926336
 11
830.71538718335296
 21
964.65491070849487
  0
LINE
  8
_2-7_ビス
  6
CONTINUOUS
 62
    7
 10
830.71538718335296
 20
964.65491070849487
 11
830.73959417319782
 21
964.68472544197198
  0
LINE
  8
_2-7_ビス
  6
CONTINUOUS
 62
    7
 10
830.73959417319782
 20
964.68472544197198
 11
830.75872428810283
 21
964.71870861410525
  0
LINE
  8
_2-7_ビス
  6
CONTINUOUS
 62
    7
 10
830.75872428810283
 20
964.71870861410525
 11
830.77219626920703
 21
964.75582766340563
  0
LINE
  8
_2-7_ビス
  6
CONTINUOUS
 62
    7
 10
830.77219626920703
 20
964.75582766340563
 11
830.77960077718171
 21
964.79495474634314
  0
LINE
  8
_2-7_ビス
  6
CONTINUOUS
 62
    7
 10
830.77960077718171
 20
964.79495474634314
 11
830.78071282979874
 21
964.83490100630218
  0
LINE
  8
_2-7_ビス
  6
CONTINUOUS
 62
    7
 10
830.78071282979874
 20
964.83490100630218
 11
830.77988307873795
 21
964.84611086912616
  0
LINE
  8
_2-7_ビス
  6
CONTINUOUS
 62
    7
 10
830.62947651394927
 20
963.03207578252602
 11
830.62947651394927
 21
963.03207578252602
  0
LINE
  8
_2-7_ビス
  6
CONTINUOUS
 62
    7
 10
830.62947651394927
 20
963.03207578252602
 11
830.65662244988823
 21
963.03717160137478
  0
LINE
  8
_2-7_ビス
  6
CONTINUOUS
 62
    7
 10
830.65662244988823
 20
963.03717160137478
 11
830.68255111411997
 21
963.04737247318633
  0
LINE
  8
_2-7_ビス
  6
CONTINUOUS
 62
    7
 10
830.68255111411997
 20
963.04737247318633
 11
830.70647467730248
 21
963.06236844963269
  0
LINE
  8
_2-7_ビス
  6
CONTINUOUS
 62
    7
 10
830.70647467730248
 20
963.06236844963269
 11
830.72766623407438
 21
963.08170388555777
  0
LINE
  8
_2-7_ビス
  6
CONTINUOUS
 62
    7
 10
830.72766623407438
 20
963.08170388555777
 11
830.74548188970641
 21
963.10479128352529
  0
LINE
  8
_2-7_ビス
  6
CONTINUOUS
 62
    7
 10
830.74548188970641
 20
963.10479128352529
 11
830.75938032451745
 21
963.13092914463073
  0
LINE
  8
_2-7_ビス
  6
CONTINUOUS
 62
    7
 10
830.75938032451745
 20
963.13092914463073
 11
830.76893924159879
 21
963.15932328319082
  0
LINE
  8
_2-7_ビス
  6
CONTINUOUS
 62
    7
 10
830.76893924159879
 20
963.15932328319082
 11
830.77386819809192
 21
963.18911095767351
  0
LINE
  8
_2-7_ビス
  6
CONTINUOUS
 62
    7
 10
830.77386819809192
 20
963.18911095767351
 11
830.77401743014786
 21
963.21938708466303
  0
LINE
  8
_2-7_ビス
  6
CONTINUOUS
 62
    7
 10
830.77401743014786
 20
963.21938708466303
 11
830.76938240342622
 21
963.24923173936111
  0
LINE
  8
_2-7_ビス
  6
CONTINUOUS
 62
    7
 10
830.76938240342622
 20
963.24923173936111
 11
830.76010395086848
 21
963.27773810703695
  0
LINE
  8
_2-7_ビス
  6
CONTINUOUS
 62
    7
 10
830.76010395086848
 20
963.27773810703695
 11
830.7464639935605
 21
963.30404003613364
  0
LINE
  8
_2-7_ビス
  6
CONTINUOUS
 62
    7
 10
830.7464639935605
 20
963.30404003613364
 11
830.74638049980342
 21
963.30417252439543
  0
LINE
  8
_2-7_ビス
  6
CONTINUOUS
 62
    7
 10
830.32636776394963
 20
970.86540911102566
 11
830.32636776394963
 21
970.86540911102566
  0
LINE
  8
_2-7_ビス
  6
CONTINUOUS
 62
    7
 10
830.32636776394963
 20
970.86540911102566
 11
830.41069359474329
 21
970.87766906767342
  0
LINE
  8
_2-7_ビス
  6
CONTINUOUS
 62
    7
 10
830.41069359474329
 20
970.87766906767342
 11
830.49180191620167
 21
970.90584153438056
  0
LINE
  8
_2-7_ビス
  6
CONTINUOUS
 62
    7
 10
830.49180191620167
 20
970.90584153438056
 11
830.56722829301975
 21
970.94907050500206
  0
LINE
  8
_2-7_ビス
  6
CONTINUOUS
 62
    7
 10
830.56722829301975
 20
970.94907050500206
 11
830.63468093290567
 21
971.00604248914055
  0
LINE
  8
_2-7_ビス
  6
CONTINUOUS
 62
    7
 10
830.63468093290567
 20
971.00604248914055
 11
830.69211032152907
 21
971.07502642188729
  0
LINE
  8
_2-7_ビス
  6
CONTINUOUS
 62
    7
 10
830.69211032152907
 20
971.07502642188729
 11
830.73777149597731
 21
971.15392626135315
  0
LINE
  8
_2-7_ビス
  6
CONTINUOUS
 62
    7
 10
830.73777149597731
 20
971.15392626135315
 11
830.77027706457056
 21
971.24034467584136
  0
LINE
  8
_2-7_ビス
  6
CONTINUOUS
 62
    7
 10
830.77027706457056
 20
971.24034467584136
 11
830.78863936205562
 21
971.33165588555744
  0
LINE
  8
_2-7_ビス
  6
CONTINUOUS
 62
    7
 10
830.78863936205562
 20
971.33165588555744
 11
830.79230045931524
 21
971.42508544559996
  0
LINE
  8
_2-7_ビス
  6
CONTINUOUS
 62
    7
 10
830.79230045931524
 20
971.42508544559996
 11
830.78114911576176
 21
971.51779454606458
  0
LINE
  8
_2-7_ビス
  6
CONTINUOUS
 62
    7
 10
830.78114911576176
 20
971.51779454606458
 11
830.75552415932623
 21
971.6069662678467
  0
LINE
  8
_2-7_ビス
  6
CONTINUOUS
 62
    7
 10
830.75552415932623
 20
971.6069662678467
 11
830.71620419134308
 21
971.68989117330318
  0
LINE
  8
_2-7_ビス
  6
CONTINUOUS
 62
    7
 10
830.71620419134308
 20
971.68989117330318
 11
830.66438392914256
 21
971.76404963114362
  0
LINE
  8
_2-7_ビス
  6
CONTINUOUS
 62
    7
 10
830.66438392914256
 20
971.76404963114362
 11
830.60163790516935
 21
971.82718837415268
  0
LINE
  8
_2-7_ビス
  6
CONTINUOUS
 62
    7
 10
830.60163790516935
 20
971.82718837415268
 11
830.52987262561078
 21
971.87738896357359
  0
LINE
  8
_2-7_ビス
  6
CONTINUOUS
 62
    7
 10
830.52987262561078
 20
971.87738896357359
 11
830.4512686421715
 21
971.91312607989971
  0
LINE
  8
_2-7_ビス
  6
CONTINUOUS
 62
    7
 10
830.4512686421715
 20
971.91312607989971
 11
830.36821429711244
 21
971.9333138689351
  0
LINE
  8
_2-7_ビス
  6
CONTINUOUS
 62
    7
 10
830.36821429711244
 20
971.9333138689351
 11
830.32636776394963
 21
971.93733893492572
  0
LINE
  8
_2-7_ビス
  6
CONTINUOUS
 62
    7
 10
830.32636776394963
 20
978.69874243952586
 11
830.32636776394963
 21
978.69874243952586
  0
LINE
  8
_2-7_ビス
  6
CONTINUOUS
 62
    7
 10
830.32636776394963
 20
978.69874243952586
 11
830.41069359474329
 21
978.71100239617363
  0
LINE
  8
_2-7_ビス
  6
CONTINUOUS
 62
    7
 10
830.41069359474329
 20
978.71100239617363
 11
830.49180191620167
 21
978.73917486288076
  0
LINE
  8
_2-7_ビス
  6
CONTINUOUS
 62
    7
 10
830.49180191620167
 20
978.73917486288076
 11
830.56722829301975
 21
978.78240383350226
  0
LINE
  8
_2-7_ビス
  6
CONTINUOUS
 62
    7
 10
830.56722829301975
 20
978.78240383350226
 11
830.63468093290567
 21
978.83937581764076
  0
LINE
  8
_2-7_ビス
  6
CONTINUOUS
 62
    7
 10
830.63468093290567
 20
978.83937581764076
 11
830.69211032152907
 21
978.90835975038749
  0
LINE
  8
_2-7_ビス
  6
CONTINUOUS
 62
    7
 10
830.69211032152907
 20
978.90835975038749
 11
830.73777149597731
 21
978.98725958985335
  0
LINE
  8
_2-7_ビス
  6
CONTINUOUS
 62
    7
 10
830.73777149597731
 20
978.98725958985335
 11
830.77027706457056
 21
979.07367800434156
  0
LINE
  8
_2-7_ビス
  6
CONTINUOUS
 62
    7
 10
830.77027706457056
 20
979.07367800434156
 11
830.78863936205562
 21
979.16498921405764
  0
LINE
  8
_2-7_ビス
  6
CONTINUOUS
 62
    7
 10
830.78863936205562
 20
979.16498921405764
 11
830.79230045931524
 21
979.25841877410016
  0
LINE
  8
_2-7_ビス
  6
CONTINUOUS
 62
    7
 10
830.79230045931524
 20
979.25841877410016
 11
830.78114911576176
 21
979.35112787456478
  0
LINE
  8
_2-7_ビス
  6
CONTINUOUS
 62
    7
 10
830.78114911576176
 20
979.35112787456478
 11
830.75552415932623
 21
979.4402995963469
  0
LINE
  8
_2-7_ビス
  6
CONTINUOUS
 62
    7
 10
830.75552415932623
 20
979.4402995963469
 11
830.71620419134308
 21
979.52322450180338
  0
LINE
  8
_2-7_ビス
  6
CONTINUOUS
 62
    7
 10
830.71620419134308
 20
979.52322450180338
 11
830.66438392914256
 21
979.59738295964382
  0
LINE
  8
_2-7_ビス
  6
CONTINUOUS
 62
    7
 10
830.66438392914256
 20
979.59738295964382
 11
830.60163790516935
 21
979.66052170265289
  0
LINE
  8
_2-7_ビス
  6
CONTINUOUS
 62
    7
 10
830.60163790516935
 20
979.66052170265289
 11
830.52987262561078
 21
979.7107222920738
  0
LINE
  8
_2-7_ビス
  6
CONTINUOUS
 62
    7
 10
830.52987262561078
 20
979.7107222920738
 11
830.4512686421715
 21
979.74645940839991
  0
LINE
  8
_2-7_ビス
  6
CONTINUOUS
 62
    7
 10
830.4512686421715
 20
979.74645940839991
 11
830.36821429711244
 21
979.7666471974353
  0
LINE
  8
_2-7_ビス
  6
CONTINUOUS
 62
    7
 10
830.36821429711244
 20
979.7666471974353
 11
830.32636776394963
 21
979.77067226342592
  0
LINE
  8
_2-7_ビス
  6
CONTINUOUS
 62
    7
 10
830.70185990783909
 20
960.31102315262535
 11
830.70185990783909
 21
960.31102315262535
  0
LINE
  8
_2-7_ビス
  6
CONTINUOUS
 62
    7
 10
830.70185990783909
 20
960.31102315262535
 11
830.69645598341287
 21
960.45027877454061
  0
LINE
  8
_2-7_ビス
  6
CONTINUOUS
 62
    7
 10
830.69645598341287
 20
960.45027877454061
 11
830.66913929539351
 21
960.5863871196234
  0
LINE
  8
_2-7_ビス
  6
CONTINUOUS
 62
    7
 10
830.66913929539351
 20
960.5863871196234
 11
830.65158457475093
 21
960.64084771382534
  0
LINE
  8
_2-7_ビス
  6
CONTINUOUS
 62
    7
 10
831.79276551394867
 20
958.31169569507301
 11
831.79276551394867
 21
958.31169569507301
  0
LINE
  8
_2-7_ビス
  6
CONTINUOUS
 62
    7
 10
831.79276551394867
 20
958.31169569507301
 11
831.78994368911594
 21
958.36753588961699
  0
LINE
  8
_2-7_ビス
  6
CONTINUOUS
 62
    7
 10
831.78994368911594
 20
958.36753588961699
 11
831.77834500162714
 21
958.42198902747259
  0
LINE
  8
_2-7_ビス
  6
CONTINUOUS
 62
    7
 10
831.77834500162714
 20
958.42198902747259
 11
831.75832187173239
 21
958.47340057760061
  0
LINE
  8
_2-7_ビス
  6
CONTINUOUS
 62
    7
 10
831.75832187173239
 20
958.47340057760061
 11
831.73048269210142
 21
958.52020842606589
  0
LINE
  8
_2-7_ビス
  6
CONTINUOUS
 62
    7
 10
831.73048269210142
 20
958.52020842606589
 11
831.69567334212002
 21
958.56099034007877
  0
LINE
  8
_2-7_ビス
  6
CONTINUOUS
 62
    7
 10
831.69567334212002
 20
958.56099034007877
 11
831.65495148627292
 21
958.59450718181859
  0
LINE
  8
_2-7_ビス
  6
CONTINUOUS
 62
    7
 10
831.65495148627292
 20
958.59450718181859
 11
831.60955443754392
 21
958.61974055900941
  0
LINE
  8
_2-7_ビス
  6
CONTINUOUS
 62
    7
 10
831.60955443754392
 20
958.61974055900941
 11
831.56086156228639
 21
958.63592376825409
  0
LINE
  8
_2-7_ビス
  6
CONTINUOUS
 62
    7
 10
831.56086156228639
 20
958.63592376825409
 11
831.51035236887549
 21
958.64256509092877
  0
LINE
  8
_2-7_ビス
  6
CONTINUOUS
 62
    7
 10
831.51035236887549
 20
958.64256509092877
 11
831.45956155359409
 21
958.63946273380452
  0
LINE
  8
_2-7_ビス
  6
CONTINUOUS
 62
    7
 10
831.45956155359409
 20
958.63946273380452
 11
831.41003236966299
 21
958.62671096043289
  0
LINE
  8
_2-7_ビス
  6
CONTINUOUS
 62
    7
 10
831.41003236966299
 20
958.62671096043289
 11
831.36326973627297
 21
958.60469722699497
  0
LINE
  8
_2-7_ビス
  6
CONTINUOUS
 62
    7
 10
831.36326973627297
 20
958.60469722699497
 11
831.32069451237669
 21
958.57409040964183
  0
LINE
  8
_2-7_ビス
  6
CONTINUOUS
 62
    7
 10
831.32069451237669
 20
958.57409040964183
 11
831.28360032460807
 21
958.5358204810309
  0
LINE
  8
_2-7_ビス
  6
CONTINUOUS
 62
    7
 10
831.28360032460807
 20
958.5358204810309
 11
831.25311426109181
 21
958.49105025357755
  0
LINE
  8
_2-7_ビス
  6
CONTINUOUS
 62
    7
 10
831.25311426109181
 20
958.49105025357755
 11
831.23016262544127
 21
958.44114004798803
  0
LINE
  8
_2-7_ビス
  6
CONTINUOUS
 62
    7
 10
831.23016262544127
 20
958.44114004798803
 11
831.21544279149157
 21
958.38760636060351
  0
LINE
  8
_2-7_ビス
  6
CONTINUOUS
 62
    7
 10
831.21544279149157
 20
958.38760636060351
 11
831.20940201394876
 21
958.33207578542579
  0
LINE
  8
_2-7_ビス
  6
CONTINUOUS
 62
    7
 10
831.20940201394876
 20
958.33207578542579
 11
831.20940201394876
 21
958.33207578542567
  0
LINE
  8
_2-7_ビス
  6
CONTINUOUS
 62
    7
 10
966.59357071980128
 20
995.29974848191387
 11
966.59357071980128
 21
999.39523365482614
  0
LINE
  8
_2-7_ビス
  6
CONTINUOUS
 62
    7
 10
966.59357071980128
 20
999.39523365482614
 11
963.5935707198006
 21
999.39523365482614
  0
LINE
  8
_2-7_ビス
  6
CONTINUOUS
 62
    7
 10
966.59357071980128
 20
995.29974848191387
 11
967.3435707198006
 21
994.47518756171007
  0
LINE
  8
_2-7_ビス
  6
CONTINUOUS
 62
    7
 10
967.3435707198006
 20
994.47518756171007
 11
967.3435707198006
 21
992.3765818345953
  0
LINE
  8
_2-7_ビス
  6
CONTINUOUS
 62
    7
 10
967.3435707198006
 20
992.3765818345953
 11
966.79535146980004
 21
988.25898852134628
  0
LINE
  8
_2-7_ビス
  6
CONTINUOUS
 62
    7
 10
966.79535146980004
 20
988.25898852134628
 11
966.5534277198002
 21
987.85137401282554
  0
LINE
  8
_2-7_ビス
  6
CONTINUOUS
 62
    7
 10
966.5534277198002
 20
987.85137401282554
 11
966.59357071980128
 21
987.85137401282554
  0
LINE
  8
_2-7_ビス
  6
CONTINUOUS
 62
    7
 10
966.59357071980128
 20
987.85137401282554
 11
966.59357071980128
 21
986.03733892622586
  0
LINE
  8
_2-7_ビス
  6
CONTINUOUS
 62
    7
 10
966.59357071980128
 20
986.03733892622586
 11
966.16055815923335
 21
985.2127775232259
  0
LINE
  8
_2-7_ビス
  6
CONTINUOUS
 62
    7
 10
966.29046196980073
 20
984.96540910232511
 11
967.2685707198001
 21
984.96540910232511
  0
LINE
  8
_2-7_ビス
  6
CONTINUOUS
 62
    7
 10
967.2685707198001
 20
984.96540910232511
 11
967.2685707198001
 21
980.73201850844612
  0
LINE
  8
_2-7_ビス
  6
CONTINUOUS
 62
    7
 10
967.2685707198001
 20
980.73201850844612
 11
966.76710121980011
 21
979.77067226342569
  0
LINE
  8
_2-7_ビス
  6
CONTINUOUS
 62
    7
 10
966.76710121980011
 20
979.77067226342569
 11
966.76232071980041
 21
979.77067226342569
  0
LINE
  8
_2-7_ビス
  6
CONTINUOUS
 62
    7
 10
966.76231654651576
 20
979.77067261720777
 11
966.76232071980041
 21
979.77067226342569
  0
LINE
  8
_2-7_ビス
  6
CONTINUOUS
 62
    7
 10
966.76231654651576
 20
979.77067261720777
 11
966.76232071980041
 21
979.77067226342569
  0
LINE
  8
_2-7_ビス
  6
CONTINUOUS
 62
    7
 10
966.72972946980042
 20
978.69874243952609
 11
967.2685707198001
 21
978.69874243952609
  0
LINE
  8
_2-7_ビス
  6
CONTINUOUS
 62
    7
 10
967.2685707198001
 20
978.69874243952609
 11
967.2685707198001
 21
972.90150930275217
  0
LINE
  8
_2-7_ビス
  6
CONTINUOUS
 62
    7
 10
967.2685707198001
 20
972.90150930275217
 11
966.7623235327402
 21
971.93735793298742
  0
LINE
  8
_2-7_ビス
  6
CONTINUOUS
 62
    7
 10
966.76232071980041
 20
971.93733893492549
 11
966.75872908944473
 21
972.41479033216592
  0
LINE
  8
_2-7_ビス
  6
CONTINUOUS
 62
    7
 10
966.75872908944473
 20
972.41479033216592
 11
966.43804908182108
 21
972.43207577672592
  0
LINE
  8
_2-7_ビス
  6
CONTINUOUS
 62
    7
 10
966.27938704165319
 20
972.67944419762557
 11
966.72972946980042
 21
973.50400560062553
  0
LINE
  8
_2-7_ビス
  6
CONTINUOUS
 62
    7
 10
966.72972946980042
 20
973.50400560062553
 11
966.72972962192364
 21
973.98145706962055
  0
LINE
  8
_2-7_ビス
  6
CONTINUOUS
 62
    7
 10
966.72972962192364
 20
973.98145706962055
 11
966.38169721980137
 21
973.99874244242596
  0
LINE
  8
_2-7_ビス
  6
CONTINUOUS
 62
    7
 10
966.22210747008
 20
974.24611086332561
 11
966.72972946980042
 21
975.07067226632557
  0
LINE
  8
_2-7_ビス
  6
CONTINUOUS
 62
    7
 10
966.72972946980042
 20
975.07067226632557
 11
966.72972946980042
 21
975.54812382743421
  0
LINE
  8
_2-7_ビス
  6
CONTINUOUS
 62
    7
 10
966.72972946980042
 20
975.54812382743421
 11
966.38169721980137
 21
975.565409108126
  0
LINE
  8
_2-7_ビス
  6
CONTINUOUS
 62
    7
 10
966.22210747008
 20
975.81277752902565
 11
966.72972946980042
 21
976.63733893202561
  0
LINE
  8
_2-7_ビス
  6
CONTINUOUS
 62
    7
 10
966.72972946980042
 20
976.63733893202561
 11
966.72972946980042
 21
977.11479049313425
  0
LINE
  8
_2-7_ビス
  6
CONTINUOUS
 62
    7
 10
966.72972946980042
 20
977.11479049313425
 11
966.38169721980137
 21
977.13207577382605
  0
LINE
  8
_2-7_ビス
  6
CONTINUOUS
 62
    7
 10
966.22210747008
 20
977.37944419472569
 11
966.72972962192364
 21
978.20400559772565
  0
LINE
  8
_2-7_ビス
  6
CONTINUOUS
 62
    7
 10
966.72972962192364
 20
978.20400559772565
 11
966.72972946980042
 21
978.69874243952609
  0
LINE
  8
_2-7_ビス
  6
CONTINUOUS
 62
    7
 10
966.76231654651576
 20
979.77067261720777
 11
966.75863134527037
 21
980.24812408620164
  0
LINE
  8
_2-7_ビス
  6
CONTINUOUS
 62
    7
 10
966.75863134527037
 20
980.24812408620164
 11
966.44118646980121
 21
980.26540910522613
  0
LINE
  8
_2-7_ビス
  6
CONTINUOUS
 62
    7
 10
966.27909432948047
 20
980.51277752612577
 11
966.72972962192364
 21
981.33733892912574
  0
LINE
  8
_2-7_ビス
  6
CONTINUOUS
 62
    7
 10
966.72972962192364
 20
981.33733892912574
 11
966.72972962192364
 21
981.81479039811961
  0
LINE
  8
_2-7_ビス
  6
CONTINUOUS
 62
    7
 10
966.72972962192364
 20
981.81479039811961
 11
966.38169721980137
 21
981.83207577092617
  0
LINE
  8
_2-7_ビス
  6
CONTINUOUS
 62
    7
 10
966.22210747008
 20
982.07944419182581
 11
966.72972946980042
 21
982.90400559482578
  0
LINE
  8
_2-7_ビス
  6
CONTINUOUS
 62
    7
 10
966.72972946980042
 20
982.90400559482578
 11
966.72972962192364
 21
983.38145706381965
  0
LINE
  8
_2-7_ビス
  6
CONTINUOUS
 62
    7
 10
966.72972962192364
 20
983.38145706381965
 11
966.38081112731231
 21
983.39897401778558
  0
LINE
  8
_2-7_ビス
  6
CONTINUOUS
 62
    7
 10
966.22210747008
 20
983.64611085752585
 11
966.72972962192364
 21
984.47067226052582
  0
LINE
  8
_2-7_ビス
  6
CONTINUOUS
 62
    7
 10
966.72972962192364
 20
984.47067226052582
 11
966.72972946429343
 21
984.96540910232511
  0
LINE
  8
_2-7_ビス
  6
CONTINUOUS
 62
    7
 10
966.72972946980042
 20
970.86540911102588
 11
967.2685707198001
 21
970.86540911102588
  0
LINE
  8
_2-7_ビス
  6
CONTINUOUS
 62
    7
 10
967.2685707198001
 20
970.86540911102588
 11
967.2685707198001
 21
967.61716737618826
  0
LINE
  8
_2-7_ビス
  6
CONTINUOUS
 62
    7
 10
967.2685707198001
 20
967.61716737618826
 11
966.76278496980092
 21
964.10400560642529
  0
LINE
  8
_2-7_ビス
  6
CONTINUOUS
 62
    7
 10
966.76278496980092
 20
964.10400560642529
 11
966.7620504521368
 21
964.58145669056648
  0
LINE
  8
_2-7_ビス
  6
CONTINUOUS
 62
    7
 10
966.7620504521368
 20
964.58145669056648
 11
966.45336196979986
 21
964.59874244822572
  0
LINE
  8
_2-7_ビス
  6
CONTINUOUS
 62
    7
 10
966.76278496980092
 20
964.10400560642529
 11
966.32930815923362
 21
963.27944420342533
  0
LINE
  8
_2-7_ビス
  6
CONTINUOUS
 62
    7
 10
966.30880540501255
 20
964.84611086912537
 11
966.75940773847276
 21
965.67067227212533
  0
LINE
  8
_2-7_ビス
  6
CONTINUOUS
 62
    7
 10
966.75940773847276
 20
965.67067227212533
 11
966.75732283421087
 21
966.14812335626539
  0
LINE
  8
_2-7_ビス
  6
CONTINUOUS
 62
    7
 10
966.75732283421087
 20
966.14812335626539
 11
966.43499596980053
 21
966.16540911392576
  0
LINE
  8
_2-7_ビス
  6
CONTINUOUS
 62
    7
 10
966.28649047398301
 20
966.41277753482541
 11
966.75035833330628
 21
967.23733855297155
  0
LINE
  8
_2-7_ビス
  6
CONTINUOUS
 62
    7
 10
966.75035833330628
 20
967.23733855297155
 11
966.74629549260987
 21
967.71479002196656
  0
LINE
  8
_2-7_ビス
  6
CONTINUOUS
 62
    7
 10
966.74629549260987
 20
967.71479002196656
 11
966.41164213734203
 21
967.7320757796258
  0
LINE
  8
_2-7_ビス
  6
CONTINUOUS
 62
    7
 10
966.2543875211735
 20
967.97944420052545
 11
966.734590145379
 21
968.80400521867159
  0
LINE
  8
_2-7_ビス
  6
CONTINUOUS
 62
    7
 10
966.734590145379
 20
968.80400521867159
 11
966.72972946980042
 21
969.28145716463405
  0
LINE
  8
_2-7_ビス
  6
CONTINUOUS
 62
    7
 10
966.72972946980042
 20
969.28145716463405
 11
966.38169721980137
 21
969.29874244532584
  0
LINE
  8
_2-7_ビス
  6
CONTINUOUS
 62
    7
 10
966.22210747008
 20
969.54611086622549
 11
966.72972962192364
 21
970.37067226922545
  0
LINE
  8
_2-7_ビス
  6
CONTINUOUS
 62
    7
 10
966.72972962192364
 20
970.37067226922545
 11
966.72972946980042
 21
970.86540911102588
  0
LINE
  8
_2-7_ビス
  6
CONTINUOUS
 62
    7
 10
966.45921196979987
 20
963.03207578252568
 11
966.59357071980128
 21
963.03207578252568
  0
LINE
  8
_2-7_ビス
  6
CONTINUOUS
 62
    7
 10
966.59357071980128
 20
963.03207578252568
 11
966.59357071980128
 21
962.24874244967509
  0
LINE
  8
_2-7_ビス
  6
CONTINUOUS
 62
    7
 10
966.59357071980128
 20
962.24874244967509
 11
966.44357071980028
 21
962.24874244967509
  0
LINE
  8
_2-7_ビス
  6
CONTINUOUS
 62
    7
 10
966.44357071980028
 20
962.24874244967509
 11
966.44357071980028
 21
960.64084771382568
  0
LINE
  8
_2-7_ビス
  6
CONTINUOUS
 62
    7
 10
966.44357071980028
 20
960.64084771382568
 11
966.43710390899957
 21
960.64084771382568
  0
LINE
  8
_2-7_ビス
  6
CONTINUOUS
 62
    7
 10
966.38682871980097
 20
960.31102315262615
 11
966.38682857326205
 21
954.36058155980618
  0
LINE
  8
_2-7_ビス
  6
CONTINUOUS
 62
    7
 10
966.38682857326205
 20
954.36058155980618
 11
965.94639121980083
 21
953.70916073564672
  0
LINE
  8
_2-7_ビス
  6
CONTINUOUS
 62
    7
 10
965.94639121980083
 20
953.70916073564672
 11
964.9435707198005
 21
952.39523368382606
  0
LINE
  8
_2-7_ビス
  6
CONTINUOUS
 62
    7
 10
964.9435707198005
 20
952.39523368382606
 11
964.79419224030596
 21
952.39523368382606
  0
LINE
  8
_2-7_ビス
  6
CONTINUOUS
 62
    7
 10
964.79419224030596
 20
952.39523368382606
 11
965.87928634962043
 21
954.36058155980618
  0
LINE
  8
_2-7_ビス
  6
CONTINUOUS
 62
    7
 10
965.87928634962043
 20
954.36058155980618
 11
965.87928646980106
 21
958.33207578542556
  0
LINE
  8
_2-7_ビス
  6
CONTINUOUS
 62
    7
 10
965.29592296980115
 20
958.33207578542556
 11
965.29592324323278
 21
954.36058171250465
  0
LINE
  8
_2-7_ビス
  6
CONTINUOUS
 62
    7
 10
965.29592324323278
 20
954.36058171250465
 11
964.21082887800014
 21
952.39523368382606
  0
LINE
  8
_2-7_ビス
  6
CONTINUOUS
 62
    7
 10
964.21082887800014
 20
952.39523368382606
 11
963.5935707198006
 21
952.39523368382606
  0
LINE
  8
_2-7_ビス
  6
CONTINUOUS
 62
    7
 10
966.17127082488378
 20
985.23317693589127
 11
966.17127082488378
 21
985.23317693589127
  0
LINE
  8
_2-7_ビス
  6
CONTINUOUS
 62
    7
 10
966.17127082488378
 20
985.23317693589127
 11
966.15807269952893
 21
985.20691758051464
  0
LINE
  8
_2-7_ビス
  6
CONTINUOUS
 62
    7
 10
966.15807269952893
 20
985.20691758051464
 11
966.1492226421575
 21
985.17853749054575
  0
LINE
  8
_2-7_ビス
  6
CONTINUOUS
 62
    7
 10
966.1492226421575
 20
985.17853749054575
 11
966.14498955728436
 21
985.14889898065735
  0
LINE
  8
_2-7_ビス
  6
CONTINUOUS
 62
    7
 10
966.14498955728436
 20
985.14889898065735
 11
966.14550206505157
 21
985.11890260197436
  0
LINE
  8
_2-7_ビス
  6
CONTINUOUS
 62
    7
 10
966.14550206505157
 20
985.11890260197436
 11
966.15074459316975
 21
985.08945977928443
  0
LINE
  8
_2-7_ビス
  6
CONTINUOUS
 62
    7
 10
966.15074459316975
 20
985.08945977928443
 11
966.16055785007495
 21
985.06146511785607
  0
LINE
  8
_2-7_ビス
  6
CONTINUOUS
 62
    7
 10
966.16055785007495
 20
985.06146511785607
 11
966.17464366492186
 21
985.03576922131083
  0
LINE
  8
_2-7_ビス
  6
CONTINUOUS
 62
    7
 10
966.17464366492186
 20
985.03576922131083
 11
966.19257404735413
 21
985.0131528464625
  0
LINE
  8
_2-7_ビス
  6
CONTINUOUS
 62
    7
 10
966.19257404735413
 20
985.0131528464625
 11
966.21380419177467
 21
984.99430318041641
  0
LINE
  8
_2-7_ビス
  6
CONTINUOUS
 62
    7
 10
966.21380419177467
 20
984.99430318041641
 11
966.23768903098835
 21
984.97979296073686
  0
LINE
  8
_2-7_ビス
  6
CONTINUOUS
 62
    7
 10
966.23768903098835
 20
984.97979296073686
 11
966.26350283624197
 21
984.97006307310653
  0
LINE
  8
_2-7_ビス
  6
CONTINUOUS
 62
    7
 10
966.26350283624197
 20
984.97006307310653
 11
966.29046126812523
 21
984.96540915523724
  0
LINE
  8
_2-7_ビス
  6
CONTINUOUS
 62
    7
 10
966.29046126812523
 20
984.96540915523724
 11
966.29046196980073
 21
984.96540910232511
  0
LINE
  8
_2-7_ビス
  6
CONTINUOUS
 62
    7
 10
966.22210747007932
 20
983.64611085752551
 11
966.22210747007932
 21
983.64611085752551
  0
LINE
  8
_2-7_ビス
  6
CONTINUOUS
 62
    7
 10
966.22210747007932
 20
983.64611085752551
 11
966.22143636449221
 21
983.60615270353719
  0
LINE
  8
_2-7_ビス
  6
CONTINUOUS
 62
    7
 10
966.22143636449221
 20
983.60615270353719
 11
966.22708668305631
 21
983.56667348195492
  0
LINE
  8
_2-7_ビス
  6
CONTINUOUS
 62
    7
 10
966.22708668305631
 20
983.56667348195492
 11
966.23888674370107
 21
983.52887274894908
  0
LINE
  8
_2-7_ビス
  6
CONTINUOUS
 62
    7
 10
966.23888674370107
 20
983.52887274894908
 11
966.25647800755496
 21
983.49389906066392
  0
LINE
  8
_2-7_ビス
  6
CONTINUOUS
 62
    7
 10
966.25647800755496
 20
983.49389906066392
 11
966.27932597296751
 21
983.4628150749204
  0
LINE
  8
_2-7_ビス
  6
CONTINUOUS
 62
    7
 10
966.27932597296751
 20
983.4628150749204
 11
966.30673641607132
 21
983.43656526289612
  0
LINE
  8
_2-7_ビス
  6
CONTINUOUS
 62
    7
 10
966.30673641607132
 20
983.43656526289612
 11
966.33787648442274
 21
983.4159472118464
  0
LINE
  8
_2-7_ビス
  6
CONTINUOUS
 62
    7
 10
966.33787648442274
 20
983.4159472118464
 11
966.37180000280284
 21
983.40158739081915
  0
LINE
  8
_2-7_ビス
  6
CONTINUOUS
 62
    7
 10
966.37180000280284
 20
983.40158739081915
 11
966.3816972198
 21
983.39874243662553
  0
LINE
  8
_2-7_ビス
  6
CONTINUOUS
 62
    7
 10
966.22210747007932
 20
982.07944419182547
 11
966.22210747007932
 21
982.07944419182547
  0
LINE
  8
_2-7_ビス
  6
CONTINUOUS
 62
    7
 10
966.22210747007932
 20
982.07944419182547
 11
966.22143636449221
 21
982.03948603783715
  0
LINE
  8
_2-7_ビス
  6
CONTINUOUS
 62
    7
 10
966.22143636449221
 20
982.03948603783715
 11
966.22708668305631
 21
982.00000681625488
  0
LINE
  8
_2-7_ビス
  6
CONTINUOUS
 62
    7
 10
966.22708668305631
 20
982.00000681625488
 11
966.23888674370107
 21
981.96220608324904
  0
LINE
  8
_2-7_ビス
  6
CONTINUOUS
 62
    7
 10
966.23888674370107
 20
981.96220608324904
 11
966.25647800755496
 21
981.92723239496388
  0
LINE
  8
_2-7_ビス
  6
CONTINUOUS
 62
    7
 10
966.25647800755496
 20
981.92723239496388
 11
966.27932597296751
 21
981.89614840922036
  0
LINE
  8
_2-7_ビス
  6
CONTINUOUS
 62
    7
 10
966.27932597296751
 20
981.89614840922036
 11
966.30673641607132
 21
981.86989859719608
  0
LINE
  8
_2-7_ビス
  6
CONTINUOUS
 62
    7
 10
966.30673641607132
 20
981.86989859719608
 11
966.33787648442274
 21
981.84928054614636
  0
LINE
  8
_2-7_ビス
  6
CONTINUOUS
 62
    7
 10
966.33787648442274
 20
981.84928054614636
 11
966.37180000280284
 21
981.8349207251191
  0
LINE
  8
_2-7_ビス
  6
CONTINUOUS
 62
    7
 10
966.37180000280284
 20
981.8349207251191
 11
966.3816972198
 21
981.83207577092548
  0
LINE
  8
_2-7_ビス
  6
CONTINUOUS
 62
    7
 10
966.27909432948093
 20
980.51277752612543
 11
966.27909432948093
 21
980.51277752612543
  0
LINE
  8
_2-7_ビス
  6
CONTINUOUS
 62
    7
 10
966.27909432948093
 20
980.51277752612543
 11
966.27842322389381
 21
980.47281937213711
  0
LINE
  8
_2-7_ビス
  6
CONTINUOUS
 62
    7
 10
966.27842322389381
 20
980.47281937213711
 11
966.28407354245792
 21
980.43334015055484
  0
LINE
  8
_2-7_ビス
  6
CONTINUOUS
 62
    7
 10
966.28407354245792
 20
980.43334015055484
 11
966.29587360310268
 21
980.395539417549
  0
LINE
  8
_2-7_ビス
  6
CONTINUOUS
 62
    7
 10
966.29587360310268
 20
980.395539417549
 11
966.31346486695656
 21
980.36056572926384
  0
LINE
  8
_2-7_ビス
  6
CONTINUOUS
 62
    7
 10
966.31346486695656
 20
980.36056572926384
 11
966.33631283236912
 21
980.32948174352032
  0
LINE
  8
_2-7_ビス
  6
CONTINUOUS
 62
    7
 10
966.33631283236912
 20
980.32948174352032
 11
966.36372327547292
 21
980.30323193149604
  0
LINE
  8
_2-7_ビス
  6
CONTINUOUS
 62
    7
 10
966.36372327547292
 20
980.30323193149604
 11
966.39486334382434
 21
980.28261388044632
  0
LINE
  8
_2-7_ビス
  6
CONTINUOUS
 62
    7
 10
966.39486334382434
 20
980.28261388044632
 11
966.42878686220445
 21
980.26825405941906
  0
LINE
  8
_2-7_ビス
  6
CONTINUOUS
 62
    7
 10
966.42878686220445
 20
980.26825405941906
 11
966.43868407920161
 21
980.26540910522544
  0
LINE
  8
_2-7_ビス
  6
CONTINUOUS
 62
    7
 10
966.22210747007932
 20
977.37944419472535
 11
966.22210747007932
 21
977.37944419472535
  0
LINE
  8
_2-7_ビス
  6
CONTINUOUS
 62
    7
 10
966.22210747007932
 20
977.37944419472535
 11
966.22143636449221
 21
977.33948604073703
  0
LINE
  8
_2-7_ビス
  6
CONTINUOUS
 62
    7
 10
966.22143636449221
 20
977.33948604073703
 11
966.22708668305631
 21
977.30000681915476
  0
LINE
  8
_2-7_ビス
  6
CONTINUOUS
 62
    7
 10
966.22708668305631
 20
977.30000681915476
 11
966.23888674370107
 21
977.26220608614892
  0
LINE
  8
_2-7_ビス
  6
CONTINUOUS
 62
    7
 10
966.23888674370107
 20
977.26220608614892
 11
966.25647800755496
 21
977.22723239786376
  0
LINE
  8
_2-7_ビス
  6
CONTINUOUS
 62
    7
 10
966.25647800755496
 20
977.22723239786376
 11
966.27932597296751
 21
977.19614841212024
  0
LINE
  8
_2-7_ビス
  6
CONTINUOUS
 62
    7
 10
966.27932597296751
 20
977.19614841212024
 11
966.30673641607132
 21
977.16989860009596
  0
LINE
  8
_2-7_ビス
  6
CONTINUOUS
 62
    7
 10
966.30673641607132
 20
977.16989860009596
 11
966.33787648442274
 21
977.14928054904624
  0
LINE
  8
_2-7_ビス
  6
CONTINUOUS
 62
    7
 10
966.33787648442274
 20
977.14928054904624
 11
966.37180000280284
 21
977.13492072801898
  0
LINE
  8
_2-7_ビス
  6
CONTINUOUS
 62
    7
 10
966.37180000280284
 20
977.13492072801898
 11
966.3816972198
 21
977.13207577382536
  0
LINE
  8
_2-7_ビス
  6
CONTINUOUS
 62
    7
 10
966.22210747007932
 20
975.81277752902531
 11
966.22210747007932
 21
975.81277752902531
  0
LINE
  8
_2-7_ビス
  6
CONTINUOUS
 62
    7
 10
966.22210747007932
 20
975.81277752902531
 11
966.22143636449221
 21
975.77281937503699
  0
LINE
  8
_2-7_ビス
  6
CONTINUOUS
 62
    7
 10
966.22143636449221
 20
975.77281937503699
 11
966.22708668305631
 21
975.73334015345472
  0
LINE
  8
_2-7_ビス
  6
CONTINUOUS
 62
    7
 10
966.22708668305631
 20
975.73334015345472
 11
966.23888674370107
 21
975.69553942044888
  0
LINE
  8
_2-7_ビス
  6
CONTINUOUS
 62
    7
 10
966.23888674370107
 20
975.69553942044888
 11
966.25647800755496
 21
975.66056573216372
  0
LINE
  8
_2-7_ビス
  6
CONTINUOUS
 62
    7
 10
966.25647800755496
 20
975.66056573216372
 11
966.27932597296751
 21
975.6294817464202
  0
LINE
  8
_2-7_ビス
  6
CONTINUOUS
 62
    7
 10
966.27932597296751
 20
975.6294817464202
 11
966.30673641607132
 21
975.60323193439592
  0
LINE
  8
_2-7_ビス
  6
CONTINUOUS
 62
    7
 10
966.30673641607132
 20
975.60323193439592
 11
966.33787648442274
 21
975.5826138833462
  0
LINE
  8
_2-7_ビス
  6
CONTINUOUS
 62
    7
 10
966.33787648442274
 20
975.5826138833462
 11
966.37180000280284
 21
975.56825406231894
  0
LINE
  8
_2-7_ビス
  6
CONTINUOUS
 62
    7
 10
966.37180000280284
 20
975.56825406231894
 11
966.3816972198
 21
975.56540910812532
  0
LINE
  8
_2-7_ビス
  6
CONTINUOUS
 62
    7
 10
966.22210747007932
 20
974.24611086332527
 11
966.22210747007932
 21
974.24611086332527
  0
LINE
  8
_2-7_ビス
  6
CONTINUOUS
 62
    7
 10
966.22210747007932
 20
974.24611086332527
 11
966.22143636449221
 21
974.20615270933695
  0
LINE
  8
_2-7_ビス
  6
CONTINUOUS
 62
    7
 10
966.22143636449221
 20
974.20615270933695
 11
966.22708668305631
 21
974.16667348775468
  0
LINE
  8
_2-7_ビス
  6
CONTINUOUS
 62
    7
 10
966.22708668305631
 20
974.16667348775468
 11
966.23888674370107
 21
974.12887275474884
  0
LINE
  8
_2-7_ビス
  6
CONTINUOUS
 62
    7
 10
966.23888674370107
 20
974.12887275474884
 11
966.25647800755496
 21
974.09389906646368
  0
LINE
  8
_2-7_ビス
  6
CONTINUOUS
 62
    7
 10
966.25647800755496
 20
974.09389906646368
 11
966.27932597296751
 21
974.06281508072016
  0
LINE
  8
_2-7_ビス
  6
CONTINUOUS
 62
    7
 10
966.27932597296751
 20
974.06281508072016
 11
966.30673641607132
 21
974.03656526869588
  0
LINE
  8
_2-7_ビス
  6
CONTINUOUS
 62
    7
 10
966.30673641607132
 20
974.03656526869588
 11
966.33787648442274
 21
974.01594721764616
  0
LINE
  8
_2-7_ビス
  6
CONTINUOUS
 62
    7
 10
966.33787648442274
 20
974.01594721764616
 11
966.37180000280284
 21
974.0015873966189
  0
LINE
  8
_2-7_ビス
  6
CONTINUOUS
 62
    7
 10
966.37180000280284
 20
974.0015873966189
 11
966.3816972198
 21
973.99874244242528
  0
LINE
  8
_2-7_ビス
  6
CONTINUOUS
 62
    7
 10
966.27938704165365
 20
972.67944419762523
 11
966.27938704165365
 21
972.67944419762523
  0
LINE
  8
_2-7_ビス
  6
CONTINUOUS
 62
    7
 10
966.27938704165365
 20
972.67944419762523
 11
966.27871593606653
 21
972.63948604363691
  0
LINE
  8
_2-7_ビス
  6
CONTINUOUS
 62
    7
 10
966.27871593606653
 20
972.63948604363691
 11
966.28436625463064
 21
972.60000682205464
  0
LINE
  8
_2-7_ビス
  6
CONTINUOUS
 62
    7
 10
966.28436625463064
 20
972.60000682205464
 11
966.2961663152754
 21
972.5622060890488
  0
LINE
  8
_2-7_ビス
  6
CONTINUOUS
 62
    7
 10
966.2961663152754
 20
972.5622060890488
 11
966.31375757912929
 21
972.52723240076364
  0
LINE
  8
_2-7_ビス
  6
CONTINUOUS
 62
    7
 10
966.31375757912929
 20
972.52723240076364
 11
966.33660554454184
 21
972.49614841502012
  0
LINE
  8
_2-7_ビス
  6
CONTINUOUS
 62
    7
 10
966.33660554454184
 20
972.49614841502012
 11
966.36401598764564
 21
972.46989860299584
  0
LINE
  8
_2-7_ビス
  6
CONTINUOUS
 62
    7
 10
966.36401598764564
 20
972.46989860299584
 11
966.39515605599706
 21
972.44928055194612
  0
LINE
  8
_2-7_ビス
  6
CONTINUOUS
 62
    7
 10
966.39515605599706
 20
972.44928055194612
 11
966.42907957437717
 21
972.43492073091886
  0
LINE
  8
_2-7_ビス
  6
CONTINUOUS
 62
    7
 10
966.42907957437717
 20
972.43492073091886
 11
966.43897679137433
 21
972.43207577672524
  0
LINE
  8
_2-7_ビス
  6
CONTINUOUS
 62
    7
 10
966.22210747007932
 20
969.54611086622515
 11
966.22210747007932
 21
969.54611086622515
  0
LINE
  8
_2-7_ビス
  6
CONTINUOUS
 62
    7
 10
966.22210747007932
 20
969.54611086622515
 11
966.22143636449221
 21
969.50615271223683
  0
LINE
  8
_2-7_ビス
  6
CONTINUOUS
 62
    7
 10
966.22143636449221
 20
969.50615271223683
 11
966.22708668305631
 21
969.46667349065456
  0
LINE
  8
_2-7_ビス
  6
CONTINUOUS
 62
    7
 10
966.22708668305631
 20
969.46667349065456
 11
966.23888674370107
 21
969.42887275764872
  0
LINE
  8
_2-7_ビス
  6
CONTINUOUS
 62
    7
 10
966.23888674370107
 20
969.42887275764872
 11
966.25647800755496
 21
969.39389906936356
  0
LINE
  8
_2-7_ビス
  6
CONTINUOUS
 62
    7
 10
966.25647800755496
 20
969.39389906936356
 11
966.27932597296751
 21
969.36281508362003
  0
LINE
  8
_2-7_ビス
  6
CONTINUOUS
 62
    7
 10
966.27932597296751
 20
969.36281508362003
 11
966.30673641607132
 21
969.33656527159576
  0
LINE
  8
_2-7_ビス
  6
CONTINUOUS
 62
    7
 10
966.30673641607132
 20
969.33656527159576
 11
966.33787648442274
 21
969.31594722054604
  0
LINE
  8
_2-7_ビス
  6
CONTINUOUS
 62
    7
 10
966.33787648442274
 20
969.31594722054604
 11
966.37180000280284
 21
969.30158739951878
  0
LINE
  8
_2-7_ビス
  6
CONTINUOUS
 62
    7
 10
966.37180000280284
 20
969.30158739951878
 11
966.3816972198
 21
969.29874244532516
  0
LINE
  8
_2-7_ビス
  6
CONTINUOUS
 62
    7
 10
966.25438752117395
 20
967.97944420052511
 11
966.25438752117395
 21
967.97944420052511
  0
LINE
  8
_2-7_ビス
  6
CONTINUOUS
 62
    7
 10
966.25438752117395
 20
967.97944420052511
 11
966.25371641558684
 21
967.93948604653679
  0
LINE
  8
_2-7_ビス
  6
CONTINUOUS
 62
    7
 10
966.25371641558684
 20
967.93948604653679
 11
966.25936673415094
 21
967.90000682495452
  0
LINE
  8
_2-7_ビス
  6
CONTINUOUS
 62
    7
 10
966.25936673415094
 20
967.90000682495452
 11
966.2711667947957
 21
967.86220609194868
  0
LINE
  8
_2-7_ビス
  6
CONTINUOUS
 62
    7
 10
966.2711667947957
 20
967.86220609194868
 11
966.28875805864959
 21
967.82723240366352
  0
LINE
  8
_2-7_ビス
  6
CONTINUOUS
 62
    7
 10
966.28875805864959
 20
967.82723240366352
 11
966.31160602406214
 21
967.79614841791999
  0
LINE
  8
_2-7_ビス
  6
CONTINUOUS
 62
    7
 10
966.31160602406214
 20
967.79614841791999
 11
966.33901646716595
 21
967.76989860589572
  0
LINE
  8
_2-7_ビス
  6
CONTINUOUS
 62
    7
 10
966.33901646716595
 20
967.76989860589572
 11
966.37015653551737
 21
967.749280554846
  0
LINE
  8
_2-7_ビス
  6
CONTINUOUS
 62
    7
 10
966.37015653551737
 20
967.749280554846
 11
966.40408005389747
 21
967.73492073381874
  0
LINE
  8
_2-7_ビス
  6
CONTINUOUS
 62
    7
 10
966.40408005389747
 20
967.73492073381874
 11
966.41397727089463
 21
967.73207577962512
  0
LINE
  8
_2-7_ビス
  6
CONTINUOUS
 62
    7
 10
966.28649047398233
 20
966.41277753482507
 11
966.28649047398233
 21
966.41277753482507
  0
LINE
  8
_2-7_ビス
  6
CONTINUOUS
 62
    7
 10
966.28649047398233
 20
966.41277753482507
 11
966.28581936839521
 21
966.37281938083675
  0
LINE
  8
_2-7_ビス
  6
CONTINUOUS
 62
    7
 10
966.28581936839521
 20
966.37281938083675
 11
966.29146968695932
 21
966.33334015925448
  0
LINE
  8
_2-7_ビス
  6
CONTINUOUS
 62
    7
 10
966.29146968695932
 20
966.33334015925448
 11
966.30326974760408
 21
966.29553942624864
  0
LINE
  8
_2-7_ビス
  6
CONTINUOUS
 62
    7
 10
966.30326974760408
 20
966.29553942624864
 11
966.32086101145796
 21
966.26056573796347
  0
LINE
  8
_2-7_ビス
  6
CONTINUOUS
 62
    7
 10
966.32086101145796
 20
966.26056573796347
 11
966.34370897687052
 21
966.22948175221995
  0
LINE
  8
_2-7_ビス
  6
CONTINUOUS
 62
    7
 10
966.34370897687052
 20
966.22948175221995
 11
966.37111941997432
 21
966.20323194019568
  0
LINE
  8
_2-7_ビス
  6
CONTINUOUS
 62
    7
 10
966.37111941997432
 20
966.20323194019568
 11
966.40225948832574
 21
966.18261388914595
  0
LINE
  8
_2-7_ビス
  6
CONTINUOUS
 62
    7
 10
966.40225948832574
 20
966.18261388914595
 11
966.43618300670585
 21
966.1682540681187
  0
LINE
  8
_2-7_ビス
  6
CONTINUOUS
 62
    7
 10
966.43618300670585
 20
966.1682540681187
 11
966.44608022370301
 21
966.16540911392508
  0
LINE
  8
_2-7_ビス
  6
CONTINUOUS
 62
    7
 10
966.30880540501187
 20
964.84611086912616
 11
966.30880540501187
 21
964.84611086912616
  0
LINE
  8
_2-7_ビス
  6
CONTINUOUS
 62
    7
 10
966.30880540501187
 20
964.84611086912616
 11
966.30813429942475
 21
964.80615271513784
  0
LINE
  8
_2-7_ビス
  6
CONTINUOUS
 62
    7
 10
966.30813429942475
 20
964.80615271513784
 11
966.31378461798886
 21
964.76667349355557
  0
LINE
  8
_2-7_ビス
  6
CONTINUOUS
 62
    7
 10
966.31378461798886
 20
964.76667349355557
 11
966.32558467863362
 21
964.72887276054973
  0
LINE
  8
_2-7_ビス
  6
CONTINUOUS
 62
    7
 10
966.32558467863362
 20
964.72887276054973
 11
966.34317594248751
 21
964.69389907226457
  0
LINE
  8
_2-7_ビス
  6
CONTINUOUS
 62
    7
 10
966.34317594248751
 20
964.69389907226457
 11
966.36602390790006
 21
964.66281508652105
  0
LINE
  8
_2-7_ビス
  6
CONTINUOUS
 62
    7
 10
966.36602390790006
 20
964.66281508652105
 11
966.39343435100386
 21
964.63656527449677
  0
LINE
  8
_2-7_ビス
  6
CONTINUOUS
 62
    7
 10
966.39343435100386
 20
964.63656527449677
 11
966.42457441935528
 21
964.61594722344705
  0
LINE
  8
_2-7_ビス
  6
CONTINUOUS
 62
    7
 10
966.42457441935528
 20
964.61594722344705
 11
966.45849793773539
 21
964.6015874024198
  0
LINE
  8
_2-7_ビス
  6
CONTINUOUS
 62
    7
 10
966.45849793773539
 20
964.6015874024198
 11
966.46839515473255
 21
964.59874244822618
  0
LINE
  8
_2-7_ビス
  6
CONTINUOUS
 62
    7
 10
966.3423079839464
 20
963.30417252439543
 11
966.3423079839464
 21
963.30417252439543
  0
LINE
  8
_2-7_ビス
  6
CONTINUOUS
 62
    7
 10
966.3423079839464
 20
963.30417252439543
 11
966.32864583219634
 21
963.27788452241828
  0
LINE
  8
_2-7_ビス
  6
CONTINUOUS
 62
    7
 10
966.32864583219634
 20
963.27788452241828
 11
966.31934332264791
 21
963.24938763310467
  0
LINE
  8
_2-7_ビス
  6
CONTINUOUS
 62
    7
 10
966.31934332264791
 20
963.24938763310467
 11
966.31468310734647
 21
963.21954772001641
  0
LINE
  8
_2-7_ビス
  6
CONTINUOUS
 62
    7
 10
966.31468310734647
 20
963.21954772001641
 11
966.31480678457569
 21
963.18927145381281
  0
LINE
  8
_2-7_ビス
  6
CONTINUOUS
 62
    7
 10
966.31480678457569
 20
963.18927145381281
 11
966.31971059646548
 21
963.15947876352197
  0
LINE
  8
_2-7_ビス
  6
CONTINUOUS
 62
    7
 10
966.31971059646548
 20
963.15947876352197
 11
966.32924554317322
 21
963.13107488496246
  0
LINE
  8
_2-7_ビス
  6
CONTINUOUS
 62
    7
 10
966.32924554317322
 20
963.13107488496246
 11
966.34312191016795
 21
963.10492285561156
  0
LINE
  8
_2-7_ビス
  6
CONTINUOUS
 62
    7
 10
966.34312191016795
 20
963.10492285561156
 11
966.36091807106027
 21
963.08181729164721
  0
LINE
  8
_2-7_ビス
  6
CONTINUOUS
 62
    7
 10
966.36091807106027
 20
963.08181729164721
 11
966.38209329850702
 21
963.06246024393863
  0
LINE
  8
_2-7_ビス
  6
CONTINUOUS
 62
    7
 10
966.38209329850702
 20
963.06246024393863
 11
966.40600419393718
 21
963.04743986658525
  0
LINE
  8
_2-7_ビス
  6
CONTINUOUS
 62
    7
 10
966.40600419393718
 20
963.04743986658525
 11
966.43192423689266
 21
963.03721254615243
  0
LINE
  8
_2-7_ビス
  6
CONTINUOUS
 62
    7
 10
966.43192423689266
 20
963.03721254615243
 11
966.45906585998432
 21
963.03208903459597
  0
LINE
  8
_2-7_ビス
  6
CONTINUOUS
 62
    7
 10
966.45906585998432
 20
963.03208903459597
 11
966.45921196980055
 21
963.03207578252602
  0
LINE
  8
_2-7_ビス
  6
CONTINUOUS
 62
    7
 10
966.76232071980132
 20
971.93733893492572
 11
966.76232071980132
 21
971.93733893492572
  0
LINE
  8
_2-7_ビス
  6
CONTINUOUS
 62
    7
 10
966.76232071980132
 20
971.93733893492572
 11
966.67799488900755
 21
971.92507897827795
  0
LINE
  8
_2-7_ビス
  6
CONTINUOUS
 62
    7
 10
966.67799488900755
 20
971.92507897827795
 11
966.59688656754929
 21
971.89690651157082
  0
LINE
  8
_2-7_ビス
  6
CONTINUOUS
 62
    7
 10
966.59688656754929
 20
971.89690651157082
 11
966.5214601907312
 21
971.85367754094932
  0
LINE
  8
_2-7_ビス
  6
CONTINUOUS
 62
    7
 10
966.5214601907312
 20
971.85367754094932
 11
966.45400755084529
 21
971.79670555681082
  0
LINE
  8
_2-7_ビス
  6
CONTINUOUS
 62
    7
 10
966.45400755084529
 20
971.79670555681082
 11
966.39657816222189
 21
971.72772162406409
  0
LINE
  8
_2-7_ビス
  6
CONTINUOUS
 62
    7
 10
966.39657816222189
 20
971.72772162406409
 11
966.35091698777364
 21
971.64882178459823
  0
LINE
  8
_2-7_ビス
  6
CONTINUOUS
 62
    7
 10
966.35091698777364
 20
971.64882178459823
 11
966.31841141918039
 21
971.56240337011002
  0
LINE
  8
_2-7_ビス
  6
CONTINUOUS
 62
    7
 10
966.31841141918039
 20
971.56240337011002
 11
966.30004912169534
 21
971.47109216039394
  0
LINE
  8
_2-7_ビス
  6
CONTINUOUS
 62
    7
 10
966.30004912169534
 20
971.47109216039394
 11
966.29638802443571
 21
971.37766260035141
  0
LINE
  8
_2-7_ビス
  6
CONTINUOUS
 62
    7
 10
966.29638802443571
 20
971.37766260035141
 11
966.30753936798919
 21
971.2849534998868
  0
LINE
  8
_2-7_ビス
  6
CONTINUOUS
 62
    7
 10
966.30753936798919
 20
971.2849534998868
 11
966.33316432442473
 21
971.19578177810467
  0
LINE
  8
_2-7_ビス
  6
CONTINUOUS
 62
    7
 10
966.33316432442473
 20
971.19578177810467
 11
966.37248429240788
 21
971.11285687264819
  0
LINE
  8
_2-7_ビス
  6
CONTINUOUS
 62
    7
 10
966.37248429240788
 20
971.11285687264819
 11
966.4243045546084
 21
971.03869841480775
  0
LINE
  8
_2-7_ビス
  6
CONTINUOUS
 62
    7
 10
966.4243045546084
 20
971.03869841480775
 11
966.4870505785816
 21
970.97555967179869
  0
LINE
  8
_2-7_ビス
  6
CONTINUOUS
 62
    7
 10
966.4870505785816
 20
970.97555967179869
 11
966.55881585814018
 21
970.92535908237778
  0
LINE
  8
_2-7_ビス
  6
CONTINUOUS
 62
    7
 10
966.55881585814018
 20
970.92535908237778
 11
966.63741984157946
 21
970.88962196605166
  0
LINE
  8
_2-7_ビス
  6
CONTINUOUS
 62
    7
 10
966.63741984157946
 20
970.88962196605166
 11
966.72047418663851
 21
970.86943417701627
  0
LINE
  8
_2-7_ビス
  6
CONTINUOUS
 62
    7
 10
966.72047418663851
 20
970.86943417701627
 11
966.76232071980132
 21
970.86540911102566
  0
LINE
  8
_2-7_ビス
  6
CONTINUOUS
 62
    7
 10
966.76232071980132
 20
979.77067226342592
 11
966.76232071980132
 21
979.77067226342592
  0
LINE
  8
_2-7_ビス
  6
CONTINUOUS
 62
    7
 10
966.76232071980132
 20
979.77067226342592
 11
966.67799488900755
 21
979.75841230677815
  0
LINE
  8
_2-7_ビス
  6
CONTINUOUS
 62
    7
 10
966.67799488900755
 20
979.75841230677815
 11
966.59688656754929
 21
979.73023984007102
  0
LINE
  8
_2-7_ビス
  6
CONTINUOUS
 62
    7
 10
966.59688656754929
 20
979.73023984007102
 11
966.5214601907312
 21
979.68701086944952
  0
LINE
  8
_2-7_ビス
  6
CONTINUOUS
 62
    7
 10
966.5214601907312
 20
979.68701086944952
 11
966.45400755084529
 21
979.63003888531102
  0
LINE
  8
_2-7_ビス
  6
CONTINUOUS
 62
    7
 10
966.45400755084529
 20
979.63003888531102
 11
966.39657816222189
 21
979.56105495256429
  0
LINE
  8
_2-7_ビス
  6
CONTINUOUS
 62
    7
 10
966.39657816222189
 20
979.56105495256429
 11
966.35091698777364
 21
979.48215511309843
  0
LINE
  8
_2-7_ビス
  6
CONTINUOUS
 62
    7
 10
966.35091698777364
 20
979.48215511309843
 11
966.31841141918039
 21
979.39573669861022
  0
LINE
  8
_2-7_ビス
  6
CONTINUOUS
 62
    7
 10
966.31841141918039
 20
979.39573669861022
 11
966.30004912169534
 21
979.30442548889414
  0
LINE
  8
_2-7_ビス
  6
CONTINUOUS
 62
    7
 10
966.30004912169534
 20
979.30442548889414
 11
966.29638802443571
 21
979.21099592885162
  0
LINE
  8
_2-7_ビス
  6
CONTINUOUS
 62
    7
 10
966.29638802443571
 20
979.21099592885162
 11
966.30753936798919
 21
979.118286828387
  0
LINE
  8
_2-7_ビス
  6
CONTINUOUS
 62
    7
 10
966.30753936798919
 20
979.118286828387
 11
966.33316432442473
 21
979.02911510660488
  0
LINE
  8
_2-7_ビス
  6
CONTINUOUS
 62
    7
 10
966.33316432442473
 20
979.02911510660488
 11
966.37248429240788
 21
978.9461902011484
  0
LINE
  8
_2-7_ビス
  6
CONTINUOUS
 62
    7
 10
966.37248429240788
 20
978.9461902011484
 11
966.4243045546084
 21
978.87203174330796
  0
LINE
  8
_2-7_ビス
  6
CONTINUOUS
 62
    7
 10
966.4243045546084
 20
978.87203174330796
 11
966.4870505785816
 21
978.80889300029889
  0
LINE
  8
_2-7_ビス
  6
CONTINUOUS
 62
    7
 10
966.4870505785816
 20
978.80889300029889
 11
966.55881585814018
 21
978.75869241087798
  0
LINE
  8
_2-7_ビス
  6
CONTINUOUS
 62
    7
 10
966.55881585814018
 20
978.75869241087798
 11
966.63741984157946
 21
978.72295529455187
  0
LINE
  8
_2-7_ビス
  6
CONTINUOUS
 62
    7
 10
966.63741984157946
 20
978.72295529455187
 11
966.72047418663851
 21
978.70276750551648
  0
LINE
  8
_2-7_ビス
  6
CONTINUOUS
 62
    7
 10
966.72047418663851
 20
978.70276750551648
 11
966.76232071980132
 21
978.69874243952586
  0
LINE
  8
_2-7_ビス
  6
CONTINUOUS
 62
    7
 10
966.43710390899889
 20
960.64084771382534
 11
966.43710390899889
 21
960.64084771382534
  0
LINE
  8
_2-7_ビス
  6
CONTINUOUS
 62
    7
 10
966.43710390899889
 20
960.64084771382534
 11
966.40091869509706
 21
960.50726338705817
  0
LINE
  8
_2-7_ビス
  6
CONTINUOUS
 62
    7
 10
966.40091869509706
 20
960.50726338705817
 11
966.38638231915581
 21
960.36880033484272
  0
LINE
  8
_2-7_ビス
  6
CONTINUOUS
 62
    7
 10
966.38638231915581
 20
960.36880033484272
 11
966.38682857591073
 21
960.31102315262535
  0
LINE
  8
_2-7_ビス
  6
CONTINUOUS
 62
    7
 10
965.87928646980106
 20
958.33207578542567
 11
965.87928646980106
 21
958.33207578542567
  0
LINE
  8
_2-7_ビス
  6
CONTINUOUS
 62
    7
 10
965.87928646980106
 20
958.33207578542567
 11
965.87324569225825
 21
958.38760636060351
  0
LINE
  8
_2-7_ビス
  6
CONTINUOUS
 62
    7
 10
965.87324569225825
 20
958.38760636060351
 11
965.85852585830855
 21
958.44114004798803
  0
LINE
  8
_2-7_ビス
  6
CONTINUOUS
 62
    7
 10
965.85852585830855
 20
958.44114004798803
 11
965.83557422265801
 21
958.49105025357744
  0
LINE
  8
_2-7_ビス
  6
CONTINUOUS
 62
    7
 10
965.83557422265801
 20
958.49105025357744
 11
965.80508815914186
 21
958.5358204810309
  0
LINE
  8
_2-7_ビス
  6
CONTINUOUS
 62
    7
 10
965.80508815914186
 20
958.5358204810309
 11
965.76799397137324
 21
958.57409040964183
  0
LINE
  8
_2-7_ビス
  6
CONTINUOUS
 62
    7
 10
965.76799397137324
 20
958.57409040964183
 11
965.72541874747697
 21
958.60469722699497
  0
LINE
  8
_2-7_ビス
  6
CONTINUOUS
 62
    7
 10
965.72541874747697
 20
958.60469722699497
 11
965.67865611408695
 21
958.62671096043289
  0
LINE
  8
_2-7_ビス
  6
CONTINUOUS
 62
    7
 10
965.67865611408695
 20
958.62671096043289
 11
965.62912693015585
 21
958.63946273380452
  0
LINE
  8
_2-7_ビス
  6
CONTINUOUS
 62
    7
 10
965.62912693015585
 20
958.63946273380452
 11
965.57833611487433
 21
958.64256509092877
  0
LINE
  8
_2-7_ビス
  6
CONTINUOUS
 62
    7
 10
965.57833611487433
 20
958.64256509092877
 11
965.52782692146343
 21
958.63592376825409
  0
LINE
  8
_2-7_ビス
  6
CONTINUOUS
 62
    7
 10
965.52782692146343
 20
958.63592376825409
 11
965.47913404620601
 21
958.61974055900953
  0
LINE
  8
_2-7_ビス
  6
CONTINUOUS
 62
    7
 10
965.47913404620601
 20
958.61974055900953
 11
965.4337369974769
 21
958.59450718181859
  0
LINE
  8
_2-7_ビス
  6
CONTINUOUS
 62
    7
 10
965.4337369974769
 20
958.59450718181859
 11
965.3930151416298
 21
958.56099034007877
  0
LINE
  8
_2-7_ビス
  6
CONTINUOUS
 62
    7
 10
965.3930151416298
 20
958.56099034007877
 11
965.3582057916484
 21
958.52020842606589
  0
LINE
  8
_2-7_ビス
  6
CONTINUOUS
 62
    7
 10
965.3582057916484
 20
958.52020842606589
 11
965.33036661201743
 21
958.47340057760061
  0
LINE
  8
_2-7_ビス
  6
CONTINUOUS
 62
    7
 10
965.33036661201743
 20
958.47340057760061
 11
965.31034348212268
 21
958.4219890274727
  0
LINE
  8
_2-7_ビス
  6
CONTINUOUS
 62
    7
 10
965.31034348212268
 20
958.4219890274727
 11
965.29874479463388
 21
958.3675358896171
  0
LINE
  8
_2-7_ビス
  6
CONTINUOUS
 62
    7
 10
965.29874479463388
 20
958.3675358896171
 11
965.29592296980115
 21
958.31169569507313
  0
LINE
  8
_2-7_ビス
  6
CONTINUOUS
 62
    7
 10
965.29592296980115
 20
958.31169569507313
 11
965.29592296980115
 21
958.31169569507301
  0
LINE
  8
_2-7_ビス
  6
CONTINUOUS
 62
    7
 10
960.59357071979991
 20
995.29974848191387
 11
960.59357071979991
 21
999.39523365482614
  0
LINE
  8
_2-7_ビス
  6
CONTINUOUS
 62
    7
 10
960.59357071979991
 20
999.39523365482614
 11
963.5935707198006
 21
999.39523365482614
  0
LINE
  8
_2-7_ビス
  6
CONTINUOUS
 62
    7
 10
960.59357071979991
 20
995.29974848191387
 11
959.8435707198006
 21
994.47518756171007
  0
LINE
  8
_2-7_ビス
  6
CONTINUOUS
 62
    7
 10
959.8435707198006
 20
994.47518756171007
 11
959.8435707198006
 21
992.3765818345953
  0
LINE
  8
_2-7_ビス
  6
CONTINUOUS
 62
    7
 10
959.8435707198006
 20
992.3765818345953
 11
960.39178996980115
 21
988.25898852134628
  0
LINE
  8
_2-7_ビス
  6
CONTINUOUS
 62
    7
 10
960.39178996980115
 20
988.25898852134628
 11
960.63371371980099
 21
987.85137401282554
  0
LINE
  8
_2-7_ビス
  6
CONTINUOUS
 62
    7
 10
960.63371371980099
 20
987.85137401282554
 11
960.59357071979991
 21
987.85137401282554
  0
LINE
  8
_2-7_ビス
  6
CONTINUOUS
 62
    7
 10
960.59357071979991
 20
987.85137401282554
 11
960.59357071979991
 21
986.03733892622586
  0
LINE
  8
_2-7_ビス
  6
CONTINUOUS
 62
    7
 10
960.59357071979991
 20
986.03733892622586
 11
961.02658328036784
 21
985.2127775232259
  0
LINE
  8
_2-7_ビス
  6
CONTINUOUS
 62
    7
 10
960.89667946980046
 20
984.96540910232511
 11
959.9185707198011
 21
984.96540910232511
  0
LINE
  8
_2-7_ビス
  6
CONTINUOUS
 62
    7
 10
959.9185707198011
 20
984.96540910232511
 11
959.9185707198011
 21
980.73201850844612
  0
LINE
  8
_2-7_ビス
  6
CONTINUOUS
 62
    7
 10
959.9185707198011
 20
980.73201850844612
 11
960.42004021980108
 21
979.77067226342569
  0
LINE
  8
_2-7_ビス
  6
CONTINUOUS
 62
    7
 10
960.42004021980108
 20
979.77067226342569
 11
960.42482071980078
 21
979.77067226342569
  0
LINE
  8
_2-7_ビス
  6
CONTINUOUS
 62
    7
 10
960.42482489308543
 20
979.77067261720777
 11
960.42482071980078
 21
979.77067226342569
  0
LINE
  8
_2-7_ビス
  6
CONTINUOUS
 62
    7
 10
960.42482489308543
 20
979.77067261720777
 11
960.42482071980078
 21
979.77067226342569
  0
LINE
  8
_2-7_ビス
  6
CONTINUOUS
 62
    7
 10
960.45741196980077
 20
978.69874243952609
 11
959.9185707198011
 21
978.69874243952609
  0
LINE
  8
_2-7_ビス
  6
CONTINUOUS
 62
    7
 10
959.9185707198011
 20
978.69874243952609
 11
959.9185707198011
 21
972.90150930275217
  0
LINE
  8
_2-7_ビス
  6
CONTINUOUS
 62
    7
 10
959.9185707198011
 20
972.90150930275217
 11
960.42481790686213
 21
971.93735793298742
  0
LINE
  8
_2-7_ビス
  6
CONTINUOUS
 62
    7
 10
960.42482071980078
 20
971.93733893492549
 11
960.42841235015646
 21
972.41479033216592
  0
LINE
  8
_2-7_ビス
  6
CONTINUOUS
 62
    7
 10
960.42841235015646
 20
972.41479033216592
 11
960.74909235778011
 21
972.43207577672592
  0
LINE
  8
_2-7_ビス
  6
CONTINUOUS
 62
    7
 10
960.907754397948
 20
972.67944419762557
 11
960.45741196980077
 21
973.50400560062553
  0
LINE
  8
_2-7_ビス
  6
CONTINUOUS
 62
    7
 10
960.45741196980077
 20
973.50400560062553
 11
960.45741181767755
 21
973.98145706962055
  0
LINE
  8
_2-7_ビス
  6
CONTINUOUS
 62
    7
 10
960.45741181767755
 20
973.98145706962055
 11
960.80544421980096
 21
973.99874244242596
  0
LINE
  8
_2-7_ビス
  6
CONTINUOUS
 62
    7
 10
960.96503396952119
 20
974.24611086332561
 11
960.45741196980077
 21
975.07067226632557
  0
LINE
  8
_2-7_ビス
  6
CONTINUOUS
 62
    7
 10
960.45741196980077
 20
975.07067226632557
 11
960.45741196980077
 21
975.54812382743421
  0
LINE
  8
_2-7_ビス
  6
CONTINUOUS
 62
    7
 10
960.45741196980077
 20
975.54812382743421
 11
960.80544421980096
 21
975.565409108126
  0
LINE
  8
_2-7_ビス
  6
CONTINUOUS
 62
    7
 10
960.96503396952119
 20
975.81277752902565
 11
960.45741196980077
 21
976.63733893202561
  0
LINE
  8
_2-7_ビス
  6
CONTINUOUS
 62
    7
 10
960.45741196980077
 20
976.63733893202561
 11
960.45741196980077
 21
977.11479049313425
  0
LINE
  8
_2-7_ビス
  6
CONTINUOUS
 62
    7
 10
960.45741196980077
 20
977.11479049313425
 11
960.80544421980096
 21
977.13207577382605
  0
LINE
  8
_2-7_ビス
  6
CONTINUOUS
 62
    7
 10
960.96503396952119
 20
977.37944419472569
 11
960.45741181767755
 21
978.20400559772565
  0
LINE
  8
_2-7_ビス
  6
CONTINUOUS
 62
    7
 10
960.45741181767755
 20
978.20400559772565
 11
960.45741196980077
 21
978.69874243952609
  0
LINE
  8
_2-7_ビス
  6
CONTINUOUS
 62
    7
 10
960.42482489308543
 20
979.77067261720777
 11
960.42851009433082
 21
980.24812408620164
  0
LINE
  8
_2-7_ビス
  6
CONTINUOUS
 62
    7
 10
960.42851009433082
 20
980.24812408620164
 11
960.74595496979998
 21
980.26540910522613
  0
LINE
  8
_2-7_ビス
  6
CONTINUOUS
 62
    7
 10
960.90804711012186
 20
980.51277752612577
 11
960.45741181767755
 21
981.33733892912574
  0
LINE
  8
_2-7_ビス
  6
CONTINUOUS
 62
    7
 10
960.45741181767755
 20
981.33733892912574
 11
960.45741181767755
 21
981.81479039811961
  0
LINE
  8
_2-7_ビス
  6
CONTINUOUS
 62
    7
 10
960.45741181767755
 20
981.81479039811961
 11
960.80544421980096
 21
981.83207577092617
  0
LINE
  8
_2-7_ビス
  6
CONTINUOUS
 62
    7
 10
960.96503396952119
 20
982.07944419182581
 11
960.45741196980077
 21
982.90400559482578
  0
LINE
  8
_2-7_ビス
  6
CONTINUOUS
 62
    7
 10
960.45741196980077
 20
982.90400559482578
 11
960.45741181767755
 21
983.38145706381965
  0
LINE
  8
_2-7_ビス
  6
CONTINUOUS
 62
    7
 10
960.45741181767755
 20
983.38145706381965
 11
960.80633031228888
 21
983.39897401778558
  0
LINE
  8
_2-7_ビス
  6
CONTINUOUS
 62
    7
 10
960.96503396952119
 20
983.64611085752585
 11
960.45741181767755
 21
984.47067226052582
  0
LINE
  8
_2-7_ビス
  6
CONTINUOUS
 62
    7
 10
960.45741181767755
 20
984.47067226052582
 11
960.45741197530776
 21
984.96540910232511
  0
LINE
  8
_2-7_ビス
  6
CONTINUOUS
 62
    7
 10
960.45741196980077
 20
970.86540911102588
 11
959.9185707198011
 21
970.86540911102588
  0
LINE
  8
_2-7_ビス
  6
CONTINUOUS
 62
    7
 10
959.9185707198011
 20
970.86540911102588
 11
959.9185707198011
 21
967.61716737618826
  0
LINE
  8
_2-7_ビス
  6
CONTINUOUS
 62
    7
 10
959.9185707198011
 20
967.61716737618826
 11
960.42435646980027
 21
964.10400560642529
  0
LINE
  8
_2-7_ビス
  6
CONTINUOUS
 62
    7
 10
960.42435646980027
 20
964.10400560642529
 11
960.42509098746439
 21
964.58145669056648
  0
LINE
  8
_2-7_ビス
  6
CONTINUOUS
 62
    7
 10
960.42509098746439
 20
964.58145669056648
 11
960.73377946980133
 21
964.59874244822572
  0
LINE
  8
_2-7_ビス
  6
CONTINUOUS
 62
    7
 10
960.42435646980027
 20
964.10400560642529
 11
960.85783328036757
 21
963.27944420342533
  0
LINE
  8
_2-7_ビス
  6
CONTINUOUS
 62
    7
 10
960.87833603458864
 20
964.84611086912537
 11
960.42773370112843
 21
965.67067227212533
  0
LINE
  8
_2-7_ビス
  6
CONTINUOUS
 62
    7
 10
960.42773370112843
 20
965.67067227212533
 11
960.42981860539032
 21
966.14812335626539
  0
LINE
  8
_2-7_ビス
  6
CONTINUOUS
 62
    7
 10
960.42981860539032
 20
966.14812335626539
 11
960.75214546980067
 21
966.16540911392576
  0
LINE
  8
_2-7_ビス
  6
CONTINUOUS
 62
    7
 10
960.90065096561932
 20
966.41277753482541
 11
960.43678310629491
 21
967.23733855297155
  0
LINE
  8
_2-7_ビス
  6
CONTINUOUS
 62
    7
 10
960.43678310629491
 20
967.23733855297155
 11
960.44084594699132
 21
967.71479002196656
  0
LINE
  8
_2-7_ビス
  6
CONTINUOUS
 62
    7
 10
960.44084594699132
 20
967.71479002196656
 11
960.7754993022603
 21
967.7320757796258
  0
LINE
  8
_2-7_ビス
  6
CONTINUOUS
 62
    7
 10
960.93275391842769
 20
967.97944420052545
 11
960.45255129422219
 21
968.80400521867159
  0
LINE
  8
_2-7_ビス
  6
CONTINUOUS
 62
    7
 10
960.45255129422219
 20
968.80400521867159
 11
960.45741196980077
 21
969.28145716463405
  0
LINE
  8
_2-7_ビス
  6
CONTINUOUS
 62
    7
 10
960.45741196980077
 20
969.28145716463405
 11
960.80544421980096
 21
969.29874244532584
  0
LINE
  8
_2-7_ビス
  6
CONTINUOUS
 62
    7
 10
960.96503396952119
 20
969.54611086622549
 11
960.45741181767755
 21
970.37067226922545
  0
LINE
  8
_2-7_ビス
  6
CONTINUOUS
 62
    7
 10
960.45741181767755
 20
970.37067226922545
 11
960.45741196980077
 21
970.86540911102588
  0
LINE
  8
_2-7_ビス
  6
CONTINUOUS
 62
    7
 10
960.72792946980132
 20
963.03207578252568
 11
960.59357071979991
 21
963.03207578252568
  0
LINE
  8
_2-7_ビス
  6
CONTINUOUS
 62
    7
 10
960.59357071979991
 20
963.03207578252568
 11
960.59357071979991
 21
962.24874244967509
  0
LINE
  8
_2-7_ビス
  6
CONTINUOUS
 62
    7
 10
960.59357071979991
 20
962.24874244967509
 11
960.74357071980091
 21
962.24874244967509
  0
LINE
  8
_2-7_ビス
  6
CONTINUOUS
 62
    7
 10
960.74357071980091
 20
962.24874244967509
 11
960.74357071980091
 21
960.64084771382568
  0
LINE
  8
_2-7_ビス
  6
CONTINUOUS
 62
    7
 10
960.74357071980091
 20
960.64084771382568
 11
960.75003753060162
 21
960.64084771382568
  0
LINE
  8
_2-7_ビス
  6
CONTINUOUS
 62
    7
 10
960.80031271980022
 20
960.31102315262615
 11
960.80031286633914
 21
954.36058155980618
  0
LINE
  8
_2-7_ビス
  6
CONTINUOUS
 62
    7
 10
960.80031286633914
 20
954.36058155980618
 11
961.24075021980036
 21
953.70916073564672
  0
LINE
  8
_2-7_ビス
  6
CONTINUOUS
 62
    7
 10
961.24075021980036
 20
953.70916073564672
 11
962.24357071980069
 21
952.39523368382606
  0
LINE
  8
_2-7_ビス
  6
CONTINUOUS
 62
    7
 10
962.24357071980069
 20
952.39523368382606
 11
962.39294919929523
 21
952.39523368382606
  0
LINE
  8
_2-7_ビス
  6
CONTINUOUS
 62
    7
 10
962.39294919929523
 20
952.39523368382606
 11
961.30785508998076
 21
954.36058155980618
  0
LINE
  8
_2-7_ビス
  6
CONTINUOUS
 62
    7
 10
961.30785508998076
 20
954.36058155980618
 11
961.30785496980013
 21
958.33207578542556
  0
LINE
  8
_2-7_ビス
  6
CONTINUOUS
 62
    7
 10
961.89121846980004
 20
958.33207578542556
 11
961.89121819636841
 21
954.36058171250465
  0
LINE
  8
_2-7_ビス
  6
CONTINUOUS
 62
    7
 10
961.89121819636841
 20
954.36058171250465
 11
962.97631256160219
 21
952.39523368382606
  0
LINE
  8
_2-7_ビス
  6
CONTINUOUS
 62
    7
 10
962.97631256160219
 20
952.39523368382606
 11
963.5935707198006
 21
952.39523368382606
  0
LINE
  8
_2-7_ビス
  6
CONTINUOUS
 62
    7
 10
960.89667946980046
 20
984.96540910232511
 11
960.89667946980046
 21
984.96540910232511
  0
LINE
  8
_2-7_ビス
  6
CONTINUOUS
 62
    7
 10
960.89667946980046
 20
984.96540910232511
 11
960.92363792070103
 21
984.97006288704029
  0
LINE
  8
_2-7_ビス
  6
CONTINUOUS
 62
    7
 10
960.92363792070103
 20
984.97006288704029
 11
960.94945176571412
 21
984.97979264717026
  0
LINE
  8
_2-7_ビス
  6
CONTINUOUS
 62
    7
 10
960.94945176571412
 20
984.97979264717026
 11
960.97333666422151
 21
984.99430274887686
  0
LINE
  8
_2-7_ビス
  6
CONTINUOUS
 62
    7
 10
960.97333666422151
 20
984.99430274887686
 11
960.99456688566829
 21
985.01315231006208
  0
LINE
  8
_2-7_ビス
  6
CONTINUOUS
 62
    7
 10
960.99456688566829
 20
985.01315231006208
 11
961.01249736051886
 21
985.03576859634791
  0
LINE
  8
_2-7_ビス
  6
CONTINUOUS
 62
    7
 10
961.01249736051886
 20
985.03576859634791
 11
961.02658328036819
 21
985.06146442331976
  0
LINE
  8
_2-7_ビス
  6
CONTINUOUS
 62
    7
 10
961.02658328036819
 20
985.06146442331976
 11
961.03639665166941
 21
985.08945903627784
  0
LINE
  8
_2-7_ビス
  6
CONTINUOUS
 62
    7
 10
961.03639665166941
 20
985.08945903627784
 11
961.04163930010134
 21
985.11890183307344
  0
LINE
  8
_2-7_ビス
  6
CONTINUOUS
 62
    7
 10
961.04163930010134
 20
985.11890183307344
 11
961.04215193044433
 21
985.14889820922463
  0
LINE
  8
_2-7_ビス
  6
CONTINUOUS
 62
    7
 10
961.04215193044433
 20
985.14889820922463
 11
961.03791896668474
 21
985.17853674002106
  0
LINE
  8
_2-7_ビス
  6
CONTINUOUS
 62
    7
 10
961.03791896668474
 20
985.17853674002106
 11
961.02906902528457
 21
985.20691687370208
  0
LINE
  8
_2-7_ビス
  6
CONTINUOUS
 62
    7
 10
961.02906902528457
 20
985.20691687370208
 11
961.01587100723475
 21
985.23317629426708
  0
LINE
  8
_2-7_ビス
  6
CONTINUOUS
 62
    7
 10
961.01587100723475
 20
985.23317629426708
 11
961.01587061471741
 21
985.23317693589127
  0
LINE
  8
_2-7_ビス
  6
CONTINUOUS
 62
    7
 10
960.80544421980119
 20
983.39874243662553
 11
960.80544421980119
 21
983.39874243662553
  0
LINE
  8
_2-7_ビス
  6
CONTINUOUS
 62
    7
 10
960.80544421980119
 20
983.39874243662553
 11
960.83996744813624
 21
983.41125598688461
  0
LINE
  8
_2-7_ビス
  6
CONTINUOUS
 62
    7
 10
960.83996744813624
 20
983.41125598688461
 11
960.87198972648935
 21
983.43017030766271
  0
LINE
  8
_2-7_ビス
  6
CONTINUOUS
 62
    7
 10
960.87198972648935
 20
983.43017030766271
 11
960.90053807413688
 21
983.45491069689422
  0
LINE
  8
_2-7_ビス
  6
CONTINUOUS
 62
    7
 10
960.90053807413688
 20
983.45491069689422
 11
960.92474506398173
 21
983.48472543037133
  0
LINE
  8
_2-7_ビス
  6
CONTINUOUS
 62
    7
 10
960.92474506398173
 20
983.48472543037133
 11
960.94387517888674
 21
983.5187086025046
  0
LINE
  8
_2-7_ビス
  6
CONTINUOUS
 62
    7
 10
960.94387517888674
 20
983.5187086025046
 11
960.95734715999095
 21
983.55582765180498
  0
LINE
  8
_2-7_ビス
  6
CONTINUOUS
 62
    7
 10
960.95734715999095
 20
983.55582765180498
 11
960.96475166796563
 21
983.59495473474249
  0
LINE
  8
_2-7_ビス
  6
CONTINUOUS
 62
    7
 10
960.96475166796563
 20
983.59495473474249
 11
960.96586372058266
 21
983.63490099470152
  0
LINE
  8
_2-7_ビス
  6
CONTINUOUS
 62
    7
 10
960.96586372058266
 20
983.63490099470152
 11
960.96503396952187
 21
983.64611085752551
  0
LINE
  8
_2-7_ビス
  6
CONTINUOUS
 62
    7
 10
960.80544421980119
 20
981.83207577092548
 11
960.80544421980119
 21
981.83207577092548
  0
LINE
  8
_2-7_ビス
  6
CONTINUOUS
 62
    7
 10
960.80544421980119
 20
981.83207577092548
 11
960.83996744813624
 21
981.84458932118457
  0
LINE
  8
_2-7_ビス
  6
CONTINUOUS
 62
    7
 10
960.83996744813624
 20
981.84458932118457
 11
960.87198972648935
 21
981.86350364196267
  0
LINE
  8
_2-7_ビス
  6
CONTINUOUS
 62
    7
 10
960.87198972648935
 20
981.86350364196267
 11
960.90053807413688
 21
981.88824403119418
  0
LINE
  8
_2-7_ビス
  6
CONTINUOUS
 62
    7
 10
960.90053807413688
 20
981.88824403119418
 11
960.92474506398173
 21
981.91805876467129
  0
LINE
  8
_2-7_ビス
  6
CONTINUOUS
 62
    7
 10
960.92474506398173
 20
981.91805876467129
 11
960.94387517888674
 21
981.95204193680456
  0
LINE
  8
_2-7_ビス
  6
CONTINUOUS
 62
    7
 10
960.94387517888674
 20
981.95204193680456
 11
960.95734715999095
 21
981.98916098610493
  0
LINE
  8
_2-7_ビス
  6
CONTINUOUS
 62
    7
 10
960.95734715999095
 20
981.98916098610493
 11
960.96475166796563
 21
982.02828806904245
  0
LINE
  8
_2-7_ビス
  6
CONTINUOUS
 62
    7
 10
960.96475166796563
 20
982.02828806904245
 11
960.96586372058266
 21
982.06823432900148
  0
LINE
  8
_2-7_ビス
  6
CONTINUOUS
 62
    7
 10
960.96586372058266
 20
982.06823432900148
 11
960.96503396952187
 21
982.07944419182547
  0
LINE
  8
_2-7_ビス
  6
CONTINUOUS
 62
    7
 10
960.74845736039958
 20
980.26540910522544
 11
960.74845736039958
 21
980.26540910522544
  0
LINE
  8
_2-7_ビス
  6
CONTINUOUS
 62
    7
 10
960.74845736039958
 20
980.26540910522544
 11
960.78298058873463
 21
980.27792265548453
  0
LINE
  8
_2-7_ビス
  6
CONTINUOUS
 62
    7
 10
960.78298058873463
 20
980.27792265548453
 11
960.81500286708774
 21
980.29683697626263
  0
LINE
  8
_2-7_ビス
  6
CONTINUOUS
 62
    7
 10
960.81500286708774
 20
980.29683697626263
 11
960.84355121473527
 21
980.32157736549414
  0
LINE
  8
_2-7_ビス
  6
CONTINUOUS
 62
    7
 10
960.84355121473527
 20
980.32157736549414
 11
960.86775820458013
 21
980.35139209897125
  0
LINE
  8
_2-7_ビス
  6
CONTINUOUS
 62
    7
 10
960.86775820458013
 20
980.35139209897125
 11
960.88688831948514
 21
980.38537527110452
  0
LINE
  8
_2-7_ビス
  6
CONTINUOUS
 62
    7
 10
960.88688831948514
 20
980.38537527110452
 11
960.90036030058934
 21
980.42249432040489
  0
LINE
  8
_2-7_ビス
  6
CONTINUOUS
 62
    7
 10
960.90036030058934
 20
980.42249432040489
 11
960.90776480856402
 21
980.46162140334241
  0
LINE
  8
_2-7_ビス
  6
CONTINUOUS
 62
    7
 10
960.90776480856402
 20
980.46162140334241
 11
960.90887686118106
 21
980.50156766330144
  0
LINE
  8
_2-7_ビス
  6
CONTINUOUS
 62
    7
 10
960.90887686118106
 20
980.50156766330144
 11
960.90804711012026
 21
980.51277752612543
  0
LINE
  8
_2-7_ビス
  6
CONTINUOUS
 62
    7
 10
960.80544421980119
 20
977.13207577382536
 11
960.80544421980119
 21
977.13207577382536
  0
LINE
  8
_2-7_ビス
  6
CONTINUOUS
 62
    7
 10
960.80544421980119
 20
977.13207577382536
 11
960.83996744813624
 21
977.14458932408445
  0
LINE
  8
_2-7_ビス
  6
CONTINUOUS
 62
    7
 10
960.83996744813624
 20
977.14458932408445
 11
960.87198972648935
 21
977.16350364486254
  0
LINE
  8
_2-7_ビス
  6
CONTINUOUS
 62
    7
 10
960.87198972648935
 20
977.16350364486254
 11
960.90053807413688
 21
977.18824403409405
  0
LINE
  8
_2-7_ビス
  6
CONTINUOUS
 62
    7
 10
960.90053807413688
 20
977.18824403409405
 11
960.92474506398173
 21
977.21805876757116
  0
LINE
  8
_2-7_ビス
  6
CONTINUOUS
 62
    7
 10
960.92474506398173
 20
977.21805876757116
 11
960.94387517888674
 21
977.25204193970444
  0
LINE
  8
_2-7_ビス
  6
CONTINUOUS
 62
    7
 10
960.94387517888674
 20
977.25204193970444
 11
960.95734715999095
 21
977.28916098900481
  0
LINE
  8
_2-7_ビス
  6
CONTINUOUS
 62
    7
 10
960.95734715999095
 20
977.28916098900481
 11
960.96475166796563
 21
977.32828807194232
  0
LINE
  8
_2-7_ビス
  6
CONTINUOUS
 62
    7
 10
960.96475166796563
 20
977.32828807194232
 11
960.96586372058266
 21
977.36823433190136
  0
LINE
  8
_2-7_ビス
  6
CONTINUOUS
 62
    7
 10
960.96586372058266
 20
977.36823433190136
 11
960.96503396952187
 21
977.37944419472535
  0
LINE
  8
_2-7_ビス
  6
CONTINUOUS
 62
    7
 10
960.80544421980119
 20
975.56540910812532
 11
960.80544421980119
 21
975.56540910812532
  0
LINE
  8
_2-7_ビス
  6
CONTINUOUS
 62
    7
 10
960.80544421980119
 20
975.56540910812532
 11
960.83996744813624
 21
975.57792265838441
  0
LINE
  8
_2-7_ビス
  6
CONTINUOUS
 62
    7
 10
960.83996744813624
 20
975.57792265838441
 11
960.87198972648935
 21
975.5968369791625
  0
LINE
  8
_2-7_ビス
  6
CONTINUOUS
 62
    7
 10
960.87198972648935
 20
975.5968369791625
 11
960.90053807413688
 21
975.62157736839401
  0
LINE
  8
_2-7_ビス
  6
CONTINUOUS
 62
    7
 10
960.90053807413688
 20
975.62157736839401
 11
960.92474506398173
 21
975.65139210187112
  0
LINE
  8
_2-7_ビス
  6
CONTINUOUS
 62
    7
 10
960.92474506398173
 20
975.65139210187112
 11
960.94387517888674
 21
975.6853752740044
  0
LINE
  8
_2-7_ビス
  6
CONTINUOUS
 62
    7
 10
960.94387517888674
 20
975.6853752740044
 11
960.95734715999095
 21
975.72249432330477
  0
LINE
  8
_2-7_ビス
  6
CONTINUOUS
 62
    7
 10
960.95734715999095
 20
975.72249432330477
 11
960.96475166796563
 21
975.76162140624228
  0
LINE
  8
_2-7_ビス
  6
CONTINUOUS
 62
    7
 10
960.96475166796563
 20
975.76162140624228
 11
960.96586372058266
 21
975.80156766620132
  0
LINE
  8
_2-7_ビス
  6
CONTINUOUS
 62
    7
 10
960.96586372058266
 20
975.80156766620132
 11
960.96503396952187
 21
975.81277752902531
  0
LINE
  8
_2-7_ビス
  6
CONTINUOUS
 62
    7
 10
960.80544421980119
 20
973.99874244242528
 11
960.80544421980119
 21
973.99874244242528
  0
LINE
  8
_2-7_ビス
  6
CONTINUOUS
 62
    7
 10
960.80544421980119
 20
973.99874244242528
 11
960.83996744813624
 21
974.01125599268437
  0
LINE
  8
_2-7_ビス
  6
CONTINUOUS
 62
    7
 10
960.83996744813624
 20
974.01125599268437
 11
960.87198972648935
 21
974.03017031346246
  0
LINE
  8
_2-7_ビス
  6
CONTINUOUS
 62
    7
 10
960.87198972648935
 20
974.03017031346246
 11
960.90053807413688
 21
974.05491070269397
  0
LINE
  8
_2-7_ビス
  6
CONTINUOUS
 62
    7
 10
960.90053807413688
 20
974.05491070269397
 11
960.92474506398173
 21
974.08472543617108
  0
LINE
  8
_2-7_ビス
  6
CONTINUOUS
 62
    7
 10
960.92474506398173
 20
974.08472543617108
 11
960.94387517888674
 21
974.11870860830436
  0
LINE
  8
_2-7_ビス
  6
CONTINUOUS
 62
    7
 10
960.94387517888674
 20
974.11870860830436
 11
960.95734715999095
 21
974.15582765760473
  0
LINE
  8
_2-7_ビス
  6
CONTINUOUS
 62
    7
 10
960.95734715999095
 20
974.15582765760473
 11
960.96475166796563
 21
974.19495474054224
  0
LINE
  8
_2-7_ビス
  6
CONTINUOUS
 62
    7
 10
960.96475166796563
 20
974.19495474054224
 11
960.96586372058266
 21
974.23490100050128
  0
LINE
  8
_2-7_ビス
  6
CONTINUOUS
 62
    7
 10
960.96586372058266
 20
974.23490100050128
 11
960.96503396952187
 21
974.24611086332527
  0
LINE
  8
_2-7_ビス
  6
CONTINUOUS
 62
    7
 10
960.74816464822686
 20
972.43207577672524
 11
960.74816464822686
 21
972.43207577672524
  0
LINE
  8
_2-7_ビス
  6
CONTINUOUS
 62
    7
 10
960.74816464822686
 20
972.43207577672524
 11
960.78268787656191
 21
972.44458932698433
  0
LINE
  8
_2-7_ビス
  6
CONTINUOUS
 62
    7
 10
960.78268787656191
 20
972.44458932698433
 11
960.81471015491502
 21
972.46350364776242
  0
LINE
  8
_2-7_ビス
  6
CONTINUOUS
 62
    7
 10
960.81471015491502
 20
972.46350364776242
 11
960.84325850256255
 21
972.48824403699393
  0
LINE
  8
_2-7_ビス
  6
CONTINUOUS
 62
    7
 10
960.84325850256255
 20
972.48824403699393
 11
960.8674654924074
 21
972.51805877047104
  0
LINE
  8
_2-7_ビス
  6
CONTINUOUS
 62
    7
 10
960.8674654924074
 20
972.51805877047104
 11
960.88659560731242
 21
972.55204194260432
  0
LINE
  8
_2-7_ビス
  6
CONTINUOUS
 62
    7
 10
960.88659560731242
 20
972.55204194260432
 11
960.90006758841662
 21
972.58916099190469
  0
LINE
  8
_2-7_ビス
  6
CONTINUOUS
 62
    7
 10
960.90006758841662
 20
972.58916099190469
 11
960.9074720963913
 21
972.6282880748422
  0
LINE
  8
_2-7_ビス
  6
CONTINUOUS
 62
    7
 10
960.9074720963913
 20
972.6282880748422
 11
960.90858414900833
 21
972.66823433480124
  0
LINE
  8
_2-7_ビス
  6
CONTINUOUS
 62
    7
 10
960.90858414900833
 20
972.66823433480124
 11
960.90775439794754
 21
972.67944419762523
  0
LINE
  8
_2-7_ビス
  6
CONTINUOUS
 62
    7
 10
960.80544421980119
 20
969.29874244532516
 11
960.80544421980119
 21
969.29874244532516
  0
LINE
  8
_2-7_ビス
  6
CONTINUOUS
 62
    7
 10
960.80544421980119
 20
969.29874244532516
 11
960.83996744813624
 21
969.31125599558425
  0
LINE
  8
_2-7_ビス
  6
CONTINUOUS
 62
    7
 10
960.83996744813624
 20
969.31125599558425
 11
960.87198972648935
 21
969.33017031636234
  0
LINE
  8
_2-7_ビス
  6
CONTINUOUS
 62
    7
 10
960.87198972648935
 20
969.33017031636234
 11
960.90053807413688
 21
969.35491070559385
  0
LINE
  8
_2-7_ビス
  6
CONTINUOUS
 62
    7
 10
960.90053807413688
 20
969.35491070559385
 11
960.92474506398173
 21
969.38472543907096
  0
LINE
  8
_2-7_ビス
  6
CONTINUOUS
 62
    7
 10
960.92474506398173
 20
969.38472543907096
 11
960.94387517888674
 21
969.41870861120424
  0
LINE
  8
_2-7_ビス
  6
CONTINUOUS
 62
    7
 10
960.94387517888674
 20
969.41870861120424
 11
960.95734715999095
 21
969.45582766050461
  0
LINE
  8
_2-7_ビス
  6
CONTINUOUS
 62
    7
 10
960.95734715999095
 20
969.45582766050461
 11
960.96475166796563
 21
969.49495474344212
  0
LINE
  8
_2-7_ビス
  6
CONTINUOUS
 62
    7
 10
960.96475166796563
 20
969.49495474344212
 11
960.96586372058266
 21
969.53490100340116
  0
LINE
  8
_2-7_ビス
  6
CONTINUOUS
 62
    7
 10
960.96586372058266
 20
969.53490100340116
 11
960.96503396952187
 21
969.54611086622515
  0
LINE
  8
_2-7_ビス
  6
CONTINUOUS
 62
    7
 10
960.77316416870656
 20
967.73207577962512
 11
960.77316416870656
 21
967.73207577962512
  0
LINE
  8
_2-7_ビス
  6
CONTINUOUS
 62
    7
 10
960.77316416870656
 20
967.73207577962512
 11
960.8076873970416
 21
967.74458932988421
  0
LINE
  8
_2-7_ビス
  6
CONTINUOUS
 62
    7
 10
960.8076873970416
 20
967.74458932988421
 11
960.83970967539472
 21
967.7635036506623
  0
LINE
  8
_2-7_ビス
  6
CONTINUOUS
 62
    7
 10
960.83970967539472
 20
967.7635036506623
 11
960.86825802304224
 21
967.78824403989381
  0
LINE
  8
_2-7_ビス
  6
CONTINUOUS
 62
    7
 10
960.86825802304224
 20
967.78824403989381
 11
960.8924650128871
 21
967.81805877337092
  0
LINE
  8
_2-7_ビス
  6
CONTINUOUS
 62
    7
 10
960.8924650128871
 20
967.81805877337092
 11
960.91159512779211
 21
967.8520419455042
  0
LINE
  8
_2-7_ビス
  6
CONTINUOUS
 62
    7
 10
960.91159512779211
 20
967.8520419455042
 11
960.92506710889631
 21
967.88916099480457
  0
LINE
  8
_2-7_ビス
  6
CONTINUOUS
 62
    7
 10
960.92506710889631
 20
967.88916099480457
 11
960.932471616871
 21
967.92828807774208
  0
LINE
  8
_2-7_ビス
  6
CONTINUOUS
 62
    7
 10
960.932471616871
 20
967.92828807774208
 11
960.93358366948803
 21
967.96823433770112
  0
LINE
  8
_2-7_ビス
  6
CONTINUOUS
 62
    7
 10
960.93358366948803
 20
967.96823433770112
 11
960.93275391842724
 21
967.97944420052511
  0
LINE
  8
_2-7_ビス
  6
CONTINUOUS
 62
    7
 10
960.74106121589818
 20
966.16540911392508
 11
960.74106121589818
 21
966.16540911392508
  0
LINE
  8
_2-7_ビス
  6
CONTINUOUS
 62
    7
 10
960.74106121589818
 20
966.16540911392508
 11
960.77558444423323
 21
966.17792266418417
  0
LINE
  8
_2-7_ビス
  6
CONTINUOUS
 62
    7
 10
960.77558444423323
 20
966.17792266418417
 11
960.80760672258634
 21
966.19683698496226
  0
LINE
  8
_2-7_ビス
  6
CONTINUOUS
 62
    7
 10
960.80760672258634
 20
966.19683698496226
 11
960.83615507023387
 21
966.22157737419377
  0
LINE
  8
_2-7_ビス
  6
CONTINUOUS
 62
    7
 10
960.83615507023387
 20
966.22157737419377
 11
960.86036206007873
 21
966.25139210767088
  0
LINE
  8
_2-7_ビス
  6
CONTINUOUS
 62
    7
 10
960.86036206007873
 20
966.25139210767088
 11
960.87949217498374
 21
966.28537527980416
  0
LINE
  8
_2-7_ビス
  6
CONTINUOUS
 62
    7
 10
960.87949217498374
 20
966.28537527980416
 11
960.89296415608794
 21
966.32249432910453
  0
LINE
  8
_2-7_ビス
  6
CONTINUOUS
 62
    7
 10
960.89296415608794
 20
966.32249432910453
 11
960.90036866406263
 21
966.36162141204204
  0
LINE
  8
_2-7_ビス
  6
CONTINUOUS
 62
    7
 10
960.90036866406263
 20
966.36162141204204
 11
960.90148071667966
 21
966.40156767200108
  0
LINE
  8
_2-7_ビス
  6
CONTINUOUS
 62
    7
 10
960.90148071667966
 20
966.40156767200108
 11
960.90065096561887
 21
966.41277753482507
  0
LINE
  8
_2-7_ビス
  6
CONTINUOUS
 62
    7
 10
960.71874628486864
 20
964.59874244822618
 11
960.71874628486864
 21
964.59874244822618
  0
LINE
  8
_2-7_ビス
  6
CONTINUOUS
 62
    7
 10
960.71874628486864
 20
964.59874244822618
 11
960.75326951320369
 21
964.61125599848526
  0
LINE
  8
_2-7_ビス
  6
CONTINUOUS
 62
    7
 10
960.75326951320369
 20
964.61125599848526
 11
960.7852917915568
 21
964.63017031926336
  0
LINE
  8
_2-7_ビス
  6
CONTINUOUS
 62
    7
 10
960.7852917915568
 20
964.63017031926336
 11
960.81384013920433
 21
964.65491070849487
  0
LINE
  8
_2-7_ビス
  6
CONTINUOUS
 62
    7
 10
960.81384013920433
 20
964.65491070849487
 11
960.83804712904919
 21
964.68472544197198
  0
LINE
  8
_2-7_ビス
  6
CONTINUOUS
 62
    7
 10
960.83804712904919
 20
964.68472544197198
 11
960.8571772439542
 21
964.71870861410525
  0
LINE
  8
_2-7_ビス
  6
CONTINUOUS
 62
    7
 10
960.8571772439542
 20
964.71870861410525
 11
960.8706492250584
 21
964.75582766340563
  0
LINE
  8
_2-7_ビス
  6
CONTINUOUS
 62
    7
 10
960.8706492250584
 20
964.75582766340563
 11
960.87805373303308
 21
964.79495474634314
  0
LINE
  8
_2-7_ビス
  6
CONTINUOUS
 62
    7
 10
960.87805373303308
 20
964.79495474634314
 11
960.87916578565012
 21
964.83490100630218
  0
LINE
  8
_2-7_ビス
  6
CONTINUOUS
 62
    7
 10
960.87916578565012
 20
964.83490100630218
 11
960.87833603458932
 21
964.84611086912616
  0
LINE
  8
_2-7_ビス
  6
CONTINUOUS
 62
    7
 10
960.72792946980064
 20
963.03207578252602
 11
960.72792946980064
 21
963.03207578252602
  0
LINE
  8
_2-7_ビス
  6
CONTINUOUS
 62
    7
 10
960.72792946980064
 20
963.03207578252602
 11
960.7550754057396
 21
963.03717160137478
  0
LINE
  8
_2-7_ビス
  6
CONTINUOUS
 62
    7
 10
960.7550754057396
 20
963.03717160137478
 11
960.78100406997135
 21
963.04737247318633
  0
LINE
  8
_2-7_ビス
  6
CONTINUOUS
 62
    7
 10
960.78100406997135
 20
963.04737247318633
 11
960.80492763315385
 21
963.06236844963269
  0
LINE
  8
_2-7_ビス
  6
CONTINUOUS
 62
    7
 10
960.80492763315385
 20
963.06236844963269
 11
960.82611918992575
 21
963.08170388555777
  0
LINE
  8
_2-7_ビス
  6
CONTINUOUS
 62
    7
 10
960.82611918992575
 20
963.08170388555777
 11
960.84393484555778
 21
963.10479128352529
  0
LINE
  8
_2-7_ビス
  6
CONTINUOUS
 62
    7
 10
960.84393484555778
 20
963.10479128352529
 11
960.85783328036882
 21
963.13092914463073
  0
LINE
  8
_2-7_ビス
  6
CONTINUOUS
 62
    7
 10
960.85783328036882
 20
963.13092914463073
 11
960.86739219745016
 21
963.15932328319082
  0
LINE
  8
_2-7_ビス
  6
CONTINUOUS
 62
    7
 10
960.86739219745016
 20
963.15932328319082
 11
960.87232115394329
 21
963.18911095767351
  0
LINE
  8
_2-7_ビス
  6
CONTINUOUS
 62
    7
 10
960.87232115394329
 20
963.18911095767351
 11
960.87247038599924
 21
963.21938708466303
  0
LINE
  8
_2-7_ビス
  6
CONTINUOUS
 62
    7
 10
960.87247038599924
 20
963.21938708466303
 11
960.86783535927759
 21
963.24923173936111
  0
LINE
  8
_2-7_ビス
  6
CONTINUOUS
 62
    7
 10
960.86783535927759
 20
963.24923173936111
 11
960.85855690671985
 21
963.27773810703695
  0
LINE
  8
_2-7_ビス
  6
CONTINUOUS
 62
    7
 10
960.85855690671985
 20
963.27773810703695
 11
960.84491694941187
 21
963.30404003613364
  0
LINE
  8
_2-7_ビス
  6
CONTINUOUS
 62
    7
 10
960.84491694941187
 20
963.30404003613364
 11
960.84483345565479
 21
963.30417252439543
  0
LINE
  8
_2-7_ビス
  6
CONTINUOUS
 62
    7
 10
960.424820719801
 20
970.86540911102566
 11
960.424820719801
 21
970.86540911102566
  0
LINE
  8
_2-7_ビス
  6
CONTINUOUS
 62
    7
 10
960.424820719801
 20
970.86540911102566
 11
960.50914655059466
 21
970.87766906767342
  0
LINE
  8
_2-7_ビス
  6
CONTINUOUS
 62
    7
 10
960.50914655059466
 20
970.87766906767342
 11
960.59025487205304
 21
970.90584153438056
  0
LINE
  8
_2-7_ビス
  6
CONTINUOUS
 62
    7
 10
960.59025487205304
 20
970.90584153438056
 11
960.66568124887112
 21
970.94907050500206
  0
LINE
  8
_2-7_ビス
  6
CONTINUOUS
 62
    7
 10
960.66568124887112
 20
970.94907050500206
 11
960.73313388875704
 21
971.00604248914055
  0
LINE
  8
_2-7_ビス
  6
CONTINUOUS
 62
    7
 10
960.73313388875704
 20
971.00604248914055
 11
960.79056327738044
 21
971.07502642188729
  0
LINE
  8
_2-7_ビス
  6
CONTINUOUS
 62
    7
 10
960.79056327738044
 20
971.07502642188729
 11
960.83622445182868
 21
971.15392626135315
  0
LINE
  8
_2-7_ビス
  6
CONTINUOUS
 62
    7
 10
960.83622445182868
 20
971.15392626135315
 11
960.86873002042194
 21
971.24034467584136
  0
LINE
  8
_2-7_ビス
  6
CONTINUOUS
 62
    7
 10
960.86873002042194
 20
971.24034467584136
 11
960.88709231790699
 21
971.33165588555744
  0
LINE
  8
_2-7_ビス
  6
CONTINUOUS
 62
    7
 10
960.88709231790699
 20
971.33165588555744
 11
960.89075341516661
 21
971.42508544559996
  0
LINE
  8
_2-7_ビス
  6
CONTINUOUS
 62
    7
 10
960.89075341516661
 20
971.42508544559996
 11
960.87960207161314
 21
971.51779454606458
  0
LINE
  8
_2-7_ビス
  6
CONTINUOUS
 62
    7
 10
960.87960207161314
 20
971.51779454606458
 11
960.8539771151776
 21
971.6069662678467
  0
LINE
  8
_2-7_ビス
  6
CONTINUOUS
 62
    7
 10
960.8539771151776
 20
971.6069662678467
 11
960.81465714719445
 21
971.68989117330318
  0
LINE
  8
_2-7_ビス
  6
CONTINUOUS
 62
    7
 10
960.81465714719445
 20
971.68989117330318
 11
960.76283688499393
 21
971.76404963114362
  0
LINE
  8
_2-7_ビス
  6
CONTINUOUS
 62
    7
 10
960.76283688499393
 20
971.76404963114362
 11
960.70009086102073
 21
971.82718837415268
  0
LINE
  8
_2-7_ビス
  6
CONTINUOUS
 62
    7
 10
960.70009086102073
 20
971.82718837415268
 11
960.62832558146215
 21
971.87738896357359
  0
LINE
  8
_2-7_ビス
  6
CONTINUOUS
 62
    7
 10
960.62832558146215
 20
971.87738896357359
 11
960.54972159802287
 21
971.91312607989971
  0
LINE
  8
_2-7_ビス
  6
CONTINUOUS
 62
    7
 10
960.54972159802287
 20
971.91312607989971
 11
960.46666725296382
 21
971.9333138689351
  0
LINE
  8
_2-7_ビス
  6
CONTINUOUS
 62
    7
 10
960.46666725296382
 20
971.9333138689351
 11
960.424820719801
 21
971.93733893492572
  0
LINE
  8
_2-7_ビス
  6
CONTINUOUS
 62
    7
 10
960.424820719801
 20
978.69874243952586
 11
960.424820719801
 21
978.69874243952586
  0
LINE
  8
_2-7_ビス
  6
CONTINUOUS
 62
    7
 10
960.424820719801
 20
978.69874243952586
 11
960.50914655059466
 21
978.71100239617363
  0
LINE
  8
_2-7_ビス
  6
CONTINUOUS
 62
    7
 10
960.50914655059466
 20
978.71100239617363
 11
960.59025487205304
 21
978.73917486288076
  0
LINE
  8
_2-7_ビス
  6
CONTINUOUS
 62
    7
 10
960.59025487205304
 20
978.73917486288076
 11
960.66568124887112
 21
978.78240383350226
  0
LINE
  8
_2-7_ビス
  6
CONTINUOUS
 62
    7
 10
960.66568124887112
 20
978.78240383350226
 11
960.73313388875704
 21
978.83937581764076
  0
LINE
  8
_2-7_ビス
  6
CONTINUOUS
 62
    7
 10
960.73313388875704
 20
978.83937581764076
 11
960.79056327738044
 21
978.90835975038749
  0
LINE
  8
_2-7_ビス
  6
CONTINUOUS
 62
    7
 10
960.79056327738044
 20
978.90835975038749
 11
960.83622445182868
 21
978.98725958985335
  0
LINE
  8
_2-7_ビス
  6
CONTINUOUS
 62
    7
 10
960.83622445182868
 20
978.98725958985335
 11
960.86873002042194
 21
979.07367800434156
  0
LINE
  8
_2-7_ビス
  6
CONTINUOUS
 62
    7
 10
960.86873002042194
 20
979.07367800434156
 11
960.88709231790699
 21
979.16498921405764
  0
LINE
  8
_2-7_ビス
  6
CONTINUOUS
 62
    7
 10
960.88709231790699
 20
979.16498921405764
 11
960.89075341516661
 21
979.25841877410016
  0
LINE
  8
_2-7_ビス
  6
CONTINUOUS
 62
    7
 10
960.89075341516661
 20
979.25841877410016
 11
960.87960207161314
 21
979.35112787456478
  0
LINE
  8
_2-7_ビス
  6
CONTINUOUS
 62
    7
 10
960.87960207161314
 20
979.35112787456478
 11
960.8539771151776
 21
979.4402995963469
  0
LINE
  8
_2-7_ビス
  6
CONTINUOUS
 62
    7
 10
960.8539771151776
 20
979.4402995963469
 11
960.81465714719445
 21
979.52322450180338
  0
LINE
  8
_2-7_ビス
  6
CONTINUOUS
 62
    7
 10
960.81465714719445
 20
979.52322450180338
 11
960.76283688499393
 21
979.59738295964382
  0
LINE
  8
_2-7_ビス
  6
CONTINUOUS
 62
    7
 10
960.76283688499393
 20
979.59738295964382
 11
960.70009086102073
 21
979.66052170265289
  0
LINE
  8
_2-7_ビス
  6
CONTINUOUS
 62
    7
 10
960.70009086102073
 20
979.66052170265289
 11
960.62832558146215
 21
979.7107222920738
  0
LINE
  8
_2-7_ビス
  6
CONTINUOUS
 62
    7
 10
960.62832558146215
 20
979.7107222920738
 11
960.54972159802287
 21
979.74645940839991
  0
LINE
  8
_2-7_ビス
  6
CONTINUOUS
 62
    7
 10
960.54972159802287
 20
979.74645940839991
 11
960.46666725296382
 21
979.7666471974353
  0
LINE
  8
_2-7_ビス
  6
CONTINUOUS
 62
    7
 10
960.46666725296382
 20
979.7666471974353
 11
960.424820719801
 21
979.77067226342592
  0
LINE
  8
_2-7_ビス
  6
CONTINUOUS
 62
    7
 10
960.80031286369046
 20
960.31102315262535
 11
960.80031286369046
 21
960.31102315262535
  0
LINE
  8
_2-7_ビス
  6
CONTINUOUS
 62
    7
 10
960.80031286369046
 20
960.31102315262535
 11
960.79490893926425
 21
960.45027877454061
  0
LINE
  8
_2-7_ビス
  6
CONTINUOUS
 62
    7
 10
960.79490893926425
 20
960.45027877454061
 11
960.76759225124488
 21
960.5863871196234
  0
LINE
  8
_2-7_ビス
  6
CONTINUOUS
 62
    7
 10
960.76759225124488
 20
960.5863871196234
 11
960.7500375306023
 21
960.64084771382534
  0
LINE
  8
_2-7_ビス
  6
CONTINUOUS
 62
    7
 10
961.89121846980004
 20
958.31169569507301
 11
961.89121846980004
 21
958.31169569507301
  0
LINE
  8
_2-7_ビス
  6
CONTINUOUS
 62
    7
 10
961.89121846980004
 20
958.31169569507301
 11
961.88839664496732
 21
958.36753588961699
  0
LINE
  8
_2-7_ビス
  6
CONTINUOUS
 62
    7
 10
961.88839664496732
 20
958.36753588961699
 11
961.87679795747852
 21
958.42198902747259
  0
LINE
  8
_2-7_ビス
  6
CONTINUOUS
 62
    7
 10
961.87679795747852
 20
958.42198902747259
 11
961.85677482758376
 21
958.47340057760061
  0
LINE
  8
_2-7_ビス
  6
CONTINUOUS
 62
    7
 10
961.85677482758376
 20
958.47340057760061
 11
961.82893564795279
 21
958.52020842606589
  0
LINE
  8
_2-7_ビス
  6
CONTINUOUS
 62
    7
 10
961.82893564795279
 20
958.52020842606589
 11
961.79412629797139
 21
958.56099034007877
  0
LINE
  8
_2-7_ビス
  6
CONTINUOUS
 62
    7
 10
961.79412629797139
 20
958.56099034007877
 11
961.75340444212429
 21
958.59450718181859
  0
LINE
  8
_2-7_ビス
  6
CONTINUOUS
 62
    7
 10
961.75340444212429
 20
958.59450718181859
 11
961.70800739339529
 21
958.61974055900941
  0
LINE
  8
_2-7_ビス
  6
CONTINUOUS
 62
    7
 10
961.70800739339529
 20
958.61974055900941
 11
961.65931451813776
 21
958.63592376825409
  0
LINE
  8
_2-7_ビス
  6
CONTINUOUS
 62
    7
 10
961.65931451813776
 20
958.63592376825409
 11
961.60880532472686
 21
958.64256509092877
  0
LINE
  8
_2-7_ビス
  6
CONTINUOUS
 62
    7
 10
961.60880532472686
 20
958.64256509092877
 11
961.55801450944546
 21
958.63946273380452
  0
LINE
  8
_2-7_ビス
  6
CONTINUOUS
 62
    7
 10
961.55801450944546
 20
958.63946273380452
 11
961.50848532551436
 21
958.62671096043289
  0
LINE
  8
_2-7_ビス
  6
CONTINUOUS
 62
    7
 10
961.50848532551436
 20
958.62671096043289
 11
961.46172269212434
 21
958.60469722699497
  0
LINE
  8
_2-7_ビス
  6
CONTINUOUS
 62
    7
 10
961.46172269212434
 20
958.60469722699497
 11
961.41914746822806
 21
958.57409040964183
  0
LINE
  8
_2-7_ビス
  6
CONTINUOUS
 62
    7
 10
961.41914746822806
 20
958.57409040964183
 11
961.38205328045944
 21
958.5358204810309
  0
LINE
  8
_2-7_ビス
  6
CONTINUOUS
 62
    7
 10
961.38205328045944
 20
958.5358204810309
 11
961.35156721694318
 21
958.49105025357755
  0
LINE
  8
_2-7_ビス
  6
CONTINUOUS
 62
    7
 10
961.35156721694318
 20
958.49105025357755
 11
961.32861558129264
 21
958.44114004798803
  0
LINE
  8
_2-7_ビス
  6
CONTINUOUS
 62
    7
 10
961.32861558129264
 20
958.44114004798803
 11
961.31389574734294
 21
958.38760636060351
  0
LINE
  8
_2-7_ビス
  6
CONTINUOUS
 62
    7
 10
961.31389574734294
 20
958.38760636060351
 11
961.30785496980013
 21
958.33207578542579
  0
LINE
  8
_2-7_ビス
  6
CONTINUOUS
 62
    7
 10
961.30785496980013
 20
958.33207578542579
 11
961.30785496980013
 21
958.33207578542567
  0
LINE
  8
ADD_LINE
  6
DOT
 62
  136
 10
1583.3062517787914
 20
35.909129755506228
 11
583.30625177878903
 21
35.909129755506228
  0
LINE
  8
ADD_LINE
  6
DOT
 62
  136
 10
1583.3062517787914
 20
1465.9091297555062
 11
1583.3062517787914
 21
35.909129755506228
  0
LINE
  8
ADD_LINE
  6
DOT
 62
  136
 10
583.30625177879131
 20
1465.9091297555062
 11
1583.3062517787914
 21
1465.9091297555062
  0
LINE
  8
ADD_LINE
  6
DOT
 62
  136
 10
583.30625177879131
 20
1465.9091297555062
 11
583.30625177879131
 21
35.909129755506228
  0
TEXT
  8
_2-a_moji
 62
    7
 10
1285.3266141165329
 20
1111.1628841446543
 40
15
 41
1
 50
0
  1
(２２５仕様の場合使用)
  0
LINE
  8
ADD_LINE
  6
DOT
 62
  136
 10
703.30625177879358
 20
815.90912975550623
 11
703.30625177879358
 21
775.90912975550623
  0
TEXT
  8
_f-a_
 62
    7
 10
918.30625177879358
 20
785.90912975550623
 40
17.5
 41
1
 50
0
  1
下地：ＲＣ
  0
LINE
  8
_f-5_
  6
CONTINUOUS
 62
    6
 10
900.80625177879358
 20
815.90912975550623
 11
900.80625177879358
 21
775.90912975550623
  0
LINE
  8
_f-5_
  6
CONTINUOUS
 62
    6
 10
903.30625177879358
 20
815.90912975550623
 11
903.30625177879358
 21
775.90912975550623
  0
LINE
  8
ADD_LINE
  6
DOT
 62
  136
 10
918.30625177879358
 20
815.90912975550623
 11
918.30625177879358
 21
775.90912975550623
  0
TEXT
  8
_f-a_
 62
    7
 10
703.30625177879358
 20
785.90912975550623
 40
20
 41
1
 50
0
  1
２２５・２２７仕様
  0
LINE
  8
_f-2_
  6
CONTINUOUS
 62
    7
 10
1048.3062517787935
 20
815.90912975550623
 11
1048.3062517787935
 21
775.90912975550623
  0
ENDSEC
  0
EOF
