  0
SECTION
  2
HEADER
  9
$ACADVER
  1
AC1009
  9
$INSBASE
 10
0
 20
0
 30
0
  9
$EXTMIN
 10
0
 20
0
  9
$EXTMAX
 10
2100
 20
1485
  9
$LIMMIN
 10
0
 20
0
  9
$LIMMAX
 10
2100
 20
1485
  9
$LTSCALE
 40
5
  0
ENDSEC
  0
SECTION
  2
TABLES
  0
TABLE
  2
LTYPE
 70
     9
  0
LTYPE
  2
CONTINUOUS
 70
    64
  3
実線
 72
    65
 73
     0
 40
0.0
  0
LTYPE
  2
DASHED1
 70
    64
  3
--  --  --  --  --  --  --  --  
 72
    65
 73
     2
 40
2.5
 49
1.25
 49
-1.25
  0
LTYPE
  2
DASHED2
 70
    64
  3
----    ----    ----    ----    
 72
    65
 73
     2
 40
5.0
 49
2.5
 49
-2.5
  0
LTYPE
  2
DASHED3
 70
    64
  3
------  ------  ------  ------  
 72
    65
 73
     2
 40
5.0
 49
3.75
 49
-1.25
  0
LTYPE
  2
CENTER1
 70
    64
  3
----- - ----- - ----- - ----- - 
 72
    65
 73
     4
 40
10.0
 49
6.25
 49
-1.25
 49
1.25
 49
-1.25
  0
LTYPE
  2
CENTER2
 70
    64
  3
----------  --  ----------  --  
 72
    65
 73
     4
 40
20.0
 49
12.5
 49
-2.5
 49
2.5
 49
-2.5
  0
LTYPE
  2
PHANTOM1
 70
    64
  3
--- - - --- - - --- - - --- - - 
 72
    65
 73
     6
 40
10.0
 49
3.25
 49
-1.25
 49
1.25
 49
-1.25
 49
1.25
 49
-1.25
  0
LTYPE
  2
PHANTOM2
 70
    64
  3
--------  -  -  --------  -  -  
 72
    65
 73
     6
 40
20.0
 49
10.0
 49
-2.5
 49
1.25
 49
-2.5
 49
1.25
 49
-2.5
  0
LTYPE
  2
DOT
 70
    64
  3
-   -   -   -   -   -   -   -   
 72
    65
 73
     2
 40
2.5
 49
0.625
 49
-1.875
  0
LTYPE
  2
DUMMY
 70
    64
  3
ダミー
 72
    65
 73
     0
 40
0.0
  0
LTYPE
  2
RAND1
 70
    64
  3
ランダム線1
 72
    65
 73
     4
 40
10.0
 49
1.0
 49
-2.0
 49
3.0
 49
-4.0
  0
LTYPE
  2
RAND2
 70
    64
  3
ランダム線2
 72
    65
 73
     4
 40
14.0
 49
2.0
 49
-3.0
 49
4.0
 49
-5.0
  0
LTYPE
  2
RAND3
 70
    64
  3
ランダム線3
 72
    65
 73
     4
 40
18.0
 49
3.0
 49
-4.0
 49
5.0
 49
-6.0
  0
LTYPE
  2
RAND4
 70
    64
  3
ランダム線4
 72
    65
 73
     4
 40
22.0
 49
4.0
 49
-5.0
 49
6.0
 49
-7.0
  0
LTYPE
  2
RAND5
 70
    64
  3
ランダム線5
 72
    65
 73
     4
 40
26.0
 49
5.0
 49
-6.0
 49
7.0
 49
-8.0
  0
LTYPE
  2
LONG1
 70
    64
  3
----------  --  ----------  --  
 72
    65
 73
     4
 40
40.0
 49
32.5
 49
-2.5
 49
2.5
 49
-2.5
  0
LTYPE
  2
LONG2
 70
    64
  3
--------  -  -  --------  -  -  
 72
    65
 73
     6
 40
40.0
 49
30.0
 49
-2.5
 49
1.25
 49
-2.5
 49
1.25
 49
-2.5
  0
LTYPE
  2
LONG3
 70
    64
  3
+++++++++++++++..+++++++++++++++
 72
    65
 73
     2
 40
40.0
 49
37.5
 49
-2.5
  0
LTYPE
  2
LONG4
 70
    64
  3
+++++++++++++++..+++++++++++++++
 72
    65
 73
     2
 40
80.0
 49
75.0
 49
-5.0
  0
LTYPE
  2
LONG5
 70
    64
  3
----------  --  ----------  --  
 72
    65
 73
     4
 40
60.0
 49
37.5
 49
-7.5
 49
7.5
 49
-7.5
  0
LTYPE
  2
dashed
 70
   64
  3
-------   -------------   ------
 72
   65
 73
    2
 40
7.5
 49
6
 49
-1.5
  0
LTYPE
  2
dashed_spaced
 70
   64
  3
----        --------        ----
 72
   65
 73
    2
 40
12
 49
6
 49
-6
  0
LTYPE
  2
long_dashed_dotted
 70
   64
  3
------------- --- --------------
 72
   65
 73
    4
 40
15.25
 49
12
 49
-1.5
 49
0.25
 49
-1.5
  0
LTYPE
  2
long_dashed_double-dotted
 70
   64
  3
----------- --- --- ------------
 72
   65
 73
    6
 40
17
 49
12
 49
-1.5
 49
0.25
 49
-1.5
 49
0.25
 49
-1.5
  0
LTYPE
  2
long_dashed_triplicate-dotted
 70
   64
  3
--------- --- --- --- ----------
 72
   65
 73
    8
 40
18.75
 49
12
 49
-1.5
 49
0.25
 49
-1.5
 49
0.25
 49
-1.5
 49
0.25
 49
-1.5
  0
LTYPE
  2
dotted
 70
   64
  3
   -       -       -       -    
 72
   65
 73
    2
 40
1.75
 49
0.25
 49
-1.5
  0
LTYPE
  2
chain
 70
   64
  3
-------------- -- --------------
 72
   65
 73
    4
 40
18.5
 49
12
 49
-1.5
 49
3.5
 49
-1.5
  0
LTYPE
  2
chain_double_dash
 70
   64
  3
------------ -- -- -------------
 72
   65
 73
    6
 40
23.5
 49
12
 49
-1.5
 49
3.5
 49
-1.5
 49
3.5
 49
-1.5
  0
LTYPE
  2
dashed_dotted
 70
   64
  3
-----------     -     ----------
 72
   65
 73
    4
 40
9.25
 49
6
 49
-1.5
 49
0.25
 49
-1.5
  0
LTYPE
  2
double-dashed_dotted
 70
   64
  3
------   -----------   -   -----
 72
   65
 73
    6
 40
16.75
 49
6
 49
-1.5
 49
6
 49
-1.5
 49
0.25
 49
-1.5
  0
LTYPE
  2
dashed_double-dotted
 70
   64
  3
---------    -    -    ---------
 72
   65
 73
    6
 40
11
 49
6
 49
-1.5
 49
0.25
 49
-1.5
 49
0.25
 49
-1.5
  0
LTYPE
  2
double-dashed_double-dotted
 70
   64
  3
-----   ---------   -   -   ----
 72
   65
 73
    8
 40
18.5
 49
6
 49
-1.5
 49
6
 49
-1.5
 49
0.25
 49
-1.5
 49
0.25
 49
-1.5
  0
LTYPE
  2
dashed_triplicate-dotted
 70
   64
  3
-------    -    -    -    ------
 72
   65
 73
    8
 40
12.75
 49
6
 49
-1.5
 49
0.25
 49
-1.5
 49
0.25
 49
-1.5
 49
0.25
 49
-1.5
  0
LTYPE
  2
double-dashed_triplicate-dotted
 70
   64
  3
-----  ---------  -  -  -  -----
 72
   65
 73
   10
 40
20.25
 49
6
 49
-1.5
 49
6
 49
-1.5
 49
0.25
 49
-1.5
 49
0.25
 49
-1.5
 49
0.25
 49
-1.5
  0
LTYPE
  2
undefined
 70
   64
  3
--------------------------------
 72
   65
 73
    0
 40
0
  0
ENDTAB
  0
TABLE
  2
STYLE
  5
3
100
AcDbSymbolTable
 70
     1
  0
STYLE
  5
10
100
AcDbSymbolTableRecord
100
AcDbTextStyleTableRecord
  2
STANDARD
 70
     0
 40
0.0
 41
1.0
 50
0.0
 71
     0
 42
0.2
  3
txt
  4
bigfont.shx
  0
STYLE
  5
26
100
AcDbSymbolTableRecord
100
AcDbTextStyleTableRecord
  2
TATEGAKI
 70
    68
 40
0.0
 41
1.0
 50
0.0
 71
     0
 42
1.0
  3
txt
  4
bigfont.shx
  0
ENDTAB
  0
TABLE
  2
LAYER
 70
   16
  0
LAYER
  2
_2-1_
 70
   64
 62
    7
  6
CONTINUOUS
  0
LAYER
  2
_2-2_in_line
 70
   64
 62
    7
  6
CONTINUOUS
  0
LAYER
  2
_2-3_
 70
   64
 62
    7
  6
CONTINUOUS
  0
LAYER
  2
_2-4_out_line
 70
   64
 62
    7
  6
CONTINUOUS
  0
LAYER
  2
_2-7_ビス
 70
   64
 62
    7
  6
CONTINUOUS
  0
LAYER
  2
_2-8_drain他
 70
   64
 62
    7
  6
CONTINUOUS
  0
LAYER
  2
_2-a_moji
 70
   64
 62
    7
  6
CONTINUOUS
  0
LAYER
  2
_2-b_dim
 70
   64
 62
    7
  6
CONTINUOUS
  0
LAYER
  2
_2-d_ハッチ他
 70
   64
 62
    7
  6
CONTINUOUS
  0
LAYER
  2
_2-e_con他
 70
   64
 62
    7
  6
CONTINUOUS
  0
LAYER
  2
_f-2_
 70
   64
 62
    7
  6
CONTINUOUS
  0
LAYER
  2
_f-5_
 70
   64
 62
    7
  6
CONTINUOUS
  0
LAYER
  2
_f-7_
 70
   64
 62
    7
  6
CONTINUOUS
  0
LAYER
  2
_f-8_
 70
   64
 62
    7
  6
CONTINUOUS
  0
LAYER
  2
_f-a_
 70
   64
 62
    7
  6
CONTINUOUS
  0
LAYER
  2
ADD_LINE
 70
   64
 62
    7
  6
CONTINUOUS
  0
ENDTAB
  0
ENDSEC
  0
SECTION
  2
BLOCKS
  0
ENDSEC
  0
SECTION
  2
ENTITIES
  0
LINE
  8
ADD_LINE
  6
DOT
 62
  136
 10
1599.1624609291146
 20
36.412397729362311
 11
599.16246092911456
 21
36.412397729362311
  0
LINE
  8
ADD_LINE
  6
DOT
 62
  136
 10
599.16246092911456
 20
1466.4123977293621
 11
1599.1624609291146
 21
1466.4123977293621
  0
LINE
  8
ADD_LINE
  6
DOT
 62
  136
 10
599.16246092911456
 20
1466.4123977293621
 11
599.16246092911456
 21
36.412397729362311
  0
LINE
  8
ADD_LINE
  6
DOT
 62
  136
 10
1599.1624609291146
 20
1466.4123977293621
 11
1599.1624609291146
 21
36.412397729362311
  0
LINE
  8
_f-7_
  6
CONTINUOUS
 62
    1
 10
699.16246092911911
 20
776.41239772936228
 11
1499.1624609291191
 21
776.41239772936228
  0
LINE
  8
ADD_LINE
  6
DOT
 62
  136
 10
699.16246092911911
 20
796.41239772936228
 11
1499.1624609291191
 21
796.41239772936228
  0
LINE
  8
_f-7_
  6
CONTINUOUS
 62
    1
 10
699.16246092911911
 20
726.41239772936228
 11
1499.1624609291191
 21
726.41239772936228
  0
LINE
  8
_f-5_
  6
CONTINUOUS
 62
    6
 10
699.16246092911911
 20
816.41239772936228
 11
1499.1624609291191
 21
816.41239772936228
  0
LINE
  8
_f-7_
  6
CONTINUOUS
 62
    1
 10
699.16246092911911
 20
136.41239772936231
 11
1499.1624609291191
 21
136.41239772936231
  0
LINE
  8
ADD_LINE
  6
DOT
 62
  136
 10
699.16246092911911
 20
156.41239772936231
 11
1499.1624609291191
 21
156.41239772936231
  0
LINE
  8
_f-5_
  6
CONTINUOUS
 62
    6
 10
699.16246092911911
 20
176.41239772936231
 11
1499.1624609291191
 21
176.41239772936231
  0
LINE
  8
_f-7_
  6
CONTINUOUS
 62
    1
 10
1499.1624609291191
 20
1366.4123977293621
 11
1499.1624609291191
 21
776.41239772936228
  0
LINE
  8
_f-7_
  6
CONTINUOUS
 62
    1
 10
699.16246092911911
 20
1366.4123977293621
 11
1499.1624609291191
 21
1366.4123977293621
  0
LINE
  8
_f-7_
  6
CONTINUOUS
 62
    1
 10
699.16246092911911
 20
1366.4123977293621
 11
699.16246092911911
 21
776.41239772936228
  0
LINE
  8
_f-7_
  6
CONTINUOUS
 62
    1
 10
699.16246092911911
 20
726.41239772936228
 11
699.16246092911911
 21
136.41239772936231
  0
LINE
  8
_f-7_
  6
CONTINUOUS
 62
    1
 10
1499.1624609291191
 20
726.41239772936228
 11
1499.1624609291191
 21
136.41239772936231
  0
LINE
  8
ADD_LINE
  6
DOT
 62
  136
 10
1384.1624609291191
 20
816.41239772936228
 11
1384.1624609291191
 21
776.41239772936228
  0
LINE
  8
_f-2_
  6
CONTINUOUS
 62
    7
 10
1369.1624609291191
 20
816.41239772936228
 11
1369.1624609291191
 21
776.41239772936228
  0
LINE
  8
ADD_LINE
  6
DOT
 62
  136
 10
1279.1624609291191
 20
816.41239772936228
 11
1279.1624609291191
 21
776.41239772936228
  0
LINE
  8
_f-2_
  6
CONTINUOUS
 62
    7
 10
1264.1624609291191
 20
816.41239772936228
 11
1264.1624609291191
 21
776.41239772936228
  0
TEXT
  8
_f-a_
 62
    7
 10
1384.1624609291191
 20
786.41239772936228
 40
15
 41
1
 50
0
  1
図番
  0
LINE
  8
ADD_LINE
  6
DOT
 62
  136
 10
1384.1624609291191
 20
176.41239772936231
 11
1384.1624609291191
 21
136.41239772936231
  0
LINE
  8
_f-2_
  6
CONTINUOUS
 62
    7
 10
1369.1624609291191
 20
176.41239772936231
 11
1369.1624609291191
 21
136.41239772936231
  0
LINE
  8
ADD_LINE
  6
DOT
 62
  136
 10
1279.1624609291191
 20
176.41239772936231
 11
1279.1624609291191
 21
136.41239772936231
  0
LINE
  8
_f-2_
  6
CONTINUOUS
 62
    7
 10
1264.1624609291191
 20
176.41239772936231
 11
1264.1624609291191
 21
136.41239772936231
  0
TEXT
  8
_f-a_
 62
    7
 10
1384.1624609291191
 20
146.41239772936231
 40
15
 41
1
 50
0
  1
図番
  0
TEXT
  8
_f-a_
 62
    7
 10
1279.1624609291191
 20
786.41239772936228
 40
15
 41
1
 50
0
  1
Ｓ＝１：５
  0
TEXT
  8
_f-a_
 62
    7
 10
1279.1624609291191
 20
146.41239772936231
 40
15
 41
1
 50
0
  1
Ｓ＝１：５
  0
LINE
  8
_f-2_
  6
CONTINUOUS
 62
    7
 10
1049.1624609291191
 20
176.41239772936231
 11
1049.1624609291191
 21
136.41239772936231
  0
LINE
  8
ADD_LINE
  6
DOT
 62
  136
 10
1064.1624609291191
 20
176.41239772936231
 11
1064.1624609291191
 21
136.41239772936231
  0
TEXT
  8
_f-a_
 62
    7
 10
1064.1624609291191
 20
146.41239772936231
 40
15
 41
1
 50
0
  1
部位：ステンレスベントロン
  0
TEXT
  8
_f-a_
 62
    7
 10
1430.5801296532261
 20
786.41239772936228
 40
15
 41
1
 50
0
  1
５－１０
  0
TEXT
  8
_f-a_
 62
    7
 10
1430.5801296532261
 20
146.41239772936345
 40
15
 41
1
 50
0
  1
５－１１
  0
TEXT
  8
_f-a_
 62
    7
 10
1079.1624609291191
 20
786.41239772936228
 40
17.5
 41
1
 50
0
  1
部位：脱気盤３０Ｌ
  0
LINE
  8
_2-e_con他
  6
CONTINUOUS
 62
    4
 10
955.33266280370731
 20
226.41239772936231
 11
1105.3326628037073
 21
376.41239772936228
  0
LINE
  8
_2-e_con他
  6
CONTINUOUS
 62
    4
 10
969.4747984274361
 20
226.41239772936231
 11
1119.4747984274361
 21
376.41239772936228
  0
LINE
  8
_2-e_con他
  6
CONTINUOUS
 62
    4
 10
962.40373061556943
 20
226.41239772936231
 11
1112.4037306155694
 21
376.41239772936228
  0
LINE
  8
_2-e_con他
  6
CONTINUOUS
 62
    4
 10
1162.4037306155694
 20
226.41239772936231
 11
1312.4037306155694
 21
376.41239772936228
  0
LINE
  8
_2-e_con他
  6
CONTINUOUS
 62
    4
 10
1169.4747984274361
 20
226.41239772936231
 11
1319.4747984274361
 21
376.41239772936228
  0
LINE
  8
_2-e_con他
  6
CONTINUOUS
 62
    4
 10
1155.3326628037073
 20
226.41239772936231
 11
1305.3326628037073
 21
376.41239772936228
  0
LINE
  8
_2-e_con他
  6
CONTINUOUS
 62
    4
 10
774.16246092911911
 20
245.24219585477638
 11
905.33266280370731
 21
376.41239772936228
  0
LINE
  8
_2-e_con他
  6
CONTINUOUS
 62
    4
 10
774.16246092911911
 20
231.10006023104759
 11
919.4747984274361
 21
376.41239772936228
  0
LINE
  8
_2-e_con他
  6
CONTINUOUS
 62
    4
 10
774.16246092911911
 20
238.17112804290971
 11
912.40373061556943
 21
376.41239772936228
  0
LINE
  8
_2-e_con他
  6
CONTINUOUS
 62
    4
 10
1355.3326628037073
 20
226.41239772936231
 11
1424.1624609291191
 21
295.24219585477636
  0
LINE
  8
_2-e_con他
  6
CONTINUOUS
 62
    4
 10
1369.4747984274361
 20
226.41239772936231
 11
1424.1624609291191
 21
281.10006023104529
  0
LINE
  8
_2-e_con他
  6
CONTINUOUS
 62
    4
 10
1362.4037306155694
 20
226.41239772936231
 11
1424.1624609291191
 21
288.17112804290969
  0
LINE
  8
_2-b_dim
  6
CONTINUOUS
 62
    7
 10
995.62463772640035
 20
328.42033564475582
 11
995.62463772640035
 21
369.94923407252668
  0
LINE
  8
_2-b_dim
  6
CONTINUOUS
 62
    7
 10
1045.6246377264004
 20
328.42033564475582
 11
1045.6246377264004
 21
369.94923407252668
  0
TEXT
  8
_2-b_dim
 62
    7
 10
998.542861707974
 20
331.35993581791422
 40
15
 41
1
 50
0
  1
50～60
  0
ARC
  8
_2-d_ハッチ他
  6
CONTINUOUS
 62
    4
 10
777.16395585901842
 20
409.87073106846151
 40
1.2083333333333581
 50
307.52351320333912
 51
232.47648680464988
  0
ARC
  8
_2-d_ハッチ他
  6
CONTINUOUS
 62
    4
 10
778.63591600349514
 20
407.95406440186139
 40
1.2083333333333179
 50
127.52351320610693
 51
52.47648680188081
  0
ARC
  8
_2-d_ハッチ他
  6
CONTINUOUS
 62
    4
 10
775.69199571480999
 20
407.95406440165675
 40
1.2083333333333179
 50
127.52351320610693
 51
52.47648680188081
  0
ARC
  8
_2-d_ハッチ他
  6
CONTINUOUS
 62
    4
 10
794.82747759111567
 20
409.87073106846151
 40
1.2083333333333581
 50
307.52351320333912
 51
232.47648680464988
  0
ARC
  8
_2-d_ハッチ他
  6
CONTINUOUS
 62
    4
 10
796.29943773559239
 20
407.95406440186139
 40
1.2083333333333179
 50
127.52351320610693
 51
52.47648680188081
  0
ARC
  8
_2-d_ハッチ他
  6
CONTINUOUS
 62
    4
 10
791.88355730243507
 20
409.87073106825687
 40
1.2083333333333581
 50
307.52351320333912
 51
232.47648680464988
  0
ARC
  8
_2-d_ハッチ他
  6
CONTINUOUS
 62
    4
 10
793.35551744691179
 20
407.95406440165675
 40
1.2083333333333179
 50
127.52351320610693
 51
52.47648680188081
  0
ARC
  8
_2-d_ハッチ他
  6
CONTINUOUS
 62
    4
 10
788.93963701374992
 20
409.87073106805224
 40
1.2083333333333581
 50
307.52351320333912
 51
232.47648680464988
  0
ARC
  8
_2-d_ハッチ他
  6
CONTINUOUS
 62
    4
 10
790.41159715822664
 20
407.95406440145211
 40
1.2083333333333179
 50
127.52351320610693
 51
52.47648680188081
  0
ARC
  8
_2-d_ハッチ他
  6
CONTINUOUS
 62
    4
 10
785.99571672506931
 20
409.87073106784533
 40
1.2083333333333581
 50
307.52351320333912
 51
232.47648680464988
  0
ARC
  8
_2-d_ハッチ他
  6
CONTINUOUS
 62
    4
 10
787.46767686954149
 20
407.9540644012452
 40
1.2083333333333179
 50
127.52351320610693
 51
52.47648680188081
  0
ARC
  8
_2-d_ハッチ他
  6
CONTINUOUS
 62
    4
 10
783.05179643638417
 20
409.87073106764069
 40
1.2083333333333581
 50
307.52351320333912
 51
232.47648680464988
  0
ARC
  8
_2-d_ハッチ他
  6
CONTINUOUS
 62
    4
 10
784.52375658086089
 20
407.95406440104057
 40
1.2083333333333179
 50
127.52351320610693
 51
52.47648680188081
  0
ARC
  8
_2-d_ハッチ他
  6
CONTINUOUS
 62
    4
 10
780.10787614769902
 20
409.87073106743605
 40
1.2083333333333581
 50
307.52351320333912
 51
232.47648680464988
  0
ARC
  8
_2-d_ハッチ他
  6
CONTINUOUS
 62
    4
 10
781.57983629217574
 20
407.95406440083593
 40
1.2083333333333179
 50
127.52351320610693
 51
52.47648680188081
  0
ARC
  8
_2-d_ハッチ他
  6
CONTINUOUS
 62
    4
 10
821.32276018926837
 20
409.87073106846151
 40
1.2083333333333581
 50
307.52351320333912
 51
232.47648680464988
  0
ARC
  8
_2-d_ハッチ他
  6
CONTINUOUS
 62
    4
 10
822.79472033374509
 20
407.95406440186139
 40
1.2083333333333179
 50
127.52351320610693
 51
52.47648680188081
  0
ARC
  8
_2-d_ハッチ他
  6
CONTINUOUS
 62
    4
 10
818.37883990058322
 20
409.87073106825687
 40
1.2083333333333581
 50
307.52351320333912
 51
232.47648680464988
  0
ARC
  8
_2-d_ハッチ他
  6
CONTINUOUS
 62
    4
 10
819.85080004505994
 20
407.95406440165675
 40
1.2083333333333179
 50
127.52351320610693
 51
52.47648680188081
  0
ARC
  8
_2-d_ハッチ他
  6
CONTINUOUS
 62
    4
 10
815.43491961190261
 20
409.87073106805224
 40
1.2083333333333581
 50
307.52351320333912
 51
232.47648680464988
  0
ARC
  8
_2-d_ハッチ他
  6
CONTINUOUS
 62
    4
 10
816.90687975637479
 20
407.95406440145211
 40
1.2083333333333179
 50
127.52351320610693
 51
52.47648680188081
  0
ARC
  8
_2-d_ハッチ他
  6
CONTINUOUS
 62
    4
 10
812.49099932321747
 20
409.87073106784533
 40
1.2083333333333581
 50
307.52351320333912
 51
232.47648680464988
  0
ARC
  8
_2-d_ハッチ他
  6
CONTINUOUS
 62
    4
 10
813.96295946769419
 20
407.9540644012452
 40
1.2083333333333179
 50
127.52351320610693
 51
52.47648680188081
  0
ARC
  8
_2-d_ハッチ他
  6
CONTINUOUS
 62
    4
 10
809.54707903453232
 20
409.87073106764069
 40
1.2083333333333581
 50
307.52351320333912
 51
232.47648680464988
  0
ARC
  8
_2-d_ハッチ他
  6
CONTINUOUS
 62
    4
 10
811.01903917900904
 20
407.95406440104057
 40
1.2083333333333179
 50
127.52351320610693
 51
52.47648680188081
  0
ARC
  8
_2-d_ハッチ他
  6
CONTINUOUS
 62
    4
 10
806.60315874585172
 20
409.87073106743605
 40
1.2083333333333581
 50
307.52351320333912
 51
232.47648680464988
  0
ARC
  8
_2-d_ハッチ他
  6
CONTINUOUS
 62
    4
 10
808.07511889032844
 20
407.95406440083593
 40
1.2083333333333179
 50
127.52351320610693
 51
52.47648680188081
  0
ARC
  8
_2-d_ハッチ他
  6
CONTINUOUS
 62
    4
 10
800.71531816848596
 20
409.87073106702451
 40
1.2083333333333581
 50
307.52351320333912
 51
232.47648680464988
  0
ARC
  8
_2-d_ハッチ他
  6
CONTINUOUS
 62
    4
 10
803.65923845716657
 20
409.87073106723142
 40
1.2083333333333581
 50
307.52351320333912
 51
232.47648680464988
  0
ARC
  8
_2-d_ハッチ他
  6
CONTINUOUS
 62
    4
 10
802.18727831295814
 20
407.95406440042666
 40
1.2083333333333179
 50
127.52351320610693
 51
52.47648680188081
  0
ARC
  8
_2-d_ハッチ他
  6
CONTINUOUS
 62
    4
 10
805.13119860164329
 20
407.9540644006313
 40
1.2083333333333179
 50
127.52351320610693
 51
52.47648680188081
  0
ARC
  8
_2-d_ハッチ他
  6
CONTINUOUS
 62
    4
 10
799.24335802427754
 20
407.95406440021975
 40
1.2083333333333179
 50
127.52351320610693
 51
52.47648680188081
  0
ARC
  8
_2-d_ハッチ他
  6
CONTINUOUS
 62
    4
 10
797.77139787980082
 20
409.87073106681987
 40
1.2083333333333581
 50
307.52351320333912
 51
232.47648680464988
  0
ARC
  8
_2-d_ハッチ他
  6
CONTINUOUS
 62
    4
 10
847.81804278741652
 20
409.87073106846151
 40
1.2083333333333581
 50
307.52351320333912
 51
232.47648680464988
  0
ARC
  8
_2-d_ハッチ他
  6
CONTINUOUS
 62
    4
 10
849.29000293189324
 20
407.95406440186139
 40
1.2083333333333179
 50
127.52351320610693
 51
52.47648680188081
  0
ARC
  8
_2-d_ハッチ他
  6
CONTINUOUS
 62
    4
 10
844.87412249873591
 20
409.87073106825687
 40
1.2083333333333581
 50
307.52351320333912
 51
232.47648680464988
  0
ARC
  8
_2-d_ハッチ他
  6
CONTINUOUS
 62
    4
 10
846.34608264320809
 20
407.95406440165675
 40
1.2083333333333179
 50
127.52351320610693
 51
52.47648680188081
  0
ARC
  8
_2-d_ハッチ他
  6
CONTINUOUS
 62
    4
 10
841.93020221005077
 20
409.87073106805224
 40
1.2083333333333581
 50
307.52351320333912
 51
232.47648680464988
  0
ARC
  8
_2-d_ハッチ他
  6
CONTINUOUS
 62
    4
 10
843.40216235452749
 20
407.95406440145211
 40
1.2083333333333179
 50
127.52351320610693
 51
52.47648680188081
  0
ARC
  8
_2-d_ハッチ他
  6
CONTINUOUS
 62
    4
 10
838.98628192137016
 20
409.87073106784533
 40
1.2083333333333581
 50
307.52351320333912
 51
232.47648680464988
  0
ARC
  8
_2-d_ハッチ他
  6
CONTINUOUS
 62
    4
 10
840.45824206584234
 20
407.9540644012452
 40
1.2083333333333179
 50
127.52351320610693
 51
52.47648680188081
  0
ARC
  8
_2-d_ハッチ他
  6
CONTINUOUS
 62
    4
 10
836.04236163268502
 20
409.87073106764069
 40
1.2083333333333581
 50
307.52351320333912
 51
232.47648680464988
  0
ARC
  8
_2-d_ハッチ他
  6
CONTINUOUS
 62
    4
 10
837.51432177716174
 20
407.95406440104057
 40
1.2083333333333179
 50
127.52351320610693
 51
52.47648680188081
  0
ARC
  8
_2-d_ハッチ他
  6
CONTINUOUS
 62
    4
 10
833.09844134399987
 20
409.87073106743605
 40
1.2083333333333581
 50
307.52351320333912
 51
232.47648680464988
  0
ARC
  8
_2-d_ハッチ他
  6
CONTINUOUS
 62
    4
 10
834.57040148847659
 20
407.95406440083593
 40
1.2083333333333179
 50
127.52351320610693
 51
52.47648680188081
  0
ARC
  8
_2-d_ハッチ他
  6
CONTINUOUS
 62
    4
 10
827.21060076663412
 20
409.87073106702451
 40
1.2083333333333581
 50
307.52351320333912
 51
232.47648680464988
  0
ARC
  8
_2-d_ハッチ他
  6
CONTINUOUS
 62
    4
 10
830.15452105531926
 20
409.87073106723142
 40
1.2083333333333581
 50
307.52351320333912
 51
232.47648680464988
  0
ARC
  8
_2-d_ハッチ他
  6
CONTINUOUS
 62
    4
 10
828.68256091111084
 20
407.95406440042666
 40
1.2083333333333179
 50
127.52351320610693
 51
52.47648680188081
  0
ARC
  8
_2-d_ハッチ他
  6
CONTINUOUS
 62
    4
 10
831.62648119979144
 20
407.9540644006313
 40
1.2083333333333179
 50
127.52351320610693
 51
52.47648680188081
  0
ARC
  8
_2-d_ハッチ他
  6
CONTINUOUS
 62
    4
 10
825.73864062242569
 20
407.95406440021975
 40
1.2083333333333179
 50
127.52351320610693
 51
52.47648680188081
  0
ARC
  8
_2-d_ハッチ他
  6
CONTINUOUS
 62
    4
 10
824.26668047794897
 20
409.87073106681987
 40
1.2083333333333581
 50
307.52351320333912
 51
232.47648680464988
  0
ARC
  8
_2-d_ハッチ他
  6
CONTINUOUS
 62
    4
 10
852.23392322057839
 20
407.95406440145211
 40
1.2083333333333179
 50
127.52351320610693
 51
52.47648680188081
  0
ARC
  8
_2-d_ハッチ他
  6
CONTINUOUS
 62
    4
 10
850.76196307610167
 20
409.87073106805224
 40
1.2083333333333581
 50
307.52351320333912
 51
232.47648680464988
  0
ARC
  8
_2-d_ハッチ他
  6
CONTINUOUS
 62
    4
 10
877.25724567424982
 20
409.87073106846151
 40
1.2083333333333581
 50
307.52351320333912
 51
232.47648680464988
  0
ARC
  8
_2-d_ハッチ他
  6
CONTINUOUS
 62
    4
 10
878.72920581872654
 20
407.95406440186139
 40
1.2083333333333179
 50
127.52351320610693
 51
52.47648680188081
  0
ARC
  8
_2-d_ハッチ他
  6
CONTINUOUS
 62
    4
 10
874.31332538556921
 20
409.87073106825687
 40
1.2083333333333581
 50
307.52351320333912
 51
232.47648680464988
  0
ARC
  8
_2-d_ハッチ他
  6
CONTINUOUS
 62
    4
 10
875.78528553004139
 20
407.95406440165675
 40
1.2083333333333179
 50
127.52351320610693
 51
52.47648680188081
  0
ARC
  8
_2-d_ハッチ他
  6
CONTINUOUS
 62
    4
 10
871.36940509688407
 20
409.87073106805224
 40
1.2083333333333581
 50
307.52351320333912
 51
232.47648680464988
  0
ARC
  8
_2-d_ハッチ他
  6
CONTINUOUS
 62
    4
 10
872.84136524136079
 20
407.95406440145211
 40
1.2083333333333179
 50
127.52351320610693
 51
52.47648680188081
  0
ARC
  8
_2-d_ハッチ他
  6
CONTINUOUS
 62
    4
 10
868.42548480820346
 20
409.87073106784533
 40
1.2083333333333581
 50
307.52351320333912
 51
232.47648680464988
  0
ARC
  8
_2-d_ハッチ他
  6
CONTINUOUS
 62
    4
 10
869.89744495267564
 20
407.9540644012452
 40
1.2083333333333179
 50
127.52351320610693
 51
52.47648680188081
  0
ARC
  8
_2-d_ハッチ他
  6
CONTINUOUS
 62
    4
 10
865.48156451951832
 20
409.87073106764069
 40
1.2083333333333581
 50
307.52351320333912
 51
232.47648680464988
  0
ARC
  8
_2-d_ハッチ他
  6
CONTINUOUS
 62
    4
 10
866.95352466399504
 20
407.95406440104057
 40
1.2083333333333179
 50
127.52351320610693
 51
52.47648680188081
  0
ARC
  8
_2-d_ハッチ他
  6
CONTINUOUS
 62
    4
 10
862.53764423083317
 20
409.87073106743605
 40
1.2083333333333581
 50
307.52351320333912
 51
232.47648680464988
  0
ARC
  8
_2-d_ハッチ他
  6
CONTINUOUS
 62
    4
 10
864.00960437530989
 20
407.95406440083593
 40
1.2083333333333179
 50
127.52351320610693
 51
52.47648680188081
  0
ARC
  8
_2-d_ハッチ他
  6
CONTINUOUS
 62
    4
 10
856.64980365346742
 20
409.87073106702451
 40
1.2083333333333581
 50
307.52351320333912
 51
232.47648680464988
  0
ARC
  8
_2-d_ハッチ他
  6
CONTINUOUS
 62
    4
 10
859.59372394215256
 20
409.87073106723142
 40
1.2083333333333581
 50
307.52351320333912
 51
232.47648680464988
  0
ARC
  8
_2-d_ハッチ他
  6
CONTINUOUS
 62
    4
 10
858.12176379794414
 20
407.95406440042666
 40
1.2083333333333179
 50
127.52351320610693
 51
52.47648680188081
  0
ARC
  8
_2-d_ハッチ他
  6
CONTINUOUS
 62
    4
 10
861.06568408662474
 20
407.9540644006313
 40
1.2083333333333179
 50
127.52351320610693
 51
52.47648680188081
  0
ARC
  8
_2-d_ハッチ他
  6
CONTINUOUS
 62
    4
 10
855.17784350925899
 20
407.95406440021975
 40
1.2083333333333179
 50
127.52351320610693
 51
52.47648680188081
  0
ARC
  8
_2-d_ハッチ他
  6
CONTINUOUS
 62
    4
 10
853.70588336478681
 20
409.87073106681987
 40
1.2083333333333581
 50
307.52351320333912
 51
232.47648680464988
  0
ARC
  8
_2-d_ハッチ他
  6
CONTINUOUS
 62
    4
 10
903.75252827240251
 20
409.87073106846151
 40
1.2083333333333581
 50
307.52351320333912
 51
232.47648680464988
  0
ARC
  8
_2-d_ハッチ他
  6
CONTINUOUS
 62
    4
 10
905.22448841687924
 20
407.95406440186139
 40
1.2083333333333179
 50
127.52351320610693
 51
52.47648680188081
  0
ARC
  8
_2-d_ハッチ他
  6
CONTINUOUS
 62
    4
 10
900.80860798371737
 20
409.87073106825687
 40
1.2083333333333581
 50
307.52351320333912
 51
232.47648680464988
  0
ARC
  8
_2-d_ハッチ他
  6
CONTINUOUS
 62
    4
 10
902.28056812819409
 20
407.95406440165675
 40
1.2083333333333179
 50
127.52351320610693
 51
52.47648680188081
  0
ARC
  8
_2-d_ハッチ他
  6
CONTINUOUS
 62
    4
 10
897.86468769503676
 20
409.87073106805224
 40
1.2083333333333581
 50
307.52351320333912
 51
232.47648680464988
  0
ARC
  8
_2-d_ハッチ他
  6
CONTINUOUS
 62
    4
 10
899.33664783950894
 20
407.95406440145211
 40
1.2083333333333179
 50
127.52351320610693
 51
52.47648680188081
  0
ARC
  8
_2-d_ハッチ他
  6
CONTINUOUS
 62
    4
 10
894.92076740635162
 20
409.87073106784533
 40
1.2083333333333581
 50
307.52351320333912
 51
232.47648680464988
  0
ARC
  8
_2-d_ハッチ他
  6
CONTINUOUS
 62
    4
 10
896.39272755082834
 20
407.9540644012452
 40
1.2083333333333179
 50
127.52351320610693
 51
52.47648680188081
  0
ARC
  8
_2-d_ハッチ他
  6
CONTINUOUS
 62
    4
 10
891.97684711766647
 20
409.87073106764069
 40
1.2083333333333581
 50
307.52351320333912
 51
232.47648680464988
  0
ARC
  8
_2-d_ハッチ他
  6
CONTINUOUS
 62
    4
 10
893.44880726214319
 20
407.95406440104057
 40
1.2083333333333179
 50
127.52351320610693
 51
52.47648680188081
  0
ARC
  8
_2-d_ハッチ他
  6
CONTINUOUS
 62
    4
 10
889.03292682898586
 20
409.87073106743605
 40
1.2083333333333581
 50
307.52351320333912
 51
232.47648680464988
  0
ARC
  8
_2-d_ハッチ他
  6
CONTINUOUS
 62
    4
 10
890.50488697346259
 20
407.95406440083593
 40
1.2083333333333179
 50
127.52351320610693
 51
52.47648680188081
  0
ARC
  8
_2-d_ハッチ他
  6
CONTINUOUS
 62
    4
 10
883.14508625162011
 20
409.87073106702451
 40
1.2083333333333581
 50
307.52351320333912
 51
232.47648680464988
  0
ARC
  8
_2-d_ハッチ他
  6
CONTINUOUS
 62
    4
 10
886.08900654030072
 20
409.87073106723142
 40
1.2083333333333581
 50
307.52351320333912
 51
232.47648680464988
  0
ARC
  8
_2-d_ハッチ他
  6
CONTINUOUS
 62
    4
 10
884.61704639609229
 20
407.95406440042666
 40
1.2083333333333179
 50
127.52351320610693
 51
52.47648680188081
  0
ARC
  8
_2-d_ハッチ他
  6
CONTINUOUS
 62
    4
 10
887.56096668477744
 20
407.9540644006313
 40
1.2083333333333179
 50
127.52351320610693
 51
52.47648680188081
  0
ARC
  8
_2-d_ハッチ他
  6
CONTINUOUS
 62
    4
 10
881.67312610741169
 20
407.95406440021975
 40
1.2083333333333179
 50
127.52351320610693
 51
52.47648680188081
  0
ARC
  8
_2-d_ハッチ他
  6
CONTINUOUS
 62
    4
 10
880.20116596293497
 20
409.87073106681987
 40
1.2083333333333581
 50
307.52351320333912
 51
232.47648680464988
  0
ARC
  8
_2-d_ハッチ他
  6
CONTINUOUS
 62
    4
 10
930.24781087055067
 20
409.87073106846151
 40
1.2083333333333581
 50
307.52351320333912
 51
232.47648680464988
  0
ARC
  8
_2-d_ハッチ他
  6
CONTINUOUS
 62
    4
 10
931.71977101502739
 20
407.95406440186139
 40
1.2083333333333179
 50
127.52351320610693
 51
52.47648680188081
  0
ARC
  8
_2-d_ハッチ他
  6
CONTINUOUS
 62
    4
 10
927.30389058187006
 20
409.87073106825687
 40
1.2083333333333581
 50
307.52351320333912
 51
232.47648680464988
  0
ARC
  8
_2-d_ハッチ他
  6
CONTINUOUS
 62
    4
 10
928.77585072634224
 20
407.95406440165675
 40
1.2083333333333179
 50
127.52351320610693
 51
52.47648680188081
  0
ARC
  8
_2-d_ハッチ他
  6
CONTINUOUS
 62
    4
 10
924.35997029318492
 20
409.87073106805224
 40
1.2083333333333581
 50
307.52351320333912
 51
232.47648680464988
  0
ARC
  8
_2-d_ハッチ他
  6
CONTINUOUS
 62
    4
 10
925.83193043766164
 20
407.95406440145211
 40
1.2083333333333179
 50
127.52351320610693
 51
52.47648680188081
  0
ARC
  8
_2-d_ハッチ他
  6
CONTINUOUS
 62
    4
 10
921.41605000450431
 20
409.87073106784533
 40
1.2083333333333581
 50
307.52351320333912
 51
232.47648680464988
  0
ARC
  8
_2-d_ハッチ他
  6
CONTINUOUS
 62
    4
 10
922.88801014897649
 20
407.9540644012452
 40
1.2083333333333179
 50
127.52351320610693
 51
52.47648680188081
  0
ARC
  8
_2-d_ハッチ他
  6
CONTINUOUS
 62
    4
 10
918.47212971581916
 20
409.87073106764069
 40
1.2083333333333581
 50
307.52351320333912
 51
232.47648680464988
  0
ARC
  8
_2-d_ハッチ他
  6
CONTINUOUS
 62
    4
 10
919.94408986029589
 20
407.95406440104057
 40
1.2083333333333179
 50
127.52351320610693
 51
52.47648680188081
  0
ARC
  8
_2-d_ハッチ他
  6
CONTINUOUS
 62
    4
 10
915.52820942713402
 20
409.87073106743605
 40
1.2083333333333581
 50
307.52351320333912
 51
232.47648680464988
  0
ARC
  8
_2-d_ハッチ他
  6
CONTINUOUS
 62
    4
 10
917.00016957161074
 20
407.95406440083593
 40
1.2083333333333179
 50
127.52351320610693
 51
52.47648680188081
  0
ARC
  8
_2-d_ハッチ他
  6
CONTINUOUS
 62
    4
 10
909.64036884976827
 20
409.87073106702451
 40
1.2083333333333581
 50
307.52351320333912
 51
232.47648680464988
  0
ARC
  8
_2-d_ハッチ他
  6
CONTINUOUS
 62
    4
 10
912.58428913845341
 20
409.87073106723142
 40
1.2083333333333581
 50
307.52351320333912
 51
232.47648680464988
  0
ARC
  8
_2-d_ハッチ他
  6
CONTINUOUS
 62
    4
 10
911.11232899424499
 20
407.95406440042666
 40
1.2083333333333179
 50
127.52351320610693
 51
52.47648680188081
  0
ARC
  8
_2-d_ハッチ他
  6
CONTINUOUS
 62
    4
 10
914.05624928292559
 20
407.9540644006313
 40
1.2083333333333179
 50
127.52351320610693
 51
52.47648680188081
  0
ARC
  8
_2-d_ハッチ他
  6
CONTINUOUS
 62
    4
 10
908.16840870555984
 20
407.95406440021975
 40
1.2083333333333179
 50
127.52351320610693
 51
52.47648680188081
  0
ARC
  8
_2-d_ハッチ他
  6
CONTINUOUS
 62
    4
 10
906.69644856108312
 20
409.87073106681987
 40
1.2083333333333581
 50
307.52351320333912
 51
232.47648680464988
  0
ARC
  8
_2-d_ハッチ他
  6
CONTINUOUS
 62
    4
 10
947.91133260265246
 20
409.87073106846151
 40
1.2083333333333581
 50
307.52351320333912
 51
232.47648680464988
  0
ARC
  8
_2-d_ハッチ他
  6
CONTINUOUS
 62
    4
 10
949.38329274712919
 20
407.95406440186139
 40
1.2083333333333179
 50
127.52351320610693
 51
52.47648680188081
  0
ARC
  8
_2-d_ハッチ他
  6
CONTINUOUS
 62
    4
 10
944.96741231396732
 20
409.87073106825687
 40
1.2083333333333581
 50
307.52351320333912
 51
232.47648680464988
  0
ARC
  8
_2-d_ハッチ他
  6
CONTINUOUS
 62
    4
 10
946.43937245844404
 20
407.95406440165675
 40
1.2083333333333179
 50
127.52351320610693
 51
52.47648680188081
  0
ARC
  8
_2-d_ハッチ他
  6
CONTINUOUS
 62
    4
 10
942.02349202528671
 20
409.87073106805224
 40
1.2083333333333581
 50
307.52351320333912
 51
232.47648680464988
  0
ARC
  8
_2-d_ハッチ他
  6
CONTINUOUS
 62
    4
 10
943.49545216975889
 20
407.95406440145211
 40
1.2083333333333179
 50
127.52351320610693
 51
52.47648680188081
  0
ARC
  8
_2-d_ハッチ他
  6
CONTINUOUS
 62
    4
 10
939.07957173660157
 20
409.87073106784533
 40
1.2083333333333581
 50
307.52351320333912
 51
232.47648680464988
  0
ARC
  8
_2-d_ハッチ他
  6
CONTINUOUS
 62
    4
 10
940.55153188107829
 20
407.9540644012452
 40
1.2083333333333179
 50
127.52351320610693
 51
52.47648680188081
  0
ARC
  8
_2-d_ハッチ他
  6
CONTINUOUS
 62
    4
 10
936.13565144792096
 20
409.87073106764069
 40
1.2083333333333581
 50
307.52351320333912
 51
232.47648680464988
  0
ARC
  8
_2-d_ハッチ他
  6
CONTINUOUS
 62
    4
 10
937.60761159239314
 20
407.95406440104057
 40
1.2083333333333179
 50
127.52351320610693
 51
52.47648680188081
  0
ARC
  8
_2-d_ハッチ他
  6
CONTINUOUS
 62
    4
 10
933.19173115923581
 20
409.87073106743605
 40
1.2083333333333581
 50
307.52351320333912
 51
232.47648680464988
  0
ARC
  8
_2-d_ハッチ他
  6
CONTINUOUS
 62
    4
 10
934.66369130371254
 20
407.95406440083593
 40
1.2083333333333179
 50
127.52351320610693
 51
52.47648680188081
  0
ARC
  8
_2-d_ハッチ他
  6
CONTINUOUS
 62
    4
 10
974.40661520080062
 20
409.87073106846151
 40
1.2083333333333581
 50
307.52351320333912
 51
232.47648680464988
  0
ARC
  8
_2-d_ハッチ他
  6
CONTINUOUS
 62
    4
 10
975.87857534527734
 20
407.95406440186139
 40
1.2083333333333179
 50
127.52351320610693
 51
52.47648680188081
  0
ARC
  8
_2-d_ハッチ他
  6
CONTINUOUS
 62
    4
 10
971.46269491212001
 20
409.87073106825687
 40
1.2083333333333581
 50
307.52351320333912
 51
232.47648680464988
  0
ARC
  8
_2-d_ハッチ他
  6
CONTINUOUS
 62
    4
 10
972.93465505659219
 20
407.95406440165675
 40
1.2083333333333179
 50
127.52351320610693
 51
52.47648680188081
  0
ARC
  8
_2-d_ハッチ他
  6
CONTINUOUS
 62
    4
 10
968.51877462343487
 20
409.87073106805224
 40
1.2083333333333581
 50
307.52351320333912
 51
232.47648680464988
  0
ARC
  8
_2-d_ハッチ他
  6
CONTINUOUS
 62
    4
 10
969.99073476791159
 20
407.95406440145211
 40
1.2083333333333179
 50
127.52351320610693
 51
52.47648680188081
  0
ARC
  8
_2-d_ハッチ他
  6
CONTINUOUS
 62
    4
 10
965.57485433475426
 20
409.87073106784533
 40
1.2083333333333581
 50
307.52351320333912
 51
232.47648680464988
  0
ARC
  8
_2-d_ハッチ他
  6
CONTINUOUS
 62
    4
 10
967.04681447922644
 20
407.9540644012452
 40
1.2083333333333179
 50
127.52351320610693
 51
52.47648680188081
  0
ARC
  8
_2-d_ハッチ他
  6
CONTINUOUS
 62
    4
 10
962.63093404606911
 20
409.87073106764069
 40
1.2083333333333581
 50
307.52351320333912
 51
232.47648680464988
  0
ARC
  8
_2-d_ハッチ他
  6
CONTINUOUS
 62
    4
 10
964.10289419054584
 20
407.95406440104057
 40
1.2083333333333179
 50
127.52351320610693
 51
52.47648680188081
  0
ARC
  8
_2-d_ハッチ他
  6
CONTINUOUS
 62
    4
 10
959.68701375738397
 20
409.87073106743605
 40
1.2083333333333581
 50
307.52351320333912
 51
232.47648680464988
  0
ARC
  8
_2-d_ハッチ他
  6
CONTINUOUS
 62
    4
 10
961.15897390186069
 20
407.95406440083593
 40
1.2083333333333179
 50
127.52351320610693
 51
52.47648680188081
  0
ARC
  8
_2-d_ハッチ他
  6
CONTINUOUS
 62
    4
 10
953.79917318001822
 20
409.87073106702451
 40
1.2083333333333581
 50
307.52351320333912
 51
232.47648680464988
  0
ARC
  8
_2-d_ハッチ他
  6
CONTINUOUS
 62
    4
 10
956.74309346870336
 20
409.87073106723142
 40
1.2083333333333581
 50
307.52351320333912
 51
232.47648680464988
  0
ARC
  8
_2-d_ハッチ他
  6
CONTINUOUS
 62
    4
 10
955.27113332449494
 20
407.95406440042666
 40
1.2083333333333179
 50
127.52351320610693
 51
52.47648680188081
  0
ARC
  8
_2-d_ハッチ他
  6
CONTINUOUS
 62
    4
 10
958.21505361317554
 20
407.9540644006313
 40
1.2083333333333179
 50
127.52351320610693
 51
52.47648680188081
  0
ARC
  8
_2-d_ハッチ他
  6
CONTINUOUS
 62
    4
 10
952.32721303580979
 20
407.95406440021975
 40
1.2083333333333179
 50
127.52351320610693
 51
52.47648680188081
  0
ARC
  8
_2-d_ハッチ他
  6
CONTINUOUS
 62
    4
 10
950.85525289133761
 20
409.87073106681987
 40
1.2083333333333581
 50
307.52351320333912
 51
232.47648680464988
  0
ARC
  8
_2-d_ハッチ他
  6
CONTINUOUS
 62
    4
 10
992.07013693290241
 20
409.87073106784533
 40
1.2083333333333581
 50
307.52351320333912
 51
232.47648680464988
  0
ARC
  8
_2-d_ハッチ他
  6
CONTINUOUS
 62
    4
 10
993.54209707737914
 20
407.9540644012452
 40
1.2083333333333179
 50
127.52351320610693
 51
52.47648680188081
  0
ARC
  8
_2-d_ハッチ他
  6
CONTINUOUS
 62
    4
 10
989.12621664421727
 20
409.87073106764069
 40
1.2083333333333581
 50
307.52351320333912
 51
232.47648680464988
  0
ARC
  8
_2-d_ハッチ他
  6
CONTINUOUS
 62
    4
 10
990.59817678869399
 20
407.95406440104057
 40
1.2083333333333179
 50
127.52351320610693
 51
52.47648680188081
  0
ARC
  8
_2-d_ハッチ他
  6
CONTINUOUS
 62
    4
 10
986.18229635553666
 20
409.87073106743605
 40
1.2083333333333581
 50
307.52351320333912
 51
232.47648680464988
  0
ARC
  8
_2-d_ハッチ他
  6
CONTINUOUS
 62
    4
 10
987.65425650000884
 20
407.95406440083593
 40
1.2083333333333179
 50
127.52351320610693
 51
52.47648680188081
  0
ARC
  8
_2-d_ハッチ他
  6
CONTINUOUS
 62
    4
 10
980.29445577817091
 20
409.87073106702451
 40
1.2083333333333581
 50
307.52351320333912
 51
232.47648680464988
  0
ARC
  8
_2-d_ハッチ他
  6
CONTINUOUS
 62
    4
 10
983.23837606685152
 20
409.87073106723142
 40
1.2083333333333581
 50
307.52351320333912
 51
232.47648680464988
  0
ARC
  8
_2-d_ハッチ他
  6
CONTINUOUS
 62
    4
 10
981.76641592264309
 20
407.95406440042666
 40
1.2083333333333179
 50
127.52351320610693
 51
52.47648680188081
  0
ARC
  8
_2-d_ハッチ他
  6
CONTINUOUS
 62
    4
 10
984.71033621132824
 20
407.9540644006313
 40
1.2083333333333179
 50
127.52351320610693
 51
52.47648680188081
  0
ARC
  8
_2-d_ハッチ他
  6
CONTINUOUS
 62
    4
 10
978.82249563396249
 20
407.95406440021975
 40
1.2083333333333179
 50
127.52351320610693
 51
52.47648680188081
  0
ARC
  8
_2-d_ハッチ他
  6
CONTINUOUS
 62
    4
 10
977.35053548948576
 20
409.87073106681987
 40
1.2083333333333581
 50
307.52351320333912
 51
232.47648680464988
  0
ARC
  8
_2-d_ハッチ他
  6
CONTINUOUS
 62
    4
 10
1056.8363832839348
 20
409.87073106846151
 40
1.2083333333333581
 50
307.52351320333912
 51
232.47648680464988
  0
ARC
  8
_2-d_ハッチ他
  6
CONTINUOUS
 62
    4
 10
1058.3083434284115
 20
407.95406440186139
 40
1.2083333333333179
 50
127.52351320610693
 51
52.47648680188081
  0
ARC
  8
_2-d_ハッチ他
  6
CONTINUOUS
 62
    4
 10
1053.8924629952542
 20
409.87073106825687
 40
1.2083333333333581
 50
307.52351320333912
 51
232.47648680464988
  0
ARC
  8
_2-d_ハッチ他
  6
CONTINUOUS
 62
    4
 10
1055.3644231397263
 20
407.95406440165675
 40
1.2083333333333179
 50
127.52351320610693
 51
52.47648680188081
  0
ARC
  8
_2-d_ハッチ他
  6
CONTINUOUS
 62
    4
 10
1050.948542706569
 20
409.87073106805224
 40
1.2083333333333581
 50
307.52351320333912
 51
232.47648680464988
  0
ARC
  8
_2-d_ハッチ他
  6
CONTINUOUS
 62
    4
 10
1052.4205028510457
 20
407.95406440145211
 40
1.2083333333333179
 50
127.52351320610693
 51
52.47648680188081
  0
ARC
  8
_2-d_ハッチ他
  6
CONTINUOUS
 62
    4
 10
1048.0046224178839
 20
409.87073106784533
 40
1.2083333333333581
 50
307.52351320333912
 51
232.47648680464988
  0
ARC
  8
_2-d_ハッチ他
  6
CONTINUOUS
 62
    4
 10
1049.4765825623606
 20
407.9540644012452
 40
1.2083333333333179
 50
127.52351320610693
 51
52.47648680188081
  0
ARC
  8
_2-d_ハッチ他
  6
CONTINUOUS
 62
    4
 10
1083.3316658820875
 20
409.87073106846151
 40
1.2083333333333581
 50
307.52351320333912
 51
232.47648680464988
  0
ARC
  8
_2-d_ハッチ他
  6
CONTINUOUS
 62
    4
 10
1084.8036260265596
 20
407.95406440186139
 40
1.2083333333333179
 50
127.52351320610693
 51
52.47648680188081
  0
ARC
  8
_2-d_ハッチ他
  6
CONTINUOUS
 62
    4
 10
1080.3877455934023
 20
409.87073106825687
 40
1.2083333333333581
 50
307.52351320333912
 51
232.47648680464988
  0
ARC
  8
_2-d_ハッチ他
  6
CONTINUOUS
 62
    4
 10
1081.859705737879
 20
407.95406440165675
 40
1.2083333333333179
 50
127.52351320610693
 51
52.47648680188081
  0
ARC
  8
_2-d_ハッチ他
  6
CONTINUOUS
 62
    4
 10
1071.5559847273514
 20
409.87073106764069
 40
1.2083333333333581
 50
307.52351320333912
 51
232.47648680464988
  0
ARC
  8
_2-d_ハッチ他
  6
CONTINUOUS
 62
    4
 10
1073.0279448718281
 20
407.95406440104057
 40
1.2083333333333179
 50
127.52351320610693
 51
52.47648680188081
  0
ARC
  8
_2-d_ハッチ他
  6
CONTINUOUS
 62
    4
 10
1068.6120644386708
 20
409.87073106743605
 40
1.2083333333333581
 50
307.52351320333912
 51
232.47648680464988
  0
ARC
  8
_2-d_ハッチ他
  6
CONTINUOUS
 62
    4
 10
1070.084024583143
 20
407.95406440083593
 40
1.2083333333333179
 50
127.52351320610693
 51
52.47648680188081
  0
ARC
  8
_2-d_ハッチ他
  6
CONTINUOUS
 62
    4
 10
1062.7242238613005
 20
409.87073106702451
 40
1.2083333333333581
 50
307.52351320333912
 51
232.47648680464988
  0
ARC
  8
_2-d_ハッチ他
  6
CONTINUOUS
 62
    4
 10
1065.6681441499857
 20
409.87073106723142
 40
1.2083333333333581
 50
307.52351320333912
 51
232.47648680464988
  0
ARC
  8
_2-d_ハッチ他
  6
CONTINUOUS
 62
    4
 10
1064.1961840057772
 20
407.95406440042666
 40
1.2083333333333179
 50
127.52351320610693
 51
52.47648680188081
  0
ARC
  8
_2-d_ハッチ他
  6
CONTINUOUS
 62
    4
 10
1067.1401042944624
 20
407.9540644006313
 40
1.2083333333333179
 50
127.52351320610693
 51
52.47648680188081
  0
ARC
  8
_2-d_ハッチ他
  6
CONTINUOUS
 62
    4
 10
1061.2522637170921
 20
407.95406440021975
 40
1.2083333333333179
 50
127.52351320610693
 51
52.47648680188081
  0
ARC
  8
_2-d_ハッチ他
  6
CONTINUOUS
 62
    4
 10
1059.7803035726199
 20
409.87073106681987
 40
1.2083333333333581
 50
307.52351320333912
 51
232.47648680464988
  0
ARC
  8
_2-d_ハッチ他
  6
CONTINUOUS
 62
    4
 10
1100.9951876141847
 20
409.87073106846151
 40
1.2083333333333581
 50
307.52351320333912
 51
232.47648680464988
  0
ARC
  8
_2-d_ハッチ他
  6
CONTINUOUS
 62
    4
 10
1102.4671477586614
 20
407.95406440186139
 40
1.2083333333333179
 50
127.52351320610693
 51
52.47648680188081
  0
ARC
  8
_2-d_ハッチ他
  6
CONTINUOUS
 62
    4
 10
1098.0512673255041
 20
409.87073106825687
 40
1.2083333333333581
 50
307.52351320333912
 51
232.47648680464988
  0
ARC
  8
_2-d_ハッチ他
  6
CONTINUOUS
 62
    4
 10
1099.5232274699763
 20
407.95406440165675
 40
1.2083333333333179
 50
127.52351320610693
 51
52.47648680188081
  0
ARC
  8
_2-d_ハッチ他
  6
CONTINUOUS
 62
    4
 10
1095.107347036819
 20
409.87073106805224
 40
1.2083333333333581
 50
307.52351320333912
 51
232.47648680464988
  0
ARC
  8
_2-d_ハッチ他
  6
CONTINUOUS
 62
    4
 10
1096.5793071812957
 20
407.95406440145211
 40
1.2083333333333179
 50
127.52351320610693
 51
52.47648680188081
  0
ARC
  8
_2-d_ハッチ他
  6
CONTINUOUS
 62
    4
 10
1092.1634267481338
 20
409.87073106784533
 40
1.2083333333333581
 50
307.52351320333912
 51
232.47648680464988
  0
ARC
  8
_2-d_ハッチ他
  6
CONTINUOUS
 62
    4
 10
1093.6353868926105
 20
407.9540644012452
 40
1.2083333333333179
 50
127.52351320610693
 51
52.47648680188081
  0
ARC
  8
_2-d_ハッチ他
  6
CONTINUOUS
 62
    4
 10
1089.2195064594532
 20
409.87073106764069
 40
1.2083333333333581
 50
307.52351320333912
 51
232.47648680464988
  0
ARC
  8
_2-d_ハッチ他
  6
CONTINUOUS
 62
    4
 10
1090.6914666039254
 20
407.95406440104057
 40
1.2083333333333179
 50
127.52351320610693
 51
52.47648680188081
  0
ARC
  8
_2-d_ハッチ他
  6
CONTINUOUS
 62
    4
 10
1086.2755861707681
 20
409.87073106743605
 40
1.2083333333333581
 50
307.52351320333912
 51
232.47648680464988
  0
ARC
  8
_2-d_ハッチ他
  6
CONTINUOUS
 62
    4
 10
1087.7475463152448
 20
407.95406440083593
 40
1.2083333333333179
 50
127.52351320610693
 51
52.47648680188081
  0
ARC
  8
_2-d_ハッチ他
  6
CONTINUOUS
 62
    4
 10
1127.4904702123374
 20
409.87073106846151
 40
1.2083333333333581
 50
307.52351320333912
 51
232.47648680464988
  0
ARC
  8
_2-d_ハッチ他
  6
CONTINUOUS
 62
    4
 10
1128.9624303568096
 20
407.95406440186139
 40
1.2083333333333179
 50
127.52351320610693
 51
52.47648680188081
  0
ARC
  8
_2-d_ハッチ他
  6
CONTINUOUS
 62
    4
 10
1124.5465499236523
 20
409.87073106825687
 40
1.2083333333333581
 50
307.52351320333912
 51
232.47648680464988
  0
ARC
  8
_2-d_ハッチ他
  6
CONTINUOUS
 62
    4
 10
1126.018510068129
 20
407.95406440165675
 40
1.2083333333333179
 50
127.52351320610693
 51
52.47648680188081
  0
ARC
  8
_2-d_ハッチ他
  6
CONTINUOUS
 62
    4
 10
1121.6026296349671
 20
409.87073106805224
 40
1.2083333333333581
 50
307.52351320333912
 51
232.47648680464988
  0
ARC
  8
_2-d_ハッチ他
  6
CONTINUOUS
 62
    4
 10
1123.0745897794438
 20
407.95406440145211
 40
1.2083333333333179
 50
127.52351320610693
 51
52.47648680188081
  0
ARC
  8
_2-d_ハッチ他
  6
CONTINUOUS
 62
    4
 10
1118.6587093462865
 20
409.87073106784533
 40
1.2083333333333581
 50
307.52351320333912
 51
232.47648680464988
  0
ARC
  8
_2-d_ハッチ他
  6
CONTINUOUS
 62
    4
 10
1120.1306694907632
 20
407.9540644012452
 40
1.2083333333333179
 50
127.52351320610693
 51
52.47648680188081
  0
ARC
  8
_2-d_ハッチ他
  6
CONTINUOUS
 62
    4
 10
1115.7147890576014
 20
409.87073106764069
 40
1.2083333333333581
 50
307.52351320333912
 51
232.47648680464988
  0
ARC
  8
_2-d_ハッチ他
  6
CONTINUOUS
 62
    4
 10
1117.1867492020781
 20
407.95406440104057
 40
1.2083333333333179
 50
127.52351320610693
 51
52.47648680188081
  0
ARC
  8
_2-d_ハッチ他
  6
CONTINUOUS
 62
    4
 10
1112.7708687689208
 20
409.87073106743605
 40
1.2083333333333581
 50
307.52351320333912
 51
232.47648680464988
  0
ARC
  8
_2-d_ハッチ他
  6
CONTINUOUS
 62
    4
 10
1114.2428289133929
 20
407.95406440083593
 40
1.2083333333333179
 50
127.52351320610693
 51
52.47648680188081
  0
ARC
  8
_2-d_ハッチ他
  6
CONTINUOUS
 62
    4
 10
1106.8830281915505
 20
409.87073106702451
 40
1.2083333333333581
 50
307.52351320333912
 51
232.47648680464988
  0
ARC
  8
_2-d_ハッチ他
  6
CONTINUOUS
 62
    4
 10
1109.8269484802356
 20
409.87073106723142
 40
1.2083333333333581
 50
307.52351320333912
 51
232.47648680464988
  0
ARC
  8
_2-d_ハッチ他
  6
CONTINUOUS
 62
    4
 10
1108.3549883360272
 20
407.95406440042666
 40
1.2083333333333179
 50
127.52351320610693
 51
52.47648680188081
  0
ARC
  8
_2-d_ハッチ他
  6
CONTINUOUS
 62
    4
 10
1111.2989086247123
 20
407.9540644006313
 40
1.2083333333333179
 50
127.52351320610693
 51
52.47648680188081
  0
ARC
  8
_2-d_ハッチ他
  6
CONTINUOUS
 62
    4
 10
1105.411068047342
 20
407.95406440021975
 40
1.2083333333333179
 50
127.52351320610693
 51
52.47648680188081
  0
ARC
  8
_2-d_ハッチ他
  6
CONTINUOUS
 62
    4
 10
1103.9391079028699
 20
409.87073106681987
 40
1.2083333333333581
 50
307.52351320333912
 51
232.47648680464988
  0
ARC
  8
_2-d_ハッチ他
  6
CONTINUOUS
 62
    4
 10
1153.9857528104856
 20
409.87073106846151
 40
1.2083333333333581
 50
307.52351320333912
 51
232.47648680464988
  0
ARC
  8
_2-d_ハッチ他
  6
CONTINUOUS
 62
    4
 10
1155.4577129549623
 20
407.95406440186139
 40
1.2083333333333179
 50
127.52351320610693
 51
52.47648680188081
  0
ARC
  8
_2-d_ハッチ他
  6
CONTINUOUS
 62
    4
 10
1151.0418325218004
 20
409.87073106825687
 40
1.2083333333333581
 50
307.52351320333912
 51
232.47648680464988
  0
ARC
  8
_2-d_ハッチ他
  6
CONTINUOUS
 62
    4
 10
1152.5137926662771
 20
407.95406440165675
 40
1.2083333333333179
 50
127.52351320610693
 51
52.47648680188081
  0
ARC
  8
_2-d_ハッチ他
  6
CONTINUOUS
 62
    4
 10
1148.0979122331198
 20
409.87073106805224
 40
1.2083333333333581
 50
307.52351320333912
 51
232.47648680464988
  0
ARC
  8
_2-d_ハッチ他
  6
CONTINUOUS
 62
    4
 10
1149.5698723775965
 20
407.95406440145211
 40
1.2083333333333179
 50
127.52351320610693
 51
52.47648680188081
  0
ARC
  8
_2-d_ハッチ他
  6
CONTINUOUS
 62
    4
 10
1145.1539919444347
 20
409.87073106784533
 40
1.2083333333333581
 50
307.52351320333912
 51
232.47648680464988
  0
ARC
  8
_2-d_ハッチ他
  6
CONTINUOUS
 62
    4
 10
1146.6259520889114
 20
407.9540644012452
 40
1.2083333333333179
 50
127.52351320610693
 51
52.47648680188081
  0
ARC
  8
_2-d_ハッチ他
  6
CONTINUOUS
 62
    4
 10
1142.2100716557541
 20
409.87073106764069
 40
1.2083333333333581
 50
307.52351320333912
 51
232.47648680464988
  0
ARC
  8
_2-d_ハッチ他
  6
CONTINUOUS
 62
    4
 10
1143.6820318002262
 20
407.95406440104057
 40
1.2083333333333179
 50
127.52351320610693
 51
52.47648680188081
  0
ARC
  8
_2-d_ハッチ他
  6
CONTINUOUS
 62
    4
 10
1139.2661513670689
 20
409.87073106743605
 40
1.2083333333333581
 50
307.52351320333912
 51
232.47648680464988
  0
ARC
  8
_2-d_ハッチ他
  6
CONTINUOUS
 62
    4
 10
1140.7381115115456
 20
407.95406440083593
 40
1.2083333333333179
 50
127.52351320610693
 51
52.47648680188081
  0
ARC
  8
_2-d_ハッチ他
  6
CONTINUOUS
 62
    4
 10
1133.3783107897032
 20
409.87073106702451
 40
1.2083333333333581
 50
307.52351320333912
 51
232.47648680464988
  0
ARC
  8
_2-d_ハッチ他
  6
CONTINUOUS
 62
    4
 10
1136.3222310783838
 20
409.87073106723142
 40
1.2083333333333581
 50
307.52351320333912
 51
232.47648680464988
  0
ARC
  8
_2-d_ハッチ他
  6
CONTINUOUS
 62
    4
 10
1134.8502709341799
 20
407.95406440042666
 40
1.2083333333333179
 50
127.52351320610693
 51
52.47648680188081
  0
ARC
  8
_2-d_ハッチ他
  6
CONTINUOUS
 62
    4
 10
1137.7941912228605
 20
407.9540644006313
 40
1.2083333333333179
 50
127.52351320610693
 51
52.47648680188081
  0
ARC
  8
_2-d_ハッチ他
  6
CONTINUOUS
 62
    4
 10
1131.9063506454947
 20
407.95406440021975
 40
1.2083333333333179
 50
127.52351320610693
 51
52.47648680188081
  0
ARC
  8
_2-d_ハッチ他
  6
CONTINUOUS
 62
    4
 10
1130.434390501018
 20
409.87073106681987
 40
1.2083333333333581
 50
307.52351320333912
 51
232.47648680464988
  0
ARC
  8
_2-d_ハッチ他
  6
CONTINUOUS
 62
    4
 10
1158.4016332436429
 20
407.95406440145211
 40
1.2083333333333179
 50
127.52351320610693
 51
52.47648680188081
  0
ARC
  8
_2-d_ハッチ他
  6
CONTINUOUS
 62
    4
 10
1156.9296730991707
 20
409.87073106805224
 40
1.2083333333333581
 50
307.52351320333912
 51
232.47648680464988
  0
ARC
  8
_2-d_ハッチ他
  6
CONTINUOUS
 62
    4
 10
1183.4249556973189
 20
409.87073106846151
 40
1.2083333333333581
 50
307.52351320333912
 51
232.47648680464988
  0
ARC
  8
_2-d_ハッチ他
  6
CONTINUOUS
 62
    4
 10
1184.8969158417956
 20
407.95406440186139
 40
1.2083333333333179
 50
127.52351320610693
 51
52.47648680188081
  0
ARC
  8
_2-d_ハッチ他
  6
CONTINUOUS
 62
    4
 10
1180.4810354086383
 20
409.87073106825687
 40
1.2083333333333581
 50
307.52351320333912
 51
232.47648680464988
  0
ARC
  8
_2-d_ハッチ他
  6
CONTINUOUS
 62
    4
 10
1181.9529955531104
 20
407.95406440165675
 40
1.2083333333333179
 50
127.52351320610693
 51
52.47648680188081
  0
ARC
  8
_2-d_ハッチ他
  6
CONTINUOUS
 62
    4
 10
1177.5371151199531
 20
409.87073106805224
 40
1.2083333333333581
 50
307.52351320333912
 51
232.47648680464988
  0
ARC
  8
_2-d_ハッチ他
  6
CONTINUOUS
 62
    4
 10
1179.0090752644298
 20
407.95406440145211
 40
1.2083333333333179
 50
127.52351320610693
 51
52.47648680188081
  0
ARC
  8
_2-d_ハッチ他
  6
CONTINUOUS
 62
    4
 10
1174.593194831268
 20
409.87073106784533
 40
1.2083333333333581
 50
307.52351320333912
 51
232.47648680464988
  0
ARC
  8
_2-d_ハッチ他
  6
CONTINUOUS
 62
    4
 10
1176.0651549757447
 20
407.9540644012452
 40
1.2083333333333179
 50
127.52351320610693
 51
52.47648680188081
  0
ARC
  8
_2-d_ハッチ他
  6
CONTINUOUS
 62
    4
 10
1171.6492745425874
 20
409.87073106764069
 40
1.2083333333333581
 50
307.52351320333912
 51
232.47648680464988
  0
ARC
  8
_2-d_ハッチ他
  6
CONTINUOUS
 62
    4
 10
1173.1212346870595
 20
407.95406440104057
 40
1.2083333333333179
 50
127.52351320610693
 51
52.47648680188081
  0
ARC
  8
_2-d_ハッチ他
  6
CONTINUOUS
 62
    4
 10
1168.7053542539022
 20
409.87073106743605
 40
1.2083333333333581
 50
307.52351320333912
 51
232.47648680464988
  0
ARC
  8
_2-d_ハッチ他
  6
CONTINUOUS
 62
    4
 10
1170.1773143983789
 20
407.95406440083593
 40
1.2083333333333179
 50
127.52351320610693
 51
52.47648680188081
  0
ARC
  8
_2-d_ハッチ他
  6
CONTINUOUS
 62
    4
 10
1162.8175136765365
 20
409.87073106702451
 40
1.2083333333333581
 50
307.52351320333912
 51
232.47648680464988
  0
ARC
  8
_2-d_ハッチ他
  6
CONTINUOUS
 62
    4
 10
1165.7614339652216
 20
409.87073106723142
 40
1.2083333333333581
 50
307.52351320333912
 51
232.47648680464988
  0
ARC
  8
_2-d_ハッチ他
  6
CONTINUOUS
 62
    4
 10
1164.2894738210132
 20
407.95406440042666
 40
1.2083333333333179
 50
127.52351320610693
 51
52.47648680188081
  0
ARC
  8
_2-d_ハッチ他
  6
CONTINUOUS
 62
    4
 10
1167.2333941096938
 20
407.9540644006313
 40
1.2083333333333179
 50
127.52351320610693
 51
52.47648680188081
  0
ARC
  8
_2-d_ハッチ他
  6
CONTINUOUS
 62
    4
 10
1161.345553532328
 20
407.95406440021975
 40
1.2083333333333179
 50
127.52351320610693
 51
52.47648680188081
  0
ARC
  8
_2-d_ハッチ他
  6
CONTINUOUS
 62
    4
 10
1159.8735933878513
 20
409.87073106681987
 40
1.2083333333333581
 50
307.52351320333912
 51
232.47648680464988
  0
ARC
  8
_2-d_ハッチ他
  6
CONTINUOUS
 62
    4
 10
1209.9202382954716
 20
409.87073106846151
 40
1.2083333333333581
 50
307.52351320333912
 51
232.47648680464988
  0
ARC
  8
_2-d_ハッチ他
  6
CONTINUOUS
 62
    4
 10
1211.3921984399437
 20
407.95406440186139
 40
1.2083333333333179
 50
127.52351320610693
 51
52.47648680188081
  0
ARC
  8
_2-d_ハッチ他
  6
CONTINUOUS
 62
    4
 10
1206.9763180067864
 20
409.87073106825687
 40
1.2083333333333581
 50
307.52351320333912
 51
232.47648680464988
  0
ARC
  8
_2-d_ハッチ他
  6
CONTINUOUS
 62
    4
 10
1208.4482781512631
 20
407.95406440165675
 40
1.2083333333333179
 50
127.52351320610693
 51
52.47648680188081
  0
ARC
  8
_2-d_ハッチ他
  6
CONTINUOUS
 62
    4
 10
1204.0323977181013
 20
409.87073106805224
 40
1.2083333333333581
 50
307.52351320333912
 51
232.47648680464988
  0
ARC
  8
_2-d_ハッチ他
  6
CONTINUOUS
 62
    4
 10
1205.504357862578
 20
407.95406440145211
 40
1.2083333333333179
 50
127.52351320610693
 51
52.47648680188081
  0
ARC
  8
_2-d_ハッチ他
  6
CONTINUOUS
 62
    4
 10
1201.0884774294207
 20
409.87073106784533
 40
1.2083333333333581
 50
307.52351320333912
 51
232.47648680464988
  0
ARC
  8
_2-d_ハッチ他
  6
CONTINUOUS
 62
    4
 10
1202.5604375738974
 20
407.9540644012452
 40
1.2083333333333179
 50
127.52351320610693
 51
52.47648680188081
  0
ARC
  8
_2-d_ハッチ他
  6
CONTINUOUS
 62
    4
 10
1198.1445571407355
 20
409.87073106764069
 40
1.2083333333333581
 50
307.52351320333912
 51
232.47648680464988
  0
ARC
  8
_2-d_ハッチ他
  6
CONTINUOUS
 62
    4
 10
1199.6165172852122
 20
407.95406440104057
 40
1.2083333333333179
 50
127.52351320610693
 51
52.47648680188081
  0
ARC
  8
_2-d_ハッチ他
  6
CONTINUOUS
 62
    4
 10
1195.2006368520549
 20
409.87073106743605
 40
1.2083333333333581
 50
307.52351320333912
 51
232.47648680464988
  0
ARC
  8
_2-d_ハッチ他
  6
CONTINUOUS
 62
    4
 10
1196.6725969965271
 20
407.95406440083593
 40
1.2083333333333179
 50
127.52351320610693
 51
52.47648680188081
  0
ARC
  8
_2-d_ハッチ他
  6
CONTINUOUS
 62
    4
 10
1189.3127962746846
 20
409.87073106702451
 40
1.2083333333333581
 50
307.52351320333912
 51
232.47648680464988
  0
ARC
  8
_2-d_ハッチ他
  6
CONTINUOUS
 62
    4
 10
1192.2567165633698
 20
409.87073106723142
 40
1.2083333333333581
 50
307.52351320333912
 51
232.47648680464988
  0
ARC
  8
_2-d_ハッチ他
  6
CONTINUOUS
 62
    4
 10
1190.7847564191613
 20
407.95406440042666
 40
1.2083333333333179
 50
127.52351320610693
 51
52.47648680188081
  0
ARC
  8
_2-d_ハッチ他
  6
CONTINUOUS
 62
    4
 10
1193.7286767078465
 20
407.9540644006313
 40
1.2083333333333179
 50
127.52351320610693
 51
52.47648680188081
  0
ARC
  8
_2-d_ハッチ他
  6
CONTINUOUS
 62
    4
 10
1187.8408361304762
 20
407.95406440021975
 40
1.2083333333333179
 50
127.52351320610693
 51
52.47648680188081
  0
ARC
  8
_2-d_ハッチ他
  6
CONTINUOUS
 62
    4
 10
1186.368875986004
 20
409.87073106681987
 40
1.2083333333333581
 50
307.52351320333912
 51
232.47648680464988
  0
ARC
  8
_2-d_ハッチ他
  6
CONTINUOUS
 62
    4
 10
1236.4155208936197
 20
409.87073106846151
 40
1.2083333333333581
 50
307.52351320333912
 51
232.47648680464988
  0
ARC
  8
_2-d_ハッチ他
  6
CONTINUOUS
 62
    4
 10
1237.8874810380964
 20
407.95406440186139
 40
1.2083333333333179
 50
127.52351320610693
 51
52.47648680188081
  0
ARC
  8
_2-d_ハッチ他
  6
CONTINUOUS
 62
    4
 10
1233.4716006049346
 20
409.87073106825687
 40
1.2083333333333581
 50
307.52351320333912
 51
232.47648680464988
  0
ARC
  8
_2-d_ハッチ他
  6
CONTINUOUS
 62
    4
 10
1234.9435607494113
 20
407.95406440165675
 40
1.2083333333333179
 50
127.52351320610693
 51
52.47648680188081
  0
ARC
  8
_2-d_ハッチ他
  6
CONTINUOUS
 62
    4
 10
1230.527680316254
 20
409.87073106805224
 40
1.2083333333333581
 50
307.52351320333912
 51
232.47648680464988
  0
ARC
  8
_2-d_ハッチ他
  6
CONTINUOUS
 62
    4
 10
1231.9996404607307
 20
407.95406440145211
 40
1.2083333333333179
 50
127.52351320610693
 51
52.47648680188081
  0
ARC
  8
_2-d_ハッチ他
  6
CONTINUOUS
 62
    4
 10
1227.5837600275688
 20
409.87073106784533
 40
1.2083333333333581
 50
307.52351320333912
 51
232.47648680464988
  0
ARC
  8
_2-d_ハッチ他
  6
CONTINUOUS
 62
    4
 10
1229.0557201720455
 20
407.9540644012452
 40
1.2083333333333179
 50
127.52351320610693
 51
52.47648680188081
  0
ARC
  8
_2-d_ハッチ他
  6
CONTINUOUS
 62
    4
 10
1224.6398397388882
 20
409.87073106764069
 40
1.2083333333333581
 50
307.52351320333912
 51
232.47648680464988
  0
ARC
  8
_2-d_ハッチ他
  6
CONTINUOUS
 62
    4
 10
1226.1117998833604
 20
407.95406440104057
 40
1.2083333333333179
 50
127.52351320610693
 51
52.47648680188081
  0
ARC
  8
_2-d_ハッチ他
  6
CONTINUOUS
 62
    4
 10
1221.6959194502031
 20
409.87073106743605
 40
1.2083333333333581
 50
307.52351320333912
 51
232.47648680464988
  0
ARC
  8
_2-d_ハッチ他
  6
CONTINUOUS
 62
    4
 10
1223.1678795946798
 20
407.95406440083593
 40
1.2083333333333179
 50
127.52351320610693
 51
52.47648680188081
  0
ARC
  8
_2-d_ハッチ他
  6
CONTINUOUS
 62
    4
 10
1215.8080788728373
 20
409.87073106702451
 40
1.2083333333333581
 50
307.52351320333912
 51
232.47648680464988
  0
ARC
  8
_2-d_ハッチ他
  6
CONTINUOUS
 62
    4
 10
1218.7519991615179
 20
409.87073106723142
 40
1.2083333333333581
 50
307.52351320333912
 51
232.47648680464988
  0
ARC
  8
_2-d_ハッチ他
  6
CONTINUOUS
 62
    4
 10
1217.280039017314
 20
407.95406440042666
 40
1.2083333333333179
 50
127.52351320610693
 51
52.47648680188081
  0
ARC
  8
_2-d_ハッチ他
  6
CONTINUOUS
 62
    4
 10
1220.2239593059946
 20
407.9540644006313
 40
1.2083333333333179
 50
127.52351320610693
 51
52.47648680188081
  0
ARC
  8
_2-d_ハッチ他
  6
CONTINUOUS
 62
    4
 10
1214.3361187286289
 20
407.95406440021975
 40
1.2083333333333179
 50
127.52351320610693
 51
52.47648680188081
  0
ARC
  8
_2-d_ハッチ他
  6
CONTINUOUS
 62
    4
 10
1212.8641585841522
 20
409.87073106681987
 40
1.2083333333333581
 50
307.52351320333912
 51
232.47648680464988
  0
ARC
  8
_2-d_ハッチ他
  6
CONTINUOUS
 62
    4
 10
1254.0790426257215
 20
409.87073106846151
 40
1.2083333333333581
 50
307.52351320333912
 51
232.47648680464988
  0
ARC
  8
_2-d_ハッチ他
  6
CONTINUOUS
 62
    4
 10
1255.5510027701937
 20
407.95406440186139
 40
1.2083333333333179
 50
127.52351320610693
 51
52.47648680188081
  0
ARC
  8
_2-d_ハッチ他
  6
CONTINUOUS
 62
    4
 10
1251.1351223370364
 20
409.87073106825687
 40
1.2083333333333581
 50
307.52351320333912
 51
232.47648680464988
  0
ARC
  8
_2-d_ハッチ他
  6
CONTINUOUS
 62
    4
 10
1252.6070824815131
 20
407.95406440165675
 40
1.2083333333333179
 50
127.52351320610693
 51
52.47648680188081
  0
ARC
  8
_2-d_ハッチ他
  6
CONTINUOUS
 62
    4
 10
1248.1912020483558
 20
409.87073106805224
 40
1.2083333333333581
 50
307.52351320333912
 51
232.47648680464988
  0
ARC
  8
_2-d_ハッチ他
  6
CONTINUOUS
 62
    4
 10
1249.6631621928279
 20
407.95406440145211
 40
1.2083333333333179
 50
127.52351320610693
 51
52.47648680188081
  0
ARC
  8
_2-d_ハッチ他
  6
CONTINUOUS
 62
    4
 10
1245.2472817596706
 20
409.87073106784533
 40
1.2083333333333581
 50
307.52351320333912
 51
232.47648680464988
  0
ARC
  8
_2-d_ハッチ他
  6
CONTINUOUS
 62
    4
 10
1246.7192419041473
 20
407.9540644012452
 40
1.2083333333333179
 50
127.52351320610693
 51
52.47648680188081
  0
ARC
  8
_2-d_ハッチ他
  6
CONTINUOUS
 62
    4
 10
1242.3033614709855
 20
409.87073106764069
 40
1.2083333333333581
 50
307.52351320333912
 51
232.47648680464988
  0
ARC
  8
_2-d_ハッチ他
  6
CONTINUOUS
 62
    4
 10
1243.7753216154622
 20
407.95406440104057
 40
1.2083333333333179
 50
127.52351320610693
 51
52.47648680188081
  0
ARC
  8
_2-d_ハッチ他
  6
CONTINUOUS
 62
    4
 10
1239.3594411823049
 20
409.87073106743605
 40
1.2083333333333581
 50
307.52351320333912
 51
232.47648680464988
  0
ARC
  8
_2-d_ハッチ他
  6
CONTINUOUS
 62
    4
 10
1240.831401326777
 20
407.95406440083593
 40
1.2083333333333179
 50
127.52351320610693
 51
52.47648680188081
  0
ARC
  8
_2-d_ハッチ他
  6
CONTINUOUS
 62
    4
 10
1280.5743252238697
 20
409.87073106846151
 40
1.2083333333333581
 50
307.52351320333912
 51
232.47648680464988
  0
ARC
  8
_2-d_ハッチ他
  6
CONTINUOUS
 62
    4
 10
1282.0462853683464
 20
407.95406440186139
 40
1.2083333333333179
 50
127.52351320610693
 51
52.47648680188081
  0
ARC
  8
_2-d_ハッチ他
  6
CONTINUOUS
 62
    4
 10
1277.6304049351891
 20
409.87073106825687
 40
1.2083333333333581
 50
307.52351320333912
 51
232.47648680464988
  0
ARC
  8
_2-d_ハッチ他
  6
CONTINUOUS
 62
    4
 10
1279.1023650796612
 20
407.95406440165675
 40
1.2083333333333179
 50
127.52351320610693
 51
52.47648680188081
  0
ARC
  8
_2-d_ハッチ他
  6
CONTINUOUS
 62
    4
 10
1274.6864846465039
 20
409.87073106805224
 40
1.2083333333333581
 50
307.52351320333912
 51
232.47648680464988
  0
ARC
  8
_2-d_ハッチ他
  6
CONTINUOUS
 62
    4
 10
1276.1584447909806
 20
407.95406440145211
 40
1.2083333333333179
 50
127.52351320610693
 51
52.47648680188081
  0
ARC
  8
_2-d_ハッチ他
  6
CONTINUOUS
 62
    4
 10
1271.7425643578188
 20
409.87073106784533
 40
1.2083333333333581
 50
307.52351320333912
 51
232.47648680464988
  0
ARC
  8
_2-d_ハッチ他
  6
CONTINUOUS
 62
    4
 10
1273.2145245022955
 20
407.9540644012452
 40
1.2083333333333179
 50
127.52351320610693
 51
52.47648680188081
  0
ARC
  8
_2-d_ハッチ他
  6
CONTINUOUS
 62
    4
 10
1268.7986440691382
 20
409.87073106764069
 40
1.2083333333333581
 50
307.52351320333912
 51
232.47648680464988
  0
ARC
  8
_2-d_ハッチ他
  6
CONTINUOUS
 62
    4
 10
1270.2706042136103
 20
407.95406440104057
 40
1.2083333333333179
 50
127.52351320610693
 51
52.47648680188081
  0
ARC
  8
_2-d_ハッチ他
  6
CONTINUOUS
 62
    4
 10
1265.854723780453
 20
409.87073106743605
 40
1.2083333333333581
 50
307.52351320333912
 51
232.47648680464988
  0
ARC
  8
_2-d_ハッチ他
  6
CONTINUOUS
 62
    4
 10
1267.3266839249297
 20
407.95406440083593
 40
1.2083333333333179
 50
127.52351320610693
 51
52.47648680188081
  0
ARC
  8
_2-d_ハッチ他
  6
CONTINUOUS
 62
    4
 10
1259.9668832030873
 20
409.87073106702451
 40
1.2083333333333581
 50
307.52351320333912
 51
232.47648680464988
  0
ARC
  8
_2-d_ハッチ他
  6
CONTINUOUS
 62
    4
 10
1262.9108034917724
 20
409.87073106723142
 40
1.2083333333333581
 50
307.52351320333912
 51
232.47648680464988
  0
ARC
  8
_2-d_ハッチ他
  6
CONTINUOUS
 62
    4
 10
1261.438843347564
 20
407.95406440042666
 40
1.2083333333333179
 50
127.52351320610693
 51
52.47648680188081
  0
ARC
  8
_2-d_ハッチ他
  6
CONTINUOUS
 62
    4
 10
1264.3827636362446
 20
407.9540644006313
 40
1.2083333333333179
 50
127.52351320610693
 51
52.47648680188081
  0
ARC
  8
_2-d_ハッチ他
  6
CONTINUOUS
 62
    4
 10
1258.4949230588788
 20
407.95406440021975
 40
1.2083333333333179
 50
127.52351320610693
 51
52.47648680188081
  0
ARC
  8
_2-d_ハッチ他
  6
CONTINUOUS
 62
    4
 10
1257.0229629144021
 20
409.87073106681987
 40
1.2083333333333581
 50
307.52351320333912
 51
232.47648680464988
  0
ARC
  8
_2-d_ハッチ他
  6
CONTINUOUS
 62
    4
 10
1307.0696078220224
 20
409.87073106846151
 40
1.2083333333333581
 50
307.52351320333912
 51
232.47648680464988
  0
ARC
  8
_2-d_ハッチ他
  6
CONTINUOUS
 62
    4
 10
1308.5415679664945
 20
407.95406440186139
 40
1.2083333333333179
 50
127.52351320610693
 51
52.47648680188081
  0
ARC
  8
_2-d_ハッチ他
  6
CONTINUOUS
 62
    4
 10
1304.1256875333372
 20
409.87073106825687
 40
1.2083333333333581
 50
307.52351320333912
 51
232.47648680464988
  0
ARC
  8
_2-d_ハッチ他
  6
CONTINUOUS
 62
    4
 10
1305.5976476778139
 20
407.95406440165675
 40
1.2083333333333179
 50
127.52351320610693
 51
52.47648680188081
  0
ARC
  8
_2-d_ハッチ他
  6
CONTINUOUS
 62
    4
 10
1301.1817672446521
 20
409.87073106805224
 40
1.2083333333333581
 50
307.52351320333912
 51
232.47648680464988
  0
ARC
  8
_2-d_ハッチ他
  6
CONTINUOUS
 62
    4
 10
1302.6537273891288
 20
407.95406440145211
 40
1.2083333333333179
 50
127.52351320610693
 51
52.47648680188081
  0
ARC
  8
_2-d_ハッチ他
  6
CONTINUOUS
 62
    4
 10
1298.2378469559715
 20
409.87073106784533
 40
1.2083333333333581
 50
307.52351320333912
 51
232.47648680464988
  0
ARC
  8
_2-d_ハッチ他
  6
CONTINUOUS
 62
    4
 10
1299.7098071004436
 20
407.9540644012452
 40
1.2083333333333179
 50
127.52351320610693
 51
52.47648680188081
  0
ARC
  8
_2-d_ハッチ他
  6
CONTINUOUS
 62
    4
 10
1295.2939266672863
 20
409.87073106764069
 40
1.2083333333333581
 50
307.52351320333912
 51
232.47648680464988
  0
ARC
  8
_2-d_ハッチ他
  6
CONTINUOUS
 62
    4
 10
1296.765886811763
 20
407.95406440104057
 40
1.2083333333333179
 50
127.52351320610693
 51
52.47648680188081
  0
ARC
  8
_2-d_ハッチ他
  6
CONTINUOUS
 62
    4
 10
1292.3500063786057
 20
409.87073106743605
 40
1.2083333333333581
 50
307.52351320333912
 51
232.47648680464988
  0
ARC
  8
_2-d_ハッチ他
  6
CONTINUOUS
 62
    4
 10
1293.8219665230779
 20
407.95406440083593
 40
1.2083333333333179
 50
127.52351320610693
 51
52.47648680188081
  0
ARC
  8
_2-d_ハッチ他
  6
CONTINUOUS
 62
    4
 10
1286.4621658012354
 20
409.87073106702451
 40
1.2083333333333581
 50
307.52351320333912
 51
232.47648680464988
  0
ARC
  8
_2-d_ハッチ他
  6
CONTINUOUS
 62
    4
 10
1289.4060860899206
 20
409.87073106723142
 40
1.2083333333333581
 50
307.52351320333912
 51
232.47648680464988
  0
ARC
  8
_2-d_ハッチ他
  6
CONTINUOUS
 62
    4
 10
1287.9341259457121
 20
407.95406440042666
 40
1.2083333333333179
 50
127.52351320610693
 51
52.47648680188081
  0
ARC
  8
_2-d_ハッチ他
  6
CONTINUOUS
 62
    4
 10
1290.8780462343973
 20
407.9540644006313
 40
1.2083333333333179
 50
127.52351320610693
 51
52.47648680188081
  0
ARC
  8
_2-d_ハッチ他
  6
CONTINUOUS
 62
    4
 10
1284.990205657027
 20
407.95406440021975
 40
1.2083333333333179
 50
127.52351320610693
 51
52.47648680188081
  0
ARC
  8
_2-d_ハッチ他
  6
CONTINUOUS
 62
    4
 10
1283.5182455125548
 20
409.87073106681987
 40
1.2083333333333581
 50
307.52351320333912
 51
232.47648680464988
  0
ARC
  8
_2-d_ハッチ他
  6
CONTINUOUS
 62
    4
 10
1311.4854882551797
 20
407.95406440145211
 40
1.2083333333333179
 50
127.52351320610693
 51
52.47648680188081
  0
ARC
  8
_2-d_ハッチ他
  6
CONTINUOUS
 62
    4
 10
1310.013528110703
 20
409.87073106805224
 40
1.2083333333333581
 50
307.52351320333912
 51
232.47648680464988
  0
ARC
  8
_2-d_ハッチ他
  6
CONTINUOUS
 62
    4
 10
1336.5088107088557
 20
409.87073106846151
 40
1.2083333333333581
 50
307.52351320333912
 51
232.47648680464988
  0
ARC
  8
_2-d_ハッチ他
  6
CONTINUOUS
 62
    4
 10
1337.9807708533278
 20
407.95406440186139
 40
1.2083333333333179
 50
127.52351320610693
 51
52.47648680188081
  0
ARC
  8
_2-d_ハッチ他
  6
CONTINUOUS
 62
    4
 10
1333.5648904201705
 20
409.87073106825687
 40
1.2083333333333581
 50
307.52351320333912
 51
232.47648680464988
  0
ARC
  8
_2-d_ハッチ他
  6
CONTINUOUS
 62
    4
 10
1335.0368505646472
 20
407.95406440165675
 40
1.2083333333333179
 50
127.52351320610693
 51
52.47648680188081
  0
ARC
  8
_2-d_ハッチ他
  6
CONTINUOUS
 62
    4
 10
1330.6209701314854
 20
409.87073106805224
 40
1.2083333333333581
 50
307.52351320333912
 51
232.47648680464988
  0
ARC
  8
_2-d_ハッチ他
  6
CONTINUOUS
 62
    4
 10
1332.0929302759621
 20
407.95406440145211
 40
1.2083333333333179
 50
127.52351320610693
 51
52.47648680188081
  0
ARC
  8
_2-d_ハッチ他
  6
CONTINUOUS
 62
    4
 10
1327.6770498428048
 20
409.87073106784533
 40
1.2083333333333581
 50
307.52351320333912
 51
232.47648680464988
  0
ARC
  8
_2-d_ハッチ他
  6
CONTINUOUS
 62
    4
 10
1329.1490099872815
 20
407.9540644012452
 40
1.2083333333333179
 50
127.52351320610693
 51
52.47648680188081
  0
ARC
  8
_2-d_ハッチ他
  6
CONTINUOUS
 62
    4
 10
1324.7331295541196
 20
409.87073106764069
 40
1.2083333333333581
 50
307.52351320333912
 51
232.47648680464988
  0
ARC
  8
_2-d_ハッチ他
  6
CONTINUOUS
 62
    4
 10
1326.2050896985963
 20
407.95406440104057
 40
1.2083333333333179
 50
127.52351320610693
 51
52.47648680188081
  0
ARC
  8
_2-d_ハッチ他
  6
CONTINUOUS
 62
    4
 10
1321.7892092654345
 20
409.87073106743605
 40
1.2083333333333581
 50
307.52351320333912
 51
232.47648680464988
  0
ARC
  8
_2-d_ハッチ他
  6
CONTINUOUS
 62
    4
 10
1323.2611694099112
 20
407.95406440083593
 40
1.2083333333333179
 50
127.52351320610693
 51
52.47648680188081
  0
ARC
  8
_2-d_ハッチ他
  6
CONTINUOUS
 62
    4
 10
1315.9013686880687
 20
409.87073106702451
 40
1.2083333333333581
 50
307.52351320333912
 51
232.47648680464988
  0
ARC
  8
_2-d_ハッチ他
  6
CONTINUOUS
 62
    4
 10
1318.8452889767539
 20
409.87073106723142
 40
1.2083333333333581
 50
307.52351320333912
 51
232.47648680464988
  0
ARC
  8
_2-d_ハッチ他
  6
CONTINUOUS
 62
    4
 10
1317.3733288325454
 20
407.95406440042666
 40
1.2083333333333179
 50
127.52351320610693
 51
52.47648680188081
  0
ARC
  8
_2-d_ハッチ他
  6
CONTINUOUS
 62
    4
 10
1320.317249121226
 20
407.9540644006313
 40
1.2083333333333179
 50
127.52351320610693
 51
52.47648680188081
  0
ARC
  8
_2-d_ハッチ他
  6
CONTINUOUS
 62
    4
 10
1314.4294085438603
 20
407.95406440021975
 40
1.2083333333333179
 50
127.52351320610693
 51
52.47648680188081
  0
ARC
  8
_2-d_ハッチ他
  6
CONTINUOUS
 62
    4
 10
1312.9574483993881
 20
409.87073106681987
 40
1.2083333333333581
 50
307.52351320333912
 51
232.47648680464988
  0
ARC
  8
_2-d_ハッチ他
  6
CONTINUOUS
 62
    4
 10
1348.2844918635872
 20
409.87073106743605
 40
1.2083333333333581
 50
307.52351320333912
 51
232.47648680464988
  0
ARC
  8
_2-d_ハッチ他
  6
CONTINUOUS
 62
    4
 10
1342.3966512862214
 20
409.87073106702451
 40
1.2083333333333581
 50
307.52351320333912
 51
232.47648680464988
  0
ARC
  8
_2-d_ハッチ他
  6
CONTINUOUS
 62
    4
 10
1345.3405715749066
 20
409.87073106723142
 40
1.2083333333333581
 50
307.52351320333912
 51
232.47648680464988
  0
ARC
  8
_2-d_ハッチ他
  6
CONTINUOUS
 62
    4
 10
1343.8686114306981
 20
407.95406440042666
 40
1.2083333333333179
 50
127.52351320610693
 51
52.47648680188081
  0
ARC
  8
_2-d_ハッチ他
  6
CONTINUOUS
 62
    4
 10
1346.8125317193787
 20
407.9540644006313
 40
1.2083333333333179
 50
127.52351320610693
 51
52.47648680188081
  0
ARC
  8
_2-d_ハッチ他
  6
CONTINUOUS
 62
    4
 10
1340.924691142013
 20
407.95406440021975
 40
1.2083333333333179
 50
127.52351320610693
 51
52.47648680188081
  0
ARC
  8
_2-d_ハッチ他
  6
CONTINUOUS
 62
    4
 10
1339.4527309975363
 20
409.87073106681987
 40
1.2083333333333581
 50
307.52351320333912
 51
232.47648680464988
  0
ARC
  8
_2-d_ハッチ他
  6
CONTINUOUS
 62
    4
 10
1371.8358541730547
 20
409.87073106846151
 40
1.2083333333333581
 50
307.52351320333912
 51
232.47648680464988
  0
ARC
  8
_2-d_ハッチ他
  6
CONTINUOUS
 62
    4
 10
1373.3078143175314
 20
407.95406440186139
 40
1.2083333333333179
 50
127.52351320610693
 51
52.47648680188081
  0
ARC
  8
_2-d_ハッチ他
  6
CONTINUOUS
 62
    4
 10
1368.8919338843696
 20
409.87073106825687
 40
1.2083333333333581
 50
307.52351320333912
 51
232.47648680464988
  0
ARC
  8
_2-d_ハッチ他
  6
CONTINUOUS
 62
    4
 10
1370.3638940288463
 20
407.95406440165675
 40
1.2083333333333179
 50
127.52351320610693
 51
52.47648680188081
  0
ARC
  8
_2-d_ハッチ他
  6
CONTINUOUS
 62
    4
 10
1365.948013595689
 20
409.87073106805224
 40
1.2083333333333581
 50
307.52351320333912
 51
232.47648680464988
  0
ARC
  8
_2-d_ハッチ他
  6
CONTINUOUS
 62
    4
 10
1367.4199737401657
 20
407.95406440145211
 40
1.2083333333333179
 50
127.52351320610693
 51
52.47648680188081
  0
ARC
  8
_2-d_ハッチ他
  6
CONTINUOUS
 62
    4
 10
1363.0040933070038
 20
409.87073106784533
 40
1.2083333333333581
 50
307.52351320333912
 51
232.47648680464988
  0
ARC
  8
_2-d_ハッチ他
  6
CONTINUOUS
 62
    4
 10
1364.4760534514805
 20
407.9540644012452
 40
1.2083333333333179
 50
127.52351320610693
 51
52.47648680188081
  0
ARC
  8
_2-d_ハッチ他
  6
CONTINUOUS
 62
    4
 10
1360.0601730183232
 20
409.87073106764069
 40
1.2083333333333581
 50
307.52351320333912
 51
232.47648680464988
  0
ARC
  8
_2-d_ハッチ他
  6
CONTINUOUS
 62
    4
 10
1361.5321331627954
 20
407.95406440104057
 40
1.2083333333333179
 50
127.52351320610693
 51
52.47648680188081
  0
ARC
  8
_2-d_ハッチ他
  6
CONTINUOUS
 62
    4
 10
1357.1162527296381
 20
409.87073106743605
 40
1.2083333333333581
 50
307.52351320333912
 51
232.47648680464988
  0
ARC
  8
_2-d_ハッチ他
  6
CONTINUOUS
 62
    4
 10
1358.5882128741148
 20
407.95406440083593
 40
1.2083333333333179
 50
127.52351320610693
 51
52.47648680188081
  0
ARC
  8
_2-d_ハッチ他
  6
CONTINUOUS
 62
    4
 10
1351.2284121522723
 20
409.87073106702451
 40
1.2083333333333581
 50
307.52351320333912
 51
232.47648680464988
  0
ARC
  8
_2-d_ハッチ他
  6
CONTINUOUS
 62
    4
 10
1354.1723324409529
 20
409.87073106723142
 40
1.2083333333333581
 50
307.52351320333912
 51
232.47648680464988
  0
ARC
  8
_2-d_ハッチ他
  6
CONTINUOUS
 62
    4
 10
1352.700372296749
 20
407.95406440042666
 40
1.2083333333333179
 50
127.52351320610693
 51
52.47648680188081
  0
ARC
  8
_2-d_ハッチ他
  6
CONTINUOUS
 62
    4
 10
1355.6442925854296
 20
407.9540644006313
 40
1.2083333333333179
 50
127.52351320610693
 51
52.47648680188081
  0
ARC
  8
_2-d_ハッチ他
  6
CONTINUOUS
 62
    4
 10
1376.251734606212
 20
407.95406440145211
 40
1.2083333333333179
 50
127.52351320610693
 51
52.47648680188081
  0
ARC
  8
_2-d_ハッチ他
  6
CONTINUOUS
 62
    4
 10
1374.7797744617399
 20
409.87073106805224
 40
1.2083333333333581
 50
307.52351320333912
 51
232.47648680464988
  0
ARC
  8
_2-d_ハッチ他
  6
CONTINUOUS
 62
    4
 10
1401.275057059888
 20
409.87073106846151
 40
1.2083333333333581
 50
307.52351320333912
 51
232.47648680464988
  0
ARC
  8
_2-d_ハッチ他
  6
CONTINUOUS
 62
    4
 10
1402.7470172043647
 20
407.95406440186139
 40
1.2083333333333179
 50
127.52351320610693
 51
52.47648680188081
  0
ARC
  8
_2-d_ハッチ他
  6
CONTINUOUS
 62
    4
 10
1398.3311367712029
 20
409.87073106825687
 40
1.2083333333333581
 50
307.52351320333912
 51
232.47648680464988
  0
ARC
  8
_2-d_ハッチ他
  6
CONTINUOUS
 62
    4
 10
1399.8030969156796
 20
407.95406440165675
 40
1.2083333333333179
 50
127.52351320610693
 51
52.47648680188081
  0
ARC
  8
_2-d_ハッチ他
  6
CONTINUOUS
 62
    4
 10
1395.3872164825223
 20
409.87073106805224
 40
1.2083333333333581
 50
307.52351320333912
 51
232.47648680464988
  0
ARC
  8
_2-d_ハッチ他
  6
CONTINUOUS
 62
    4
 10
1396.8591766269944
 20
407.95406440145211
 40
1.2083333333333179
 50
127.52351320610693
 51
52.47648680188081
  0
ARC
  8
_2-d_ハッチ他
  6
CONTINUOUS
 62
    4
 10
1392.4432961938371
 20
409.87073106784533
 40
1.2083333333333581
 50
307.52351320333912
 51
232.47648680464988
  0
ARC
  8
_2-d_ハッチ他
  6
CONTINUOUS
 62
    4
 10
1393.9152563383138
 20
407.9540644012452
 40
1.2083333333333179
 50
127.52351320610693
 51
52.47648680188081
  0
ARC
  8
_2-d_ハッチ他
  6
CONTINUOUS
 62
    4
 10
1389.499375905152
 20
409.87073106764069
 40
1.2083333333333581
 50
307.52351320333912
 51
232.47648680464988
  0
ARC
  8
_2-d_ハッチ他
  6
CONTINUOUS
 62
    4
 10
1390.9713360496287
 20
407.95406440104057
 40
1.2083333333333179
 50
127.52351320610693
 51
52.47648680188081
  0
ARC
  8
_2-d_ハッチ他
  6
CONTINUOUS
 62
    4
 10
1386.5554556164714
 20
409.87073106743605
 40
1.2083333333333581
 50
307.52351320333912
 51
232.47648680464988
  0
ARC
  8
_2-d_ハッチ他
  6
CONTINUOUS
 62
    4
 10
1388.0274157609481
 20
407.95406440083593
 40
1.2083333333333179
 50
127.52351320610693
 51
52.47648680188081
  0
ARC
  8
_2-d_ハッチ他
  6
CONTINUOUS
 62
    4
 10
1380.6676150391056
 20
409.87073106702451
 40
1.2083333333333581
 50
307.52351320333912
 51
232.47648680464988
  0
ARC
  8
_2-d_ハッチ他
  6
CONTINUOUS
 62
    4
 10
1383.6115353277862
 20
409.87073106723142
 40
1.2083333333333581
 50
307.52351320333912
 51
232.47648680464988
  0
ARC
  8
_2-d_ハッチ他
  6
CONTINUOUS
 62
    4
 10
1382.1395751835778
 20
407.95406440042666
 40
1.2083333333333179
 50
127.52351320610693
 51
52.47648680188081
  0
ARC
  8
_2-d_ハッチ他
  6
CONTINUOUS
 62
    4
 10
1385.0834954722629
 20
407.9540644006313
 40
1.2083333333333179
 50
127.52351320610693
 51
52.47648680188081
  0
ARC
  8
_2-d_ハッチ他
  6
CONTINUOUS
 62
    4
 10
1379.1956548948972
 20
407.95406440021975
 40
1.2083333333333179
 50
127.52351320610693
 51
52.47648680188081
  0
ARC
  8
_2-d_ハッチ他
  6
CONTINUOUS
 62
    4
 10
1377.7236947504205
 20
409.87073106681987
 40
1.2083333333333581
 50
307.52351320333912
 51
232.47648680464988
  0
ARC
  8
_2-d_ハッチ他
  6
CONTINUOUS
 62
    4
 10
1413.0507382146195
 20
409.87073106743605
 40
1.2083333333333581
 50
307.52351320333912
 51
232.47648680464988
  0
ARC
  8
_2-d_ハッチ他
  6
CONTINUOUS
 62
    4
 10
1407.1628976372538
 20
409.87073106702451
 40
1.2083333333333581
 50
307.52351320333912
 51
232.47648680464988
  0
ARC
  8
_2-d_ハッチ他
  6
CONTINUOUS
 62
    4
 10
1410.1068179259389
 20
409.87073106723142
 40
1.2083333333333581
 50
307.52351320333912
 51
232.47648680464988
  0
ARC
  8
_2-d_ハッチ他
  6
CONTINUOUS
 62
    4
 10
1408.6348577817305
 20
407.95406440042666
 40
1.2083333333333179
 50
127.52351320610693
 51
52.47648680188081
  0
ARC
  8
_2-d_ハッチ他
  6
CONTINUOUS
 62
    4
 10
1411.5787780704111
 20
407.9540644006313
 40
1.2083333333333179
 50
127.52351320610693
 51
52.47648680188081
  0
ARC
  8
_2-d_ハッチ他
  6
CONTINUOUS
 62
    4
 10
1405.6909374930453
 20
407.95406440021975
 40
1.2083333333333179
 50
127.52351320610693
 51
52.47648680188081
  0
ARC
  8
_2-d_ハッチ他
  6
CONTINUOUS
 62
    4
 10
1404.2189773485732
 20
409.87073106681987
 40
1.2083333333333581
 50
307.52351320333912
 51
232.47648680464988
  0
ARC
  8
_2-d_ハッチ他
  6
CONTINUOUS
 62
    4
 10
1349.7564520080639
 20
407.95406440021975
 40
1.2083333333333179
 50
127.52351320610693
 51
52.47648680188081
  0
ARC
  8
_2-d_ハッチ他
  6
CONTINUOUS
 62
    4
 10
1421.8824990806704
 20
409.87073106743605
 40
1.2083333333333581
 50
307.52351320333912
 51
232.47648680464988
  0
ARC
  8
_2-d_ハッチ他
  6
CONTINUOUS
 62
    4
 10
1423.3544592251471
 20
407.95406440083593
 40
1.2083333333333179
 50
127.52351320610693
 51
52.47648680188081
  0
ARC
  8
_2-d_ハッチ他
  6
CONTINUOUS
 62
    4
 10
1415.9946585033047
 20
409.87073106702451
 40
1.2083333333333581
 50
307.52351320333912
 51
232.47648680464988
  0
ARC
  8
_2-d_ハッチ他
  6
CONTINUOUS
 62
    4
 10
1418.9385787919898
 20
409.87073106723142
 40
1.2083333333333581
 50
307.52351320333912
 51
232.47648680464988
  0
ARC
  8
_2-d_ハッチ他
  6
CONTINUOUS
 62
    4
 10
1417.4666186477814
 20
407.95406440042666
 40
1.2083333333333179
 50
127.52351320610693
 51
52.47648680188081
  0
ARC
  8
_2-d_ハッチ他
  6
CONTINUOUS
 62
    4
 10
1420.410538936462
 20
407.9540644006313
 40
1.2083333333333179
 50
127.52351320610693
 51
52.47648680188081
  0
ARC
  8
_2-d_ハッチ他
  6
CONTINUOUS
 62
    4
 10
1414.5226983590962
 20
407.95406440021975
 40
1.2083333333333179
 50
127.52351320610693
 51
52.47648680188081
  0
ARC
  8
_2-d_ハッチ他
  6
CONTINUOUS
 62
    4
 10
995.01405722158756
 20
409.87073106805224
 40
1.2083333333333581
 50
59.648199512617587
 51
232.47648680464988
  0
ARC
  8
_2-d_ハッチ他
  6
CONTINUOUS
 62
    4
 10
1046.5326622736754
 20
407.95406440104057
 40
1.2083333333333179
 50
221.2822476065254
 51
52.476486801880824
  0
LINE
  8
_2-4_out_line
  6
CONTINUOUS
 62
    2
 10
1156.2496377264004
 20
416.41239772936228
 11
1156.2496377264004
 21
421.41239772936228
  0
LINE
  8
_2-4_out_line
  6
CONTINUOUS
 62
    2
 10
1118.6246377264022
 20
421.41239772936228
 11
1156.2496377264004
 21
421.41239772936228
  0
LINE
  8
_2-4_out_line
  6
CONTINUOUS
 62
    2
 10
1156.2496377264004
 20
416.41239772936228
 11
1424.1624609291191
 21
416.41239772936228
  0
LINE
  8
_2-8_drain他
  6
CONTINUOUS
 62
    7
 10
1150.2525056594684
 20
421.41239772936228
 11
1150.2707244469909
 21
421.54330267604405
  0
LINE
  8
_2-8_drain他
  6
CONTINUOUS
 62
    7
 10
1150.2707244469909
 20
421.54330267604405
 11
1150.3037912266516
 21
421.76837661106288
  0
LINE
  8
_2-8_drain他
  6
CONTINUOUS
 62
    7
 10
1150.3037912266516
 20
421.76837661106288
 11
1150.3414554425169
 21
421.99171652132077
  0
LINE
  8
_2-8_drain他
  6
CONTINUOUS
 62
    7
 10
1150.3414554425169
 20
421.99171652132077
 11
1150.3866268643421
 21
422.21222492279207
  0
LINE
  8
_2-8_drain他
  6
CONTINUOUS
 62
    7
 10
1150.3866268643421
 20
422.21222492279207
 11
1150.4422152618733
 21
422.42880433145115
  0
LINE
  8
_2-8_drain他
  6
CONTINUOUS
 62
    7
 10
1150.4422152618733
 20
422.42880433145115
 11
1150.5111304048612
 21
422.64035726327006
  0
LINE
  8
_2-8_drain他
  6
CONTINUOUS
 62
    7
 10
1150.5111304048612
 20
422.64035726327006
 11
1150.5583541031544
 21
422.76032236626247
  0
LINE
  8
_2-8_drain他
  6
CONTINUOUS
 62
    7
 10
1150.5583541031544
 20
422.76032236626247
 11
1150.5992951644155
 21
422.85243920585185
  0
LINE
  8
_2-8_drain他
  6
CONTINUOUS
 62
    7
 10
1150.5992951644155
 20
422.85243920585185
 11
1150.6777103370994
 21
423.00815350886592
  0
LINE
  8
_2-8_drain他
  6
CONTINUOUS
 62
    7
 10
1150.6777103370994
 20
423.00815350886592
 11
1150.7648173514233
 21
423.16015711174555
  0
LINE
  8
_2-8_drain他
  6
CONTINUOUS
 62
    7
 10
1150.7648173514233
 20
423.16015711174555
 11
1150.8592023405752
 21
423.30870962754557
  0
LINE
  8
_2-8_drain他
  6
CONTINUOUS
 62
    7
 10
1150.8592023405752
 20
423.30870962754557
 11
1150.9594514377156
 21
423.45407066931853
  0
LINE
  8
_2-8_drain他
  6
CONTINUOUS
 62
    7
 10
1150.9594514377156
 20
423.45407066931853
 11
1151.0641507760326
 21
423.5964998501147
  0
LINE
  8
_2-8_drain他
  6
CONTINUOUS
 62
    7
 10
1151.0641507760326
 20
423.5964998501147
 11
1151.1263583557136
 21
423.67786769731833
  0
LINE
  8
_2-8_drain他
  6
CONTINUOUS
 62
    7
 10
1151.1263583557136
 20
423.67786769731833
 11
1151.200574629647
 21
423.77255129012224
  0
LINE
  8
_2-8_drain他
  6
CONTINUOUS
 62
    7
 10
1151.200574629647
 20
423.77255129012224
 11
1151.3307995697503
 21
423.93327008398342
  0
LINE
  8
_2-8_drain他
  6
CONTINUOUS
 62
    7
 10
1151.3307995697503
 20
423.93327008398342
 11
1151.4636513889716
 21
424.09113684637373
  0
LINE
  8
_2-8_drain他
  6
CONTINUOUS
 62
    7
 10
1151.4636513889716
 20
424.09113684637373
 11
1151.5988495270992
 21
424.24655733983923
  0
LINE
  8
_2-8_drain他
  6
CONTINUOUS
 62
    7
 10
1151.5988495270992
 20
424.24655733983923
 11
1151.7361134239261
 21
424.39993732692824
  0
LINE
  8
_2-8_drain他
  6
CONTINUOUS
 62
    7
 10
1151.7361134239261
 20
424.39993732692824
 11
1151.8751625192315
 21
424.55168257018227
  0
LINE
  8
_2-8_drain他
  6
CONTINUOUS
 62
    7
 10
1151.8751625192315
 20
424.55168257018227
 11
1151.9565184171458
 21
424.63910566318941
  0
LINE
  8
_2-8_drain他
  6
CONTINUOUS
 62
    7
 10
1151.9565184171458
 20
424.63910566318941
 11
1152.0421534905606
 21
424.73017583758815
  0
LINE
  8
_2-8_drain他
  6
CONTINUOUS
 62
    7
 10
1152.0421534905606
 20
424.73017583758815
 11
1152.1913508488658
 21
424.88587758642166
  0
LINE
  8
_2-8_drain他
  6
CONTINUOUS
 62
    7
 10
1152.1913508488658
 20
424.88587758642166
 11
1152.3431010624379
 21
425.03922356482076
  0
LINE
  8
_2-8_drain他
  6
CONTINUOUS
 62
    7
 10
1152.3431010624379
 20
425.03922356482076
 11
1152.4980901419392
 21
425.18941120374006
  0
LINE
  8
_2-8_drain他
  6
CONTINUOUS
 62
    7
 10
1152.4980901419392
 20
425.18941120374006
 11
1152.6570040980457
 21
425.33563793413873
  0
LINE
  8
_2-8_drain他
  6
CONTINUOUS
 62
    7
 10
1152.6570040980457
 20
425.33563793413873
 11
1152.8205289414288
 21
425.47710118696682
  0
LINE
  8
_2-8_drain他
  6
CONTINUOUS
 62
    7
 10
1152.8205289414288
 20
425.47710118696682
 11
1152.9177563830169
 21
425.55665099424755
  0
LINE
  8
_2-8_drain他
  6
CONTINUOUS
 62
    7
 10
1152.9177563830169
 20
425.55665099424755
 11
1153.0054100825598
 21
425.62537634674368
  0
LINE
  8
_2-8_drain他
  6
CONTINUOUS
 62
    7
 10
1153.0054100825598
 20
425.62537634674368
 11
1153.1600231824766
 21
425.73958911454451
  0
LINE
  8
_2-8_drain他
  6
CONTINUOUS
 62
    7
 10
1153.1600231824766
 20
425.73958911454451
 11
1153.318988325668
 21
425.84756180347381
  0
LINE
  8
_2-8_drain他
  6
CONTINUOUS
 62
    7
 10
1153.318988325668
 20
425.84756180347381
 11
1153.4822349828935
 21
425.94833703490008
  0
LINE
  8
_2-8_drain他
  6
CONTINUOUS
 62
    7
 10
1153.4822349828935
 20
425.94833703490008
 11
1153.6496926249263
 21
426.04095743018729
  0
LINE
  8
_2-8_drain他
  6
CONTINUOUS
 62
    7
 10
1153.6496926249263
 20
426.04095743018729
 11
1153.8212907225304
 21
426.12446561069714
  0
LINE
  8
_2-8_drain他
  6
CONTINUOUS
 62
    7
 10
1153.8212907225304
 20
426.12446561069714
 11
1153.9226869836964
 21
426.16834788161964
  0
LINE
  8
_2-8_drain他
  6
CONTINUOUS
 62
    7
 10
1153.9226869836964
 20
426.16834788161964
 11
1154.0365924764362
 21
426.21287659488257
  0
LINE
  8
_2-8_drain他
  6
CONTINUOUS
 62
    7
 10
1154.0365924764362
 20
426.21287659488257
 11
1154.2364809342914
 21
426.28018722329512
  0
LINE
  8
_2-8_drain他
  6
CONTINUOUS
 62
    7
 10
1154.2364809342914
 20
426.28018722329512
 11
1154.4401830331478
 21
426.33679077479496
  0
LINE
  8
_2-8_drain他
  6
CONTINUOUS
 62
    7
 10
1154.4401830331478
 20
426.33679077479496
 11
1154.646982109957
 21
426.38416564852446
  0
LINE
  8
_2-8_drain他
  6
CONTINUOUS
 62
    7
 10
1154.646982109957
 20
426.38416564852446
 11
1154.8561615016658
 21
426.42379024363504
  0
LINE
  8
_2-8_drain他
  6
CONTINUOUS
 62
    7
 10
1154.8561615016658
 20
426.42379024363504
 11
1155.0670045452214
 21
426.45714295926905
  0
LINE
  8
_2-8_drain他
  6
CONTINUOUS
 62
    7
 10
1155.0670045452214
 20
426.45714295926905
 11
1155.1897733932535
 21
426.47419632530341
  0
LINE
  8
_2-8_drain他
  6
CONTINUOUS
 62
    7
 10
1155.1897733932535
 20
426.47419632530341
 11
1155.3382303633359
 21
426.49291332457165
  0
LINE
  8
_2-8_drain他
  6
CONTINUOUS
 62
    7
 10
1155.3382303633359
 20
426.49291332457165
 11
1155.5945506286205
 21
426.51982008566006
  0
LINE
  8
_2-8_drain他
  6
CONTINUOUS
 62
    7
 10
1155.5945506286205
 20
426.51982008566006
 11
1155.850945957204
 21
426.53867833295931
  0
LINE
  8
_2-8_drain他
  6
CONTINUOUS
 62
    7
 10
1155.850945957204
 20
426.53867833295931
 11
1156.1069737938349
 21
426.54802442414689
  0
LINE
  8
_2-8_drain他
  6
CONTINUOUS
 62
    7
 10
1156.1069737938349
 20
426.54802442414689
 11
1156.3621915832662
 21
426.54639471690029
  0
LINE
  8
_2-8_drain他
  6
CONTINUOUS
 62
    7
 10
1156.3621915832662
 20
426.54639471690029
 11
1156.61615677026
 21
426.53232556889702
  0
LINE
  8
_2-8_drain他
  6
CONTINUOUS
 62
    7
 10
1156.61615677026
 20
426.53232556889702
 11
1156.7627082464967
 21
426.51788896011635
  0
LINE
  8
_2-8_drain他
  6
CONTINUOUS
 62
    7
 10
1156.7627082464967
 20
426.51788896011635
 11
1156.8700524380617
 21
426.5041991740311
  0
LINE
  8
_2-8_drain他
  6
CONTINUOUS
 62
    7
 10
1156.8700524380617
 20
426.5041991740311
 11
1157.0545024988312
 21
426.47523954279063
  0
LINE
  8
_2-8_drain他
  6
CONTINUOUS
 62
    7
 10
1157.0545024988312
 20
426.47523954279063
 11
1157.2384733562737
 21
426.44092406125151
  0
LINE
  8
_2-8_drain他
  6
CONTINUOUS
 62
    7
 10
1157.2384733562737
 20
426.44092406125151
 11
1157.4223293921293
 21
426.40290923522412
  0
LINE
  8
_2-8_drain他
  6
CONTINUOUS
 62
    7
 10
1157.4223293921293
 20
426.40290923522412
 11
1157.6064349881515
 21
426.36285157051884
  0
LINE
  8
_2-8_drain他
  6
CONTINUOUS
 62
    7
 10
1157.6064349881515
 20
426.36285157051884
 11
1157.7911545260802
 21
426.32240757294153
  0
LINE
  8
_2-8_drain他
  6
CONTINUOUS
 62
    7
 10
1157.7911545260802
 20
426.32240757294153
 11
1157.898716751615
 21
426.29942578605619
  0
LINE
  8
_2-8_drain他
  6
CONTINUOUS
 62
    7
 10
1157.898716751615
 20
426.29942578605619
 11
1158.020827982941
 21
426.27415206455748
  0
LINE
  8
_2-8_drain他
  6
CONTINUOUS
 62
    7
 10
1158.020827982941
 20
426.27415206455748
 11
1158.2316260065043
 21
426.23080254832144
  0
LINE
  8
_2-8_drain他
  6
CONTINUOUS
 62
    7
 10
1158.2316260065043
 20
426.23080254832144
 11
1158.441331230342
 21
426.18466939017321
  0
LINE
  8
_2-8_drain他
  6
CONTINUOUS
 62
    7
 10
1158.441331230342
 20
426.18466939017321
 11
1158.6482881796107
 21
426.13218334847102
  0
LINE
  8
_2-8_drain他
  6
CONTINUOUS
 62
    7
 10
1158.6482881796107
 20
426.13218334847102
 11
1158.8508413794668
 21
426.06977518157078
  0
LINE
  8
_2-8_drain他
  6
CONTINUOUS
 62
    7
 10
1158.8508413794668
 20
426.06977518157078
 11
1159.0473353550667
 21
425.99387564783751
  0
LINE
  8
_2-8_drain他
  6
CONTINUOUS
 62
    7
 10
1159.0473353550667
 20
425.99387564783751
 11
1159.157873181184
 21
425.9422657071816
  0
LINE
  8
_2-8_drain他
  6
CONTINUOUS
 62
    7
 10
1159.157873181184
 20
425.9422657071816
 11
1159.2571954123648
 21
425.88918023525662
  0
LINE
  8
_2-8_drain他
  6
CONTINUOUS
 62
    7
 10
1159.2571954123648
 20
425.88918023525662
 11
1159.422619327556
 21
425.78589395415815
  0
LINE
  8
_2-8_drain他
  6
CONTINUOUS
 62
    7
 10
1159.422619327556
 20
425.78589395415815
 11
1159.5806708989128
 21
425.66934432242601
  0
LINE
  8
_2-8_drain他
  6
CONTINUOUS
 62
    7
 10
1159.5806708989128
 20
425.66934432242601
 11
1159.7313459453333
 21
425.54141764911105
  0
LINE
  8
_2-8_drain他
  6
CONTINUOUS
 62
    7
 10
1159.7313459453333
 20
425.54141764911105
 11
1159.8746402856975
 21
425.40400024326414
  0
LINE
  8
_2-8_drain他
  6
CONTINUOUS
 62
    7
 10
1159.8746402856975
 20
425.40400024326414
 11
1160.0105497389038
 21
425.25897841393612
  0
LINE
  8
_2-8_drain他
  6
CONTINUOUS
 62
    7
 10
1160.0105497389038
 20
425.25897841393612
 11
1160.0859918188869
 21
425.17212470993923
  0
LINE
  8
_2-8_drain他
  6
CONTINUOUS
 62
    7
 10
1160.0859918188869
 20
425.17212470993923
 11
1160.1702868432583
 21
425.06955732194751
  0
LINE
  8
_2-8_drain他
  6
CONTINUOUS
 62
    7
 10
1160.1702868432583
 20
425.06955732194751
 11
1160.3084587025294
 21
424.88827231221035
  0
LINE
  8
_2-8_drain他
  6
CONTINUOUS
 62
    7
 10
1160.3084587025294
 20
424.88827231221035
 11
1160.438568969548
 21
424.70204763759125
  0
LINE
  8
_2-8_drain他
  6
CONTINUOUS
 62
    7
 10
1160.438568969548
 20
424.70204763759125
 11
1160.5617888715321
 21
424.51168157650113
  0
LINE
  8
_2-8_drain他
  6
CONTINUOUS
 62
    7
 10
1160.5617888715321
 20
424.51168157650113
 11
1160.6792896357044
 21
424.31797240735773
  0
LINE
  8
_2-8_drain他
  6
CONTINUOUS
 62
    7
 10
1160.6792896357044
 20
424.31797240735773
 11
1160.7922424892738
 21
424.12171840857422
  0
LINE
  8
_2-8_drain他
  6
CONTINUOUS
 62
    7
 10
1160.7922424892738
 20
424.12171840857422
 11
1160.8561328161293
 21
424.00703961154545
  0
LINE
  8
_2-8_drain他
  6
CONTINUOUS
 62
    7
 10
1160.8561328161293
 20
424.00703961154545
 11
1160.9234001836373
 21
423.88397301940881
  0
LINE
  8
_2-8_drain他
  6
CONTINUOUS
 62
    7
 10
1160.9234001836373
 20
423.88397301940881
 11
1161.0373814248439
 21
423.67076626304038
  0
LINE
  8
_2-8_drain他
  6
CONTINUOUS
 62
    7
 10
1161.0373814248439
 20
423.67076626304038
 11
1161.1494959732088
 21
423.45646926350423
  0
LINE
  8
_2-8_drain他
  6
CONTINUOUS
 62
    7
 10
1161.1494959732088
 20
423.45646926350423
 11
1161.2605125824573
 21
423.24132000243094
  0
LINE
  8
_2-8_drain他
  6
CONTINUOUS
 62
    7
 10
1161.2605125824573
 20
423.24132000243094
 11
1161.3712000063149
 21
423.02555646144879
  0
LINE
  8
_2-8_drain他
  6
CONTINUOUS
 62
    7
 10
1161.3712000063149
 20
423.02555646144879
 11
1161.4823269985116
 21
422.80941662219288
  0
LINE
  8
_2-8_drain他
  6
CONTINUOUS
 62
    7
 10
1161.4823269985116
 20
422.80941662219288
 11
1161.5472849931436
 21
422.68397687269339
  0
LINE
  8
_2-8_drain他
  6
CONTINUOUS
 62
    7
 10
1161.5472849931436
 20
422.68397687269339
 11
1161.6356984473211
 21
422.51514868968638
  0
LINE
  8
_2-8_drain他
  6
CONTINUOUS
 62
    7
 10
1161.6356984473211
 20
422.51514868968638
 11
1161.7922032632484
 21
422.22575292379884
  0
LINE
  8
_2-8_drain他
  6
CONTINUOUS
 62
    7
 10
1161.7922032632484
 20
422.22575292379884
 11
1161.9564248564755
 21
421.94104474754863
  0
LINE
  8
_2-8_drain他
  6
CONTINUOUS
 62
    7
 10
1161.9564248564755
 20
421.94104474754863
 11
1162.1313488438634
 21
421.66399131952926
  0
LINE
  8
_2-8_drain他
  6
CONTINUOUS
 62
    7
 10
1162.1313488438634
 20
421.66399131952926
 11
1162.3199608422644
 21
421.39755979834331
  0
LINE
  8
_2-8_drain他
  6
CONTINUOUS
 62
    7
 10
1162.3199608422644
 20
421.39755979834331
 11
1162.5252464685398
 21
421.14471734258655
  0
LINE
  8
_2-8_drain他
  6
CONTINUOUS
 62
    7
 10
1162.5252464685398
 20
421.14471734258655
 11
1162.653128476363
 21
421.00546444280621
  0
LINE
  8
_2-8_drain他
  6
CONTINUOUS
 62
    7
 10
1162.653128476363
 20
421.00546444280621
 11
1162.6993436486689
 21
420.95835943689576
  0
LINE
  8
_2-8_drain他
  6
CONTINUOUS
 62
    7
 10
1162.6993436486689
 20
420.95835943689576
 11
1162.7810429102099
 21
420.87901434186119
  0
LINE
  8
_2-8_drain他
  6
CONTINUOUS
 62
    7
 10
1162.7810429102099
 20
420.87901434186119
 11
1162.8652453025413
 21
420.80221423241778
  0
LINE
  8
_2-8_drain他
  6
CONTINUOUS
 62
    7
 10
1162.8652453025413
 20
420.80221423241778
 11
1162.9518912780347
 21
420.72816532909269
  0
LINE
  8
_2-8_drain他
  6
CONTINUOUS
 62
    7
 10
1162.9518912780347
 20
420.72816532909269
 11
1163.0409212890706
 21
420.65707385240171
  0
LINE
  8
_2-8_drain他
  6
CONTINUOUS
 62
    7
 10
1163.0409212890706
 20
420.65707385240171
 11
1163.1322757880205
 21
420.589146022872
  0
LINE
  8
_2-8_drain他
  6
CONTINUOUS
 62
    7
 10
1163.1322757880205
 20
420.589146022872
 11
1163.1863030129168
 21
420.55127872648268
  0
LINE
  8
_2-8_drain他
  6
CONTINUOUS
 62
    7
 10
1163.1863030129168
 20
420.55127872648268
 11
1163.2759044240036
 21
420.49198603610489
  0
LINE
  8
_2-8_drain他
  6
CONTINUOUS
 62
    7
 10
1163.2759044240036
 20
420.49198603610489
 11
1163.4340958681739
 21
420.3955727719092
  0
LINE
  8
_2-8_drain他
  6
CONTINUOUS
 62
    7
 10
1163.4340958681739
 20
420.3955727719092
 11
1163.5955071552096
 21
420.30424436283806
  0
LINE
  8
_2-8_drain他
  6
CONTINUOUS
 62
    7
 10
1163.5955071552096
 20
420.30424436283806
 11
1163.7584271035028
 21
420.21535365438763
  0
LINE
  8
_2-8_drain他
  6
CONTINUOUS
 62
    7
 10
1163.7584271035028
 20
420.21535365438763
 11
1163.9211445314547
 21
420.12625349205177
  0
LINE
  8
_2-8_drain他
  6
CONTINUOUS
 62
    7
 10
1163.9211445314547
 20
420.12625349205177
 11
1164.0819482574668
 21
420.03429672132665
  0
LINE
  8
_2-8_drain他
  6
CONTINUOUS
 62
    7
 10
1164.0819482574668
 20
420.03429672132665
 11
1164.1736632657919
 21
419.97860977981486
  0
LINE
  8
_2-8_drain他
  6
CONTINUOUS
 62
    7
 10
1164.1736632657919
 20
419.97860977981486
 11
1164.2660742581891
 21
419.91924500994241
  0
LINE
  8
_2-8_drain他
  6
CONTINUOUS
 62
    7
 10
1164.2660742581891
 20
419.91924500994241
 11
1164.4220172603443
 21
419.81174324817471
  0
LINE
  8
_2-8_drain他
  6
CONTINUOUS
 62
    7
 10
1164.4220172603443
 20
419.81174324817471
 11
1164.5743398025659
 21
419.6987600582072
  0
LINE
  8
_2-8_drain他
  6
CONTINUOUS
 62
    7
 10
1164.5743398025659
 20
419.6987600582072
 11
1164.7238162913025
 21
419.58150000581168
  0
LINE
  8
_2-8_drain他
  6
CONTINUOUS
 62
    7
 10
1164.7238162913025
 20
419.58150000581168
 11
1164.8712211329937
 21
419.46116765676447
  0
LINE
  8
_2-8_drain他
  6
CONTINUOUS
 62
    7
 10
1164.8712211329937
 20
419.46116765676447
 11
1165.0173287340929
 21
419.33896757683738
  0
LINE
  8
_2-8_drain他
  6
CONTINUOUS
 62
    7
 10
1165.0173287340929
 20
419.33896757683738
 11
1165.1017819034948
 21
419.26771039774462
  0
LINE
  8
_2-8_drain他
  6
CONTINUOUS
 62
    7
 10
1165.1017819034948
 20
419.26771039774462
 11
1165.2076237671142
 21
419.17822981384529
  0
LINE
  8
_2-8_drain他
  6
CONTINUOUS
 62
    7
 10
1165.2076237671142
 20
419.17822981384529
 11
1165.3891965454202
 21
419.02314676004903
  0
LINE
  8
_2-8_drain他
  6
CONTINUOUS
 62
    7
 10
1165.3891965454202
 20
419.02314676004903
 11
1165.5683711980462
 21
418.86575759180755
  0
LINE
  8
_2-8_drain他
  6
CONTINUOUS
 62
    7
 10
1165.5683711980462
 20
418.86575759180755
 11
1165.7437033242738
 21
418.70456739388214
  0
LINE
  8
_2-8_drain他
  6
CONTINUOUS
 62
    7
 10
1165.7437033242738
 20
418.70456739388214
 11
1165.9137485233803
 21
418.53808125103183
  0
LINE
  8
_2-8_drain他
  6
CONTINUOUS
 62
    7
 10
1165.9137485233803
 20
418.53808125103183
 11
1166.0770623946607
 21
418.36480424802244
  0
LINE
  8
_2-8_drain他
  6
CONTINUOUS
 62
    7
 10
1166.0770623946607
 20
418.36480424802244
 11
1166.1681309765979
 21
418.26060293981141
  0
LINE
  8
_2-8_drain他
  6
CONTINUOUS
 62
    7
 10
1166.1681309765979
 20
418.26060293981141
 11
1166.2197902492378
 21
418.1985156642902
  0
LINE
  8
_2-8_drain他
  6
CONTINUOUS
 62
    7
 10
1166.2197902492378
 20
418.1985156642902
 11
1166.3061153595434
 21
418.08904292445118
  0
LINE
  8
_2-8_drain他
  6
CONTINUOUS
 62
    7
 10
1166.3061153595434
 20
418.08904292445118
 11
1166.3884752316742
 21
417.97654166669258
  0
LINE
  8
_2-8_drain他
  6
CONTINUOUS
 62
    7
 10
1166.3884752316742
 20
417.97654166669258
 11
1166.4662959224186
 21
417.86106073398128
  0
LINE
  8
_2-8_drain他
  6
CONTINUOUS
 62
    7
 10
1166.4662959224186
 20
417.86106073398128
 11
1166.5390034885647
 21
417.74264896928867
  0
LINE
  8
_2-8_drain他
  6
CONTINUOUS
 62
    7
 10
1166.5390034885647
 20
417.74264896928867
 11
1166.6060239868918
 21
417.62135521558389
  0
LINE
  8
_2-8_drain他
  6
CONTINUOUS
 62
    7
 10
1166.6060239868918
 20
417.62135521558389
 11
1166.6420638979796
 21
417.54970355774344
  0
LINE
  8
_2-8_drain他
  6
CONTINUOUS
 62
    7
 10
1166.6420638979796
 20
417.54970355774344
 11
1166.6887157513381
 21
417.44822766669199
  0
LINE
  8
_2-8_drain他
  6
CONTINUOUS
 62
    7
 10
1166.6887157513381
 20
417.44822766669199
 11
1166.7602025096901
 21
417.26946328764211
  0
LINE
  8
_2-8_drain他
  6
CONTINUOUS
 62
    7
 10
1166.7602025096901
 20
417.26946328764211
 11
1166.822153848311
 21
417.08664286949283
  0
LINE
  8
_2-8_drain他
  6
CONTINUOUS
 62
    7
 10
1166.822153848311
 20
417.08664286949283
 11
1166.8766517365791
 21
416.90065201030234
  0
LINE
  8
_2-8_drain他
  6
CONTINUOUS
 62
    7
 10
1166.8766517365791
 20
416.90065201030234
 11
1166.925778143868
 21
416.7123763081288
  0
LINE
  8
_2-8_drain他
  6
CONTINUOUS
 62
    7
 10
1166.925778143868
 20
416.7123763081288
 11
1166.9716150395468
 21
416.52270136102356
  0
LINE
  8
_2-8_drain他
  6
CONTINUOUS
 62
    7
 10
1166.9716150395468
 20
416.52270136102356
 11
1166.9975135890124
 21
416.41239772936228
  0
LINE
  8
_2-4_out_line
  6
CONTINUOUS
 62
    2
 10
922.62463772640308
 20
421.41239772936228
 11
884.99963772640035
 21
421.41239772936228
  0
LINE
  8
_2-8_drain他
  6
CONTINUOUS
 62
    7
 10
890.99676979333685
 20
421.41239772936228
 11
890.97855100580978
 21
421.54330267604405
  0
LINE
  8
_2-8_drain他
  6
CONTINUOUS
 62
    7
 10
890.97855100580978
 20
421.54330267604405
 11
890.94548422614912
 21
421.76837661106288
  0
LINE
  8
_2-8_drain他
  6
CONTINUOUS
 62
    7
 10
890.94548422614912
 20
421.76837661106288
 11
890.90782001028379
 21
421.99171652132077
  0
LINE
  8
_2-8_drain他
  6
CONTINUOUS
 62
    7
 10
890.90782001028379
 20
421.99171652132077
 11
890.86264858846312
 21
422.21222492279207
  0
LINE
  8
_2-8_drain他
  6
CONTINUOUS
 62
    7
 10
890.86264858846312
 20
422.21222492279207
 11
890.80706019093191
 21
422.42880433145115
  0
LINE
  8
_2-8_drain他
  6
CONTINUOUS
 62
    7
 10
890.80706019093191
 20
422.42880433145115
 11
890.7381450479395
 21
422.64035726327006
  0
LINE
  8
_2-8_drain他
  6
CONTINUOUS
 62
    7
 10
890.7381450479395
 20
422.64035726327006
 11
890.69092134965081
 21
422.76032236626247
  0
LINE
  8
_2-8_drain他
  6
CONTINUOUS
 62
    7
 10
890.69092134965081
 20
422.76032236626247
 11
890.64998028838522
 21
422.85243920585185
  0
LINE
  8
_2-8_drain他
  6
CONTINUOUS
 62
    7
 10
890.64998028838522
 20
422.85243920585185
 11
890.57156511570133
 21
423.00815350886592
  0
LINE
  8
_2-8_drain他
  6
CONTINUOUS
 62
    7
 10
890.57156511570133
 20
423.00815350886592
 11
890.48445810137741
 21
423.16015711174555
  0
LINE
  8
_2-8_drain他
  6
CONTINUOUS
 62
    7
 10
890.48445810137741
 20
423.16015711174555
 11
890.39007311223008
 21
423.30870962754557
  0
LINE
  8
_2-8_drain他
  6
CONTINUOUS
 62
    7
 10
890.39007311223008
 20
423.30870962754557
 11
890.28982401508506
 21
423.45407066931853
  0
LINE
  8
_2-8_drain他
  6
CONTINUOUS
 62
    7
 10
890.28982401508506
 20
423.45407066931853
 11
890.18512467676805
 21
423.5964998501147
  0
LINE
  8
_2-8_drain他
  6
CONTINUOUS
 62
    7
 10
890.18512467676805
 20
423.5964998501147
 11
890.12291709708711
 21
423.67786769731833
  0
LINE
  8
_2-8_drain他
  6
CONTINUOUS
 62
    7
 10
890.12291709708711
 20
423.67786769731833
 11
890.04870082315369
 21
423.77255129012224
  0
LINE
  8
_2-8_drain他
  6
CONTINUOUS
 62
    7
 10
890.04870082315369
 20
423.77255129012224
 11
889.91847588305041
 21
423.93327008398342
  0
LINE
  8
_2-8_drain他
  6
CONTINUOUS
 62
    7
 10
889.91847588305041
 20
423.93327008398342
 11
889.78562406382912
 21
424.09113684637373
  0
LINE
  8
_2-8_drain他
  6
CONTINUOUS
 62
    7
 10
889.78562406382912
 20
424.09113684637373
 11
889.65042592570148
 21
424.24655733983923
  0
LINE
  8
_2-8_drain他
  6
CONTINUOUS
 62
    7
 10
889.65042592570148
 20
424.24655733983923
 11
889.51316202887915
 21
424.39993732692824
  0
LINE
  8
_2-8_drain他
  6
CONTINUOUS
 62
    7
 10
889.51316202887915
 20
424.39993732692824
 11
889.37411293356922
 21
424.55168257018227
  0
LINE
  8
_2-8_drain他
  6
CONTINUOUS
 62
    7
 10
889.37411293356922
 20
424.55168257018227
 11
889.29275703565486
 21
424.63910566318941
  0
LINE
  8
_2-8_drain他
  6
CONTINUOUS
 62
    7
 10
889.29275703565486
 20
424.63910566318941
 11
889.20712196224008
 21
424.73017583758815
  0
LINE
  8
_2-8_drain他
  6
CONTINUOUS
 62
    7
 10
889.20712196224008
 20
424.73017583758815
 11
889.05792460393491
 21
424.88587758642166
  0
LINE
  8
_2-8_drain他
  6
CONTINUOUS
 62
    7
 10
889.05792460393491
 20
424.88587758642166
 11
888.90617439036282
 21
425.03922356482076
  0
LINE
  8
_2-8_drain他
  6
CONTINUOUS
 62
    7
 10
888.90617439036282
 20
425.03922356482076
 11
888.7511853108615
 21
425.18941120374006
  0
LINE
  8
_2-8_drain他
  6
CONTINUOUS
 62
    7
 10
888.7511853108615
 20
425.18941120374006
 11
888.59227135475498
 21
425.33563793413873
  0
LINE
  8
_2-8_drain他
  6
CONTINUOUS
 62
    7
 10
888.59227135475498
 20
425.33563793413873
 11
888.42874651137186
 21
425.47710118696682
  0
LINE
  8
_2-8_drain他
  6
CONTINUOUS
 62
    7
 10
888.42874651137186
 20
425.47710118696682
 11
888.33151906978833
 21
425.55665099424755
  0
LINE
  8
_2-8_drain他
  6
CONTINUOUS
 62
    7
 10
888.33151906978833
 20
425.55665099424755
 11
888.24386537024543
 21
425.62537634674368
  0
LINE
  8
_2-8_drain他
  6
CONTINUOUS
 62
    7
 10
888.24386537024543
 20
425.62537634674368
 11
888.0892522703241
 21
425.73958911454451
  0
LINE
  8
_2-8_drain他
  6
CONTINUOUS
 62
    7
 10
888.0892522703241
 20
425.73958911454451
 11
887.93028712713271
 21
425.84756180347381
  0
LINE
  8
_2-8_drain他
  6
CONTINUOUS
 62
    7
 10
887.93028712713271
 20
425.84756180347381
 11
887.76704046990722
 21
425.94833703490008
  0
LINE
  8
_2-8_drain他
  6
CONTINUOUS
 62
    7
 10
887.76704046990722
 20
425.94833703490008
 11
887.59958282787443
 21
426.04095743018729
  0
LINE
  8
_2-8_drain他
  6
CONTINUOUS
 62
    7
 10
887.59958282787443
 20
426.04095743018729
 11
887.42798473027028
 21
426.12446561069714
  0
LINE
  8
_2-8_drain他
  6
CONTINUOUS
 62
    7
 10
887.42798473027028
 20
426.12446561069714
 11
887.32658846910431
 21
426.16834788161964
  0
LINE
  8
_2-8_drain他
  6
CONTINUOUS
 62
    7
 10
887.32658846910431
 20
426.16834788161964
 11
887.21268297636448
 21
426.21287659488257
  0
LINE
  8
_2-8_drain他
  6
CONTINUOUS
 62
    7
 10
887.21268297636448
 20
426.21287659488257
 11
887.01279451850928
 21
426.28018722329512
  0
LINE
  8
_2-8_drain他
  6
CONTINUOUS
 62
    7
 10
887.01279451850928
 20
426.28018722329512
 11
886.80909241965287
 21
426.33679077479496
  0
LINE
  8
_2-8_drain他
  6
CONTINUOUS
 62
    7
 10
886.80909241965287
 20
426.33679077479496
 11
886.60229334284372
 21
426.38416564852446
  0
LINE
  8
_2-8_drain他
  6
CONTINUOUS
 62
    7
 10
886.60229334284372
 20
426.38416564852446
 11
886.39311395113486
 21
426.42379024363504
  0
LINE
  8
_2-8_drain他
  6
CONTINUOUS
 62
    7
 10
886.39311395113486
 20
426.42379024363504
 11
886.18227090757932
 21
426.45714295926905
  0
LINE
  8
_2-8_drain他
  6
CONTINUOUS
 62
    7
 10
886.18227090757932
 20
426.45714295926905
 11
886.05950205954719
 21
426.47419632530341
  0
LINE
  8
_2-8_drain他
  6
CONTINUOUS
 62
    7
 10
886.05950205954719
 20
426.47419632530341
 11
885.91104508946478
 21
426.49291332457165
  0
LINE
  8
_2-8_drain他
  6
CONTINUOUS
 62
    7
 10
885.91104508946478
 20
426.49291332457165
 11
885.65472482418022
 21
426.51982008566006
  0
LINE
  8
_2-8_drain他
  6
CONTINUOUS
 62
    7
 10
885.65472482418022
 20
426.51982008566006
 11
885.39832949560127
 21
426.53867833295931
  0
LINE
  8
_2-8_drain他
  6
CONTINUOUS
 62
    7
 10
885.39832949560127
 20
426.53867833295931
 11
885.14230165897038
 21
426.54802442414689
  0
LINE
  8
_2-8_drain他
  6
CONTINUOUS
 62
    7
 10
885.14230165897038
 20
426.54802442414689
 11
884.88708386953454
 21
426.54639471690029
  0
LINE
  8
_2-8_drain他
  6
CONTINUOUS
 62
    7
 10
884.88708386953454
 20
426.54639471690029
 11
884.63311868254073
 21
426.53232556889702
  0
LINE
  8
_2-8_drain他
  6
CONTINUOUS
 62
    7
 10
884.63311868254073
 20
426.53232556889702
 11
884.48656720630856
 21
426.51788896011635
  0
LINE
  8
_2-8_drain他
  6
CONTINUOUS
 62
    7
 10
884.48656720630856
 20
426.51788896011635
 11
884.37922301473895
 21
426.5041991740311
  0
LINE
  8
_2-8_drain他
  6
CONTINUOUS
 62
    7
 10
884.37922301473895
 20
426.5041991740311
 11
884.1947729539695
 21
426.47523954279063
  0
LINE
  8
_2-8_drain他
  6
CONTINUOUS
 62
    7
 10
884.1947729539695
 20
426.47523954279063
 11
884.01080209653151
 21
426.44092406125151
  0
LINE
  8
_2-8_drain他
  6
CONTINUOUS
 62
    7
 10
884.01080209653151
 20
426.44092406125151
 11
883.82694606067139
 21
426.40290923522412
  0
LINE
  8
_2-8_drain他
  6
CONTINUOUS
 62
    7
 10
883.82694606067139
 20
426.40290923522412
 11
883.64284046465377
 21
426.36285157051884
  0
LINE
  8
_2-8_drain他
  6
CONTINUOUS
 62
    7
 10
883.64284046465377
 20
426.36285157051884
 11
883.45812092672509
 21
426.32240757294153
  0
LINE
  8
_2-8_drain他
  6
CONTINUOUS
 62
    7
 10
883.45812092672509
 20
426.32240757294153
 11
883.35055870118572
 21
426.29942578605619
  0
LINE
  8
_2-8_drain他
  6
CONTINUOUS
 62
    7
 10
883.35055870118572
 20
426.29942578605619
 11
883.2284474698597
 21
426.27415206455748
  0
LINE
  8
_2-8_drain他
  6
CONTINUOUS
 62
    7
 10
883.2284474698597
 20
426.27415206455748
 11
883.01764944629645
 21
426.23080254832144
  0
LINE
  8
_2-8_drain他
  6
CONTINUOUS
 62
    7
 10
883.01764944629645
 20
426.23080254832144
 11
882.80794422245867
 21
426.18466939017321
  0
LINE
  8
_2-8_drain他
  6
CONTINUOUS
 62
    7
 10
882.80794422245867
 20
426.18466939017321
 11
882.60098727318996
 21
426.13218334847102
  0
LINE
  8
_2-8_drain他
  6
CONTINUOUS
 62
    7
 10
882.60098727318996
 20
426.13218334847102
 11
882.39843407333387
 21
426.06977518157078
  0
LINE
  8
_2-8_drain他
  6
CONTINUOUS
 62
    7
 10
882.39843407333387
 20
426.06977518157078
 11
882.20194009773854
 21
425.99387564783751
  0
LINE
  8
_2-8_drain他
  6
CONTINUOUS
 62
    7
 10
882.20194009773854
 20
425.99387564783751
 11
882.09140227161674
 21
425.9422657071816
  0
LINE
  8
_2-8_drain他
  6
CONTINUOUS
 62
    7
 10
882.09140227161674
 20
425.9422657071816
 11
881.99208004043589
 21
425.88918023525662
  0
LINE
  8
_2-8_drain他
  6
CONTINUOUS
 62
    7
 10
881.99208004043589
 20
425.88918023525662
 11
881.82665612524465
 21
425.78589395415815
  0
LINE
  8
_2-8_drain他
  6
CONTINUOUS
 62
    7
 10
881.82665612524465
 20
425.78589395415815
 11
881.66860455388792
 21
425.66934432242601
  0
LINE
  8
_2-8_drain他
  6
CONTINUOUS
 62
    7
 10
881.66860455388792
 20
425.66934432242601
 11
881.51792950746744
 21
425.54141764911105
  0
LINE
  8
_2-8_drain他
  6
CONTINUOUS
 62
    7
 10
881.51792950746744
 20
425.54141764911105
 11
881.37463516710318
 21
425.40400024326414
  0
LINE
  8
_2-8_drain他
  6
CONTINUOUS
 62
    7
 10
881.37463516710318
 20
425.40400024326414
 11
881.23872571390143
 21
425.25897841393612
  0
LINE
  8
_2-8_drain他
  6
CONTINUOUS
 62
    7
 10
881.23872571390143
 20
425.25897841393612
 11
881.16328363391381
 21
425.17212470993923
  0
LINE
  8
_2-8_drain他
  6
CONTINUOUS
 62
    7
 10
881.16328363391381
 20
425.17212470993923
 11
881.07898860954242
 21
425.06955732194751
  0
LINE
  8
_2-8_drain他
  6
CONTINUOUS
 62
    7
 10
881.07898860954242
 20
425.06955732194751
 11
880.94081675027587
 21
424.88827231221035
  0
LINE
  8
_2-8_drain他
  6
CONTINUOUS
 62
    7
 10
880.94081675027587
 20
424.88827231221035
 11
880.81070648325272
 21
424.70204763759125
  0
LINE
  8
_2-8_drain他
  6
CONTINUOUS
 62
    7
 10
880.81070648325272
 20
424.70204763759125
 11
880.68748658126856
 21
424.51168157650113
  0
LINE
  8
_2-8_drain他
  6
CONTINUOUS
 62
    7
 10
880.68748658126856
 20
424.51168157650113
 11
880.56998581710081
 21
424.31797240735773
  0
LINE
  8
_2-8_drain他
  6
CONTINUOUS
 62
    7
 10
880.56998581710081
 20
424.31797240735773
 11
880.45703296353145
 21
424.12171840857422
  0
LINE
  8
_2-8_drain他
  6
CONTINUOUS
 62
    7
 10
880.45703296353145
 20
424.12171840857422
 11
880.39314263667143
 21
424.00703961154545
  0
LINE
  8
_2-8_drain他
  6
CONTINUOUS
 62
    7
 10
880.39314263667143
 20
424.00703961154545
 11
880.32587526916336
 21
423.88397301940881
  0
LINE
  8
_2-8_drain他
  6
CONTINUOUS
 62
    7
 10
880.32587526916336
 20
423.88397301940881
 11
880.21189402795676
 21
423.67076626304038
  0
LINE
  8
_2-8_drain他
  6
CONTINUOUS
 62
    7
 10
880.21189402795676
 20
423.67076626304038
 11
880.09977947959192
 21
423.45646926350423
  0
LINE
  8
_2-8_drain他
  6
CONTINUOUS
 62
    7
 10
880.09977947959192
 20
423.45646926350423
 11
879.98876287034341
 21
423.24132000243094
  0
LINE
  8
_2-8_drain他
  6
CONTINUOUS
 62
    7
 10
879.98876287034341
 20
423.24132000243094
 11
879.87807544648581
 21
423.02555646144879
  0
LINE
  8
_2-8_drain他
  6
CONTINUOUS
 62
    7
 10
879.87807544648581
 20
423.02555646144879
 11
879.76694845428915
 21
422.80941662219288
  0
LINE
  8
_2-8_drain他
  6
CONTINUOUS
 62
    7
 10
879.76694845428915
 20
422.80941662219288
 11
879.70199045965705
 21
422.68397687269339
  0
LINE
  8
_2-8_drain他
  6
CONTINUOUS
 62
    7
 10
879.70199045965705
 20
422.68397687269339
 11
879.6135770054841
 21
422.51514868968638
  0
LINE
  8
_2-8_drain他
  6
CONTINUOUS
 62
    7
 10
879.6135770054841
 20
422.51514868968638
 11
879.45707218955226
 21
422.22575292379884
  0
LINE
  8
_2-8_drain他
  6
CONTINUOUS
 62
    7
 10
879.45707218955226
 20
422.22575292379884
 11
879.29285059632525
 21
421.94104474754863
  0
LINE
  8
_2-8_drain他
  6
CONTINUOUS
 62
    7
 10
879.29285059632525
 20
421.94104474754863
 11
879.11792660894184
 21
421.66399131952926
  0
LINE
  8
_2-8_drain他
  6
CONTINUOUS
 62
    7
 10
879.11792660894184
 20
421.66399131952926
 11
878.92931461054081
 21
421.39755979834331
  0
LINE
  8
_2-8_drain他
  6
CONTINUOUS
 62
    7
 10
878.92931461054081
 20
421.39755979834331
 11
878.72402898426549
 21
421.14471734258655
  0
LINE
  8
_2-8_drain他
  6
CONTINUOUS
 62
    7
 10
878.72402898426549
 20
421.14471734258655
 11
878.59614697643769
 21
421.00546444280621
  0
LINE
  8
_2-8_drain他
  6
CONTINUOUS
 62
    7
 10
878.59614697643769
 20
421.00546444280621
 11
878.5499318041318
 21
420.95835943689576
  0
LINE
  8
_2-8_drain他
  6
CONTINUOUS
 62
    7
 10
878.5499318041318
 20
420.95835943689576
 11
878.46823254259084
 21
420.87901434186119
  0
LINE
  8
_2-8_drain他
  6
CONTINUOUS
 62
    7
 10
878.46823254259084
 20
420.87901434186119
 11
878.38403015026392
 21
420.80221423241778
  0
LINE
  8
_2-8_drain他
  6
CONTINUOUS
 62
    7
 10
878.38403015026392
 20
420.80221423241778
 11
878.29738417476597
 21
420.72816532909269
  0
LINE
  8
_2-8_drain他
  6
CONTINUOUS
 62
    7
 10
878.29738417476597
 20
420.72816532909269
 11
878.20835416373006
 21
420.65707385240171
  0
LINE
  8
_2-8_drain他
  6
CONTINUOUS
 62
    7
 10
878.20835416373006
 20
420.65707385240171
 11
878.11699966478022
 21
420.589146022872
  0
LINE
  8
_2-8_drain他
  6
CONTINUOUS
 62
    7
 10
878.11699966478022
 20
420.589146022872
 11
878.06297243988388
 21
420.55127872648268
  0
LINE
  8
_2-8_drain他
  6
CONTINUOUS
 62
    7
 10
878.06297243988388
 20
420.55127872648268
 11
877.97337102879715
 21
420.49198603610489
  0
LINE
  8
_2-8_drain他
  6
CONTINUOUS
 62
    7
 10
877.97337102879715
 20
420.49198603610489
 11
877.81517958462678
 21
420.3955727719092
  0
LINE
  8
_2-8_drain他
  6
CONTINUOUS
 62
    7
 10
877.81517958462678
 20
420.3955727719092
 11
877.65376829759566
 21
420.30424436283806
  0
LINE
  8
_2-8_drain他
  6
CONTINUOUS
 62
    7
 10
877.65376829759566
 20
420.30424436283806
 11
877.4908483493025
 21
420.21535365438763
  0
LINE
  8
_2-8_drain他
  6
CONTINUOUS
 62
    7
 10
877.4908483493025
 20
420.21535365438763
 11
877.32813092134597
 21
420.12625349205177
  0
LINE
  8
_2-8_drain他
  6
CONTINUOUS
 62
    7
 10
877.32813092134597
 20
420.12625349205177
 11
877.16732719533388
 21
420.03429672132665
  0
LINE
  8
_2-8_drain他
  6
CONTINUOUS
 62
    7
 10
877.16732719533388
 20
420.03429672132665
 11
877.0756121870088
 21
419.97860977981486
  0
LINE
  8
_2-8_drain他
  6
CONTINUOUS
 62
    7
 10
877.0756121870088
 20
419.97860977981486
 11
876.98320119461164
 21
419.91924500994241
  0
LINE
  8
_2-8_drain他
  6
CONTINUOUS
 62
    7
 10
876.98320119461164
 20
419.91924500994241
 11
876.82725819245638
 21
419.81174324817471
  0
LINE
  8
_2-8_drain他
  6
CONTINUOUS
 62
    7
 10
876.82725819245638
 20
419.81174324817471
 11
876.67493565023483
 21
419.6987600582072
  0
LINE
  8
_2-8_drain他
  6
CONTINUOUS
 62
    7
 10
876.67493565023483
 20
419.6987600582072
 11
876.52545916149825
 21
419.58150000581168
  0
LINE
  8
_2-8_drain他
  6
CONTINUOUS
 62
    7
 10
876.52545916149825
 20
419.58150000581168
 11
876.37805431980701
 21
419.46116765676447
  0
LINE
  8
_2-8_drain他
  6
CONTINUOUS
 62
    7
 10
876.37805431980701
 20
419.46116765676447
 11
876.23194671871238
 21
419.33896757683738
  0
LINE
  8
_2-8_drain他
  6
CONTINUOUS
 62
    7
 10
876.23194671871238
 20
419.33896757683738
 11
876.14749354930586
 21
419.26771039774462
  0
LINE
  8
_2-8_drain他
  6
CONTINUOUS
 62
    7
 10
876.14749354930586
 20
419.26771039774462
 11
876.04165168569102
 21
419.17822981384529
  0
LINE
  8
_2-8_drain他
  6
CONTINUOUS
 62
    7
 10
876.04165168569102
 20
419.17822981384529
 11
875.86007890738051
 21
419.02314676004903
  0
LINE
  8
_2-8_drain他
  6
CONTINUOUS
 62
    7
 10
875.86007890738051
 20
419.02314676004903
 11
875.68090425475452
 21
418.86575759180755
  0
LINE
  8
_2-8_drain他
  6
CONTINUOUS
 62
    7
 10
875.68090425475452
 20
418.86575759180755
 11
875.50557212853141
 21
418.70456739388214
  0
LINE
  8
_2-8_drain他
  6
CONTINUOUS
 62
    7
 10
875.50557212853141
 20
418.70456739388214
 11
875.33552692942044
 21
418.53808125103183
  0
LINE
  8
_2-8_drain他
  6
CONTINUOUS
 62
    7
 10
875.33552692942044
 20
418.53808125103183
 11
875.17221305813996
 21
418.36480424802244
  0
LINE
  8
_2-8_drain他
  6
CONTINUOUS
 62
    7
 10
875.17221305813996
 20
418.36480424802244
 11
875.08114447620278
 21
418.26060293981141
  0
LINE
  8
_2-8_drain他
  6
CONTINUOUS
 62
    7
 10
875.08114447620278
 20
418.26060293981141
 11
875.02948520356745
 21
418.1985156642902
  0
LINE
  8
_2-8_drain他
  6
CONTINUOUS
 62
    7
 10
875.02948520356745
 20
418.1985156642902
 11
874.94316009326189
 21
418.08904292445118
  0
LINE
  8
_2-8_drain他
  6
CONTINUOUS
 62
    7
 10
874.94316009326189
 20
418.08904292445118
 11
874.86080022112651
 21
417.97654166669258
  0
LINE
  8
_2-8_drain他
  6
CONTINUOUS
 62
    7
 10
874.86080022112651
 20
417.97654166669258
 11
874.78297953038214
 21
417.86106073398128
  0
LINE
  8
_2-8_drain他
  6
CONTINUOUS
 62
    7
 10
874.78297953038214
 20
417.86106073398128
 11
874.71027196424052
 21
417.74264896928867
  0
LINE
  8
_2-8_drain他
  6
CONTINUOUS
 62
    7
 10
874.71027196424052
 20
417.74264896928867
 11
874.64325146590886
 21
417.62135521558389
  0
LINE
  8
_2-8_drain他
  6
CONTINUOUS
 62
    7
 10
874.64325146590886
 20
417.62135521558389
 11
874.60721155482111
 21
417.54970355774344
  0
LINE
  8
_2-8_drain他
  6
CONTINUOUS
 62
    7
 10
874.60721155482111
 20
417.54970355774344
 11
874.56055970146258
 21
417.44822766669199
  0
LINE
  8
_2-8_drain他
  6
CONTINUOUS
 62
    7
 10
874.56055970146258
 20
417.44822766669199
 11
874.48907294311516
 21
417.26946328764211
  0
LINE
  8
_2-8_drain他
  6
CONTINUOUS
 62
    7
 10
874.48907294311516
 20
417.26946328764211
 11
874.42712160448968
 21
417.08664286949283
  0
LINE
  8
_2-8_drain他
  6
CONTINUOUS
 62
    7
 10
874.42712160448968
 20
417.08664286949283
 11
874.3726237162216
 21
416.90065201030234
  0
LINE
  8
_2-8_drain他
  6
CONTINUOUS
 62
    7
 10
874.3726237162216
 20
416.90065201030234
 11
874.3234973089327
 21
416.7123763081288
  0
LINE
  8
_2-8_drain他
  6
CONTINUOUS
 62
    7
 10
874.3234973089327
 20
416.7123763081288
 11
874.27766041325845
 21
416.52270136102356
  0
LINE
  8
_2-8_drain他
  6
CONTINUOUS
 62
    7
 10
874.27766041325845
 20
416.52270136102356
 11
874.25176186378826
 21
416.41239772936228
  0
LINE
  8
_2-4_out_line
  6
CONTINUOUS
 62
    2
 10
884.99963772640035
 20
416.41239772936228
 11
884.99963772640035
 21
421.41239772936228
  0
LINE
  8
_2-4_out_line
  6
CONTINUOUS
 62
    2
 10
774.16246092911911
 20
416.41239772936228
 11
884.99963772640035
 21
416.41239772936228
  0
LINE
  8
_2-d_ハッチ他
  6
CONTINUOUS
 62
    4
 10
1422.367834526344
 20
376.41239772936228
 11
1424.1624609291191
 21
378.20702413213507
  0
LINE
  8
_2-d_ハッチ他
  6
CONTINUOUS
 62
    4
 10
1394.083563278891
 20
376.41239772936456
 11
1424.083563278891
 21
406.41239772936456
  0
LINE
  8
_2-d_ハッチ他
  6
CONTINUOUS
 62
    4
 10
1365.7992920314198
 20
376.41239772936228
 11
1395.7992920314198
 21
406.41239772936228
  0
LINE
  8
_2-d_ハッチ他
  6
CONTINUOUS
 62
    4
 10
1337.5150207839667
 20
376.41239772936456
 11
1367.5150207839667
 21
406.41239772936456
  0
LINE
  8
_2-d_ハッチ他
  6
CONTINUOUS
 62
    4
 10
1309.2307495364955
 20
376.41239772936228
 11
1339.2307495364955
 21
406.41239772936228
  0
LINE
  8
_2-d_ハッチ他
  6
CONTINUOUS
 62
    4
 10
1280.9464782890425
 20
376.41239772936456
 11
1310.9464782890425
 21
406.41239772936456
  0
LINE
  8
_2-d_ハッチ他
  6
CONTINUOUS
 62
    4
 10
1252.6622070415758
 20
376.41239772936228
 11
1282.6622070415713
 21
406.41239772936228
  0
LINE
  8
_2-d_ハッチ他
  6
CONTINUOUS
 62
    4
 10
1224.3779357941182
 20
376.41239772936456
 11
1254.3779357941182
 21
406.41239772936456
  0
LINE
  8
_2-d_ハッチ他
  6
CONTINUOUS
 62
    4
 10
1196.0936645466516
 20
376.41239772936228
 11
1226.0936645466516
 21
406.41239772936228
  0
LINE
  8
_2-d_ハッチ他
  6
CONTINUOUS
 62
    4
 10
1167.809393299194
 20
376.41239772936228
 11
1197.809393299194
 21
406.41239772936456
  0
LINE
  8
_2-d_ハッチ他
  6
CONTINUOUS
 62
    4
 10
1139.5251220517273
 20
376.41239772936228
 11
1169.5251220517273
 21
406.41239772936228
  0
LINE
  8
_2-d_ハッチ他
  6
CONTINUOUS
 62
    4
 10
1111.2408508042697
 20
376.41239772936456
 11
1141.2408508042697
 21
406.41239772936683
  0
LINE
  8
_2-d_ハッチ他
  6
CONTINUOUS
 62
    4
 10
1082.956579556803
 20
376.41239772936228
 11
1112.956579556803
 21
406.41239772936228
  0
LINE
  8
_2-d_ハッチ他
  6
CONTINUOUS
 62
    4
 10
941.53522331949694
 20
376.41239772936456
 11
971.53522331949694
 21
406.41239772936456
  0
LINE
  8
_2-d_ハッチ他
  6
CONTINUOUS
 62
    4
 10
913.25095207203935
 20
376.41239772936456
 11
943.25095207203935
 21
406.41239772936456
  0
LINE
  8
_2-d_ハッチ他
  6
CONTINUOUS
 62
    4
 10
884.96668082457268
 20
376.41239772936456
 11
914.96668082457268
 21
406.41239772936228
  0
LINE
  8
_2-d_ハッチ他
  6
CONTINUOUS
 62
    4
 10
856.6824095771151
 20
376.41239772936456
 11
886.6824095771151
 21
406.41239772936456
  0
LINE
  8
_2-d_ハッチ他
  6
CONTINUOUS
 62
    4
 10
828.39813832964387
 20
376.41239772936228
 11
858.39813832964387
 21
406.41239772936228
  0
LINE
  8
_2-d_ハッチ他
  6
CONTINUOUS
 62
    4
 10
800.11386708219084
 20
376.41239772936456
 11
830.11386708219084
 21
406.41239772936456
  0
LINE
  8
_2-d_ハッチ他
  6
CONTINUOUS
 62
    4
 10
774.16246092911911
 20
378.7452628237595
 11
801.82959583471961
 21
406.41239772936228
  0
LINE
  8
_2-d_ハッチ他
  6
CONTINUOUS
 62
    4
 10
774.16246092911911
 20
401.95880333997661
 11
799.70886653973116
 21
376.41239772936456
  0
LINE
  8
_2-d_ハッチ他
  6
CONTINUOUS
 62
    4
 10
797.99313778719329
 20
406.41239772936228
 11
827.99313778718874
 21
376.41239772936228
  0
LINE
  8
_2-d_ハッチ他
  6
CONTINUOUS
 62
    4
 10
826.27740903465542
 20
406.41239772936456
 11
856.27740903465542
 21
376.41239772936456
  0
LINE
  8
_2-d_ハッチ他
  6
CONTINUOUS
 62
    4
 10
854.561680282113
 20
406.41239772936228
 11
884.561680282113
 21
376.41239772936456
  0
LINE
  8
_2-d_ハッチ他
  6
CONTINUOUS
 62
    4
 10
882.84595152957058
 20
406.41239772936683
 11
912.84595152957058
 21
376.41239772936683
  0
LINE
  8
_2-d_ハッチ他
  6
CONTINUOUS
 62
    4
 10
911.13022277703726
 20
406.41239772936228
 11
941.13022277703726
 21
376.41239772936456
  0
LINE
  8
_2-d_ハッチ他
  6
CONTINUOUS
 62
    4
 10
939.41449402449484
 20
406.41239772936683
 11
969.41449402449484
 21
376.41239772936456
  0
LINE
  8
_2-d_ハッチ他
  6
CONTINUOUS
 62
    4
 10
1080.83585026181
 20
406.41239772936456
 11
1110.83585026181
 21
376.41239772936456
  0
LINE
  8
_2-d_ハッチ他
  6
CONTINUOUS
 62
    4
 10
1109.1201215092676
 20
406.41239772936456
 11
1139.1201215092676
 21
376.41239772936456
  0
LINE
  8
_2-d_ハッチ他
  6
CONTINUOUS
 62
    4
 10
1137.4043927567343
 20
406.41239772936456
 11
1167.4043927567343
 21
376.41239772936456
  0
LINE
  8
_2-d_ハッチ他
  6
CONTINUOUS
 62
    4
 10
1165.6886640041919
 20
406.41239772936456
 11
1195.6886640041919
 21
376.41239772936456
  0
LINE
  8
_2-d_ハッチ他
  6
CONTINUOUS
 62
    4
 10
1193.9729352516586
 20
406.41239772936456
 11
1223.9729352516586
 21
376.41239772936456
  0
LINE
  8
_2-d_ハッチ他
  6
CONTINUOUS
 62
    4
 10
1222.2572064991161
 20
406.41239772936456
 11
1252.2572064991161
 21
376.41239772936456
  0
LINE
  8
_2-d_ハッチ他
  6
CONTINUOUS
 62
    4
 10
1250.5414777465828
 20
406.41239772936456
 11
1280.5414777465828
 21
376.41239772936456
  0
LINE
  8
_2-d_ハッチ他
  6
CONTINUOUS
 62
    4
 10
1278.8257489940404
 20
406.41239772936456
 11
1308.8257489940404
 21
376.41239772936456
  0
LINE
  8
_2-d_ハッチ他
  6
CONTINUOUS
 62
    4
 10
1307.1100202415071
 20
406.41239772936456
 11
1337.1100202415071
 21
376.41239772936456
  0
LINE
  8
_2-d_ハッチ他
  6
CONTINUOUS
 62
    4
 10
1335.3942914889692
 20
406.41239772936228
 11
1365.3942914889647
 21
376.41239772936228
  0
LINE
  8
_2-d_ハッチ他
  6
CONTINUOUS
 62
    4
 10
1363.6785627364313
 20
406.41239772936456
 11
1393.6785627364313
 21
376.41239772936456
  0
LINE
  8
_2-d_ハッチ他
  6
CONTINUOUS
 62
    4
 10
1391.9628339838935
 20
406.41239772936228
 11
1421.9628339838889
 21
376.41239772936228
  0
LINE
  8
_2-d_ハッチ他
  6
CONTINUOUS
 62
    4
 10
1420.2471052313556
 20
406.41239772936456
 11
1424.1624609291191
 21
402.49704203160104
  0
LINE
  8
_2-8_drain他
  6
CONTINUOUS
 62
    7
 10
1045.6246377264004
 20
416.41239772936228
 11
1045.6246377264004
 21
376.41239772936228
  0
LINE
  8
_2-8_drain他
  6
CONTINUOUS
 62
    7
 10
995.62463772640035
 20
416.41239772936228
 11
995.62463772640035
 21
376.41239772936228
  0
LINE
  8
_2-d_ハッチ他
  6
CONTINUOUS
 62
    4
 10
969.81949456696361
 20
376.41239772936456
 11
995.62463772640035
 21
402.2175408888013
  0
LINE
  8
_2-d_ハッチ他
  6
CONTINUOUS
 62
    4
 10
967.69876527196152
 20
406.41239772936456
 11
995.62463772640035
 21
378.48652527492573
  0
LINE
  8
_2-d_ハッチ他
  6
CONTINUOUS
 62
    4
 10
1045.6246377264004
 20
395.64899839388613
 11
1056.3880370618788
 21
406.41239772936228
  0
LINE
  8
_2-d_ハッチ他
  6
CONTINUOUS
 62
    4
 10
1045.6246377264004
 20
385.05506776984998
 11
1054.2673077668858
 21
376.41239772936456
  0
TEXT
  8
_2-a_moji
 62
    7
 10
1293.9323011845861
 20
516.70127634960022
 40
15
 41
1
 50
0
  1
ラジアルシートＬ６００
  0
TEXT
  8
_2-a_moji
 62
    7
 10
1293.9323011845861
 20
541.70127634960022
 40
15
 41
1
 50
0
  1
塩ビシート 機械的固定工法
  0
LINE
  8
_2-a_moji
  6
CONTINUOUS
 62
    7
 10
1283.9323011845861
 20
549.20127634960022
 11
1267.5105146707026
 21
549.20127634960022
  0
LINE
  8
_2-a_moji
  6
CONTINUOUS
 62
    7
 10
1175.4614468370025
 20
389.76761407227355
 11
1267.5105146707026
 21
549.20127634960022
  0
LINE
  8
_2-a_moji
  6
CONTINUOUS
 62
    7
 10
1283.9323011845861
 20
524.20127634960022
 11
1253.0767579409619
 21
524.20127634960022
  0
TEXT
  8
_2-a_moji
 62
    7
 10
1293.9323011845861
 20
441.70127634960022
 40
15
 41
1
 50
0
  1
断熱材
  0
LINE
  8
_2-a_moji
  6
CONTINUOUS
 62
    7
 10
1283.9323011845861
 20
449.20127634960022
 11
1209.7754877517398
 21
449.20127634960022
  0
TEXT
  8
_2-a_moji
 62
    7
 10
1293.9323011845861
 20
566.70127634960022
 40
15
 41
1
 50
0
  1
プルーフシーラー
  0
LINE
  8
_2-a_moji
  6
CONTINUOUS
 62
    7
 10
1283.9323011845861
 20
574.20127634960022
 11
1241.893085859783
 21
574.20127634960022
  0
LINE
  8
_2-a_moji
  6
CONTINUOUS
 62
    7
 10
1155.8376915826873
 20
425.14896119630362
 11
1241.893085859783
 21
574.20127634960022
  0
TEXT
  8
_2-a_moji
 62
    7
 10
1091.3593366092889
 20
616.70127634960022
 40
15
 41
1
 50
0
  1
ステンレスベントロン
  0
LINE
  8
_2-a_moji
  6
CONTINUOUS
 62
    7
 10
1027.6519392616317
 20
580.46029290672163
 11
1052.9058078269961
 21
624.20127634960022
  0
LINE
  8
_2-a_moji
  6
CONTINUOUS
 62
    7
 10
1081.3593366092889
 20
624.20127634960022
 11
1052.9058078269961
 21
624.20127634960022
  0
LINE
  8
_2-3_
  6
CONTINUOUS
 62
    3
 10
774.16246092911911
 20
226.41239772936231
 11
1424.1624609291191
 21
226.41239772936231
  0
POINT
  8
_2-b_dim
 62
    1
 10
1106.2496377264004
 20
328.42033564475582
  0
LINE
  8
_2-b_dim
  6
CONTINUOUS
 62
    7
 10
1106.2496377264004
 20
328.42033564475582
 11
1106.2496377264004
 21
369.94923407252668
  0
LINE
  8
_2-b_dim
  6
CONTINUOUS
 62
    7
 10
1106.2496377264004
 20
328.42033564475582
 11
1156.2496377264004
 21
328.42033564475582
  0
LINE
  8
_2-b_dim
  6
CONTINUOUS
 62
    7
 10
1156.2496377264004
 20
328.42033564475582
 11
1156.2496377264004
 21
369.94923407252668
  0
POINT
  8
_2-b_dim
 62
    1
 10
1156.2496377264004
 20
328.42033564475582
  0
POINT
  8
_2-b_dim
 62
    1
 10
995.62463772640035
 20
328.42033564475582
  0
LINE
  8
_2-b_dim
  6
CONTINUOUS
 62
    7
 10
995.62463772640035
 20
328.42033564475582
 11
1045.6246377264004
 21
328.42033564475582
  0
POINT
  8
_2-b_dim
 62
    1
 10
1045.6246377264004
 20
328.42033564475582
  0
LINE
  8
_2-7_ビス
  6
CONTINUOUS
 62
    7
 10
1078.7496385511984
 20
418.41239772936274
 11
1074.4996369016005
 21
418.41239772936274
  0
LINE
  8
_2-7_ビス
  6
CONTINUOUS
 62
    7
 10
1071.6246336024049
 20
421.28740102856068
 11
1074.4996369016005
 21
418.41239772936274
  0
LINE
  8
_2-7_ビス
  6
CONTINUOUS
 62
    7
 10
1081.6246418503986
 20
421.28740102856068
 11
1071.6246336024049
 21
421.28740102856068
  0
LINE
  8
_2-7_ビス
  6
CONTINUOUS
 62
    7
 10
1071.6246336024049
 20
421.78742742214195
 11
1071.6246336024049
 21
421.28740102856068
  0
LINE
  8
_2-7_ビス
  6
CONTINUOUS
 62
    7
 10
1081.6246418503986
 20
421.28740102856068
 11
1081.6246418503986
 21
421.78742742214195
  0
LINE
  8
_2-7_ビス
  6
CONTINUOUS
 62
    7
 10
1081.6246418503986
 20
421.78742742214195
 11
1071.6246336024049
 21
421.78742742214195
  0
LINE
  8
_2-7_ビス
  6
CONTINUOUS
 62
    7
 10
1081.6246418503986
 20
421.28740102856068
 11
1078.7496385511984
 21
418.41239772936274
  0
ARC
  8
_2-7_ビス
  6
DASHED3
 62
    7
 10
1076.6246377263994
 20
420.52296044051286
 40
1.8403175392666382
 50
217.11750793457031
 51
322.88247680664062
  0
LINE
  8
_2-7_ビス
  6
DASHED3
 62
    7
 10
1079.1746535625496
 20
421.28740102856068
 11
1078.0921290825015
 21
419.41237628457952
  0
LINE
  8
_2-7_ビス
  6
DASHED3
 62
    7
 10
1074.0746590062233
 20
421.28740102856068
 11
1075.1571834862714
 21
419.41237628457952
  0
LINE
  8
_2-7_ビス
  6
DASHED3
 62
    7
 10
1074.0746590062233
 20
421.28740102856068
 11
1074.0746590062233
 21
421.78742742214195
  0
LINE
  8
_2-7_ビス
  6
DASHED3
 62
    7
 10
1079.1746535625496
 20
421.28740102856068
 11
1079.1746535625496
 21
421.78742742214195
  0
LINE
  8
_2-7_ビス
  6
CONTINUOUS
 62
    7
 10
1078.6246377263976
 20
418.41239772936274
 11
1078.6246377263976
 21
376.41239772936228
  0
LINE
  8
_2-7_ビス
  6
CONTINUOUS
 62
    7
 10
1074.6246377264013
 20
418.41239772936274
 11
1074.6246377264013
 21
376.41239772936228
  0
LINE
  8
_2-a_moji
  6
CONTINUOUS
 62
    7
 10
1122.2022621976746
 20
304.97911490688193
 11
1095.509652556452
 21
304.97911490688193
  0
LINE
  8
_2-a_moji
  6
CONTINUOUS
 62
    7
 10
1079.0692518510421
 20
333.45472422544344
 11
1095.509652556452
 21
304.97911490688193
  0
ARC
  8
_2-d_ハッチ他
  6
CONTINUOUS
 62
    4
 10
1074.4999050160366
 20
409.87073106784533
 40
1.2083333333333581
 50
84.07496989200591
 51
232.47648680464988
  0
ARC
  8
_2-d_ハッチ他
  6
CONTINUOUS
 62
    4
 10
1078.9157854491939
 20
407.95406440145211
 40
1.2083333333333179
 50
256.05739256867611
 51
52.476486801880824
  0
LINE
  8
_2-d_ハッチ他
  6
CONTINUOUS
 62
    4
 10
1054.6723083093455
 20
376.41239772936456
 11
1074.6246377264013
 21
396.36472714641809
  0
LINE
  8
_2-d_ハッチ他
  6
CONTINUOUS
 62
    4
 10
1078.6246377263976
 20
400.36472714641786
 11
1084.6723083093455
 21
406.41239772936228
  0
LINE
  8
_2-d_ハッチ他
  6
CONTINUOUS
 62
    4
 10
1052.5515790143434
 20
406.41239772936456
 11
1074.6246377264013
 21
384.33933901731007
  0
LINE
  8
_2-d_ハッチ他
  6
CONTINUOUS
 62
    4
 10
1078.6246377263976
 20
380.33933901731029
 11
1082.5515790143434
 21
376.41239772936456
  0
LINE
  8
_2-2_in_line
  6
CONTINUOUS
 62
    7
 10
774.16246092911911
 20
411.41239772936228
 11
995.62463772640035
 21
411.41239772936228
  0
LINE
  8
_2-2_in_line
  6
CONTINUOUS
 62
    7
 10
1072.4996377264004
 20
428.41239772936274
 11
1086.6296667293634
 21
423.38838741719951
  0
LINE
  8
_2-2_in_line
  6
CONTINUOUS
 62
    7
 10
1067.6246377263985
 20
428.41239772936274
 11
1072.4996377264004
 21
428.41239772936274
  0
LINE
  8
_2-2_in_line
  6
CONTINUOUS
 62
    7
 10
1047.6246377263985
 20
433.41239772936274
 11
1047.6246377263985
 21
428.41239772936274
  0
LINE
  8
_2-2_in_line
  6
CONTINUOUS
 62
    7
 10
993.62463772640217
 20
433.41239772936274
 11
993.62463772640217
 21
428.41239772936274
  0
LINE
  8
_2-2_in_line
  6
CONTINUOUS
 62
    7
 10
1045.6246377264004
 20
416.41239772936228
 11
1156.2496377264004
 21
416.41239772936228
  0
LINE
  8
_2-2_in_line
  6
CONTINUOUS
 62
    7
 10
995.62463772640035
 20
416.41239772936228
 11
884.99963772640035
 21
416.41239772936228
  0
LINE
  8
_2-2_in_line
  6
CONTINUOUS
 62
    7
 10
774.16246092911911
 20
376.41239772936228
 11
1424.1624609291191
 21
376.41239772936228
  0
LINE
  8
_2-2_in_line
  6
CONTINUOUS
 62
    7
 10
774.16246092911911
 20
406.41239772936228
 11
995.62463772640035
 21
406.41239772936228
  0
LINE
  8
_2-2_in_line
  6
CONTINUOUS
 62
    7
 10
940.29959535921967
 20
418.29682710992142
 11
934.99963772640035
 21
416.41239772936228
  0
LINE
  8
_2-2_in_line
  6
CONTINUOUS
 62
    7
 10
1045.6246377264004
 20
411.41239772936228
 11
1074.6246377264013
 21
411.41239772936228
  0
LINE
  8
_2-2_in_line
  6
CONTINUOUS
 62
    7
 10
1078.6246377263976
 20
411.41239772936228
 11
1424.1624609291191
 21
411.41239772936228
  0
LINE
  8
_2-2_in_line
  6
CONTINUOUS
 62
    7
 10
1045.6246377264004
 20
406.41239772936228
 11
1074.6246377264013
 21
406.41239772936228
  0
LINE
  8
_2-2_in_line
  6
CONTINUOUS
 62
    7
 10
1078.6246377263976
 20
406.41239772936228
 11
1424.1624609291191
 21
406.41239772936228
  0
ARC
  8
_2-d_ハッチ他
  6
CONTINUOUS
 62
    4
 10
777.16395585901842
 20
1049.8707310684615
 40
1.2083333333333581
 50
307.52351320333912
 51
232.47648680464988
  0
ARC
  8
_2-d_ハッチ他
  6
CONTINUOUS
 62
    4
 10
778.63591600349514
 20
1047.9540644018614
 40
1.2083333333333179
 50
127.52351320610693
 51
52.47648680188081
  0
ARC
  8
_2-d_ハッチ他
  6
CONTINUOUS
 62
    4
 10
775.69199571480999
 20
1047.9540644016545
 40
1.2083333333333179
 50
127.52351320610693
 51
52.47648680188081
  0
ARC
  8
_2-d_ハッチ他
  6
CONTINUOUS
 62
    4
 10
794.82747759111567
 20
1049.8707310684615
 40
1.2083333333333581
 50
307.52351320333912
 51
232.47648680464988
  0
ARC
  8
_2-d_ハッチ他
  6
CONTINUOUS
 62
    4
 10
796.29943773559239
 20
1047.9540644018614
 40
1.2083333333333179
 50
127.52351320610693
 51
52.47648680188081
  0
ARC
  8
_2-d_ハッチ他
  6
CONTINUOUS
 62
    4
 10
791.88355730243507
 20
1049.8707310682546
 40
1.2083333333333581
 50
307.52351320333912
 51
232.47648680464988
  0
ARC
  8
_2-d_ハッチ他
  6
CONTINUOUS
 62
    4
 10
793.35551744691179
 20
1047.9540644016545
 40
1.2083333333333179
 50
127.52351320610693
 51
52.47648680188081
  0
ARC
  8
_2-d_ハッチ他
  6
CONTINUOUS
 62
    4
 10
788.93963701374992
 20
1049.87073106805
 40
1.2083333333333581
 50
307.52351320333912
 51
232.47648680464988
  0
ARC
  8
_2-d_ハッチ他
  6
CONTINUOUS
 62
    4
 10
790.41159715822664
 20
1047.9540644014498
 40
1.2083333333333179
 50
127.52351320610693
 51
52.47648680188081
  0
ARC
  8
_2-d_ハッチ他
  6
CONTINUOUS
 62
    4
 10
785.99571672506931
 20
1049.8707310678453
 40
1.2083333333333581
 50
307.52351320333912
 51
232.47648680464988
  0
ARC
  8
_2-d_ハッチ他
  6
CONTINUOUS
 62
    4
 10
787.46767686954149
 20
1047.9540644012452
 40
1.2083333333333179
 50
127.52351320610693
 51
52.47648680188081
  0
ARC
  8
_2-d_ハッチ他
  6
CONTINUOUS
 62
    4
 10
783.05179643638417
 20
1049.8707310676407
 40
1.2083333333333581
 50
307.52351320333912
 51
232.47648680464988
  0
ARC
  8
_2-d_ハッチ他
  6
CONTINUOUS
 62
    4
 10
784.52375658086089
 20
1047.9540644010406
 40
1.2083333333333179
 50
127.52351320610693
 51
52.47648680188081
  0
ARC
  8
_2-d_ハッチ他
  6
CONTINUOUS
 62
    4
 10
780.10787614769902
 20
1049.8707310674338
 40
1.2083333333333581
 50
307.52351320333912
 51
232.47648680464988
  0
ARC
  8
_2-d_ハッチ他
  6
CONTINUOUS
 62
    4
 10
781.57983629217574
 20
1047.9540644008359
 40
1.2083333333333179
 50
127.52351320610693
 51
52.47648680188081
  0
ARC
  8
_2-d_ハッチ他
  6
CONTINUOUS
 62
    4
 10
821.32276018926837
 20
1049.8707310684615
 40
1.2083333333333581
 50
307.52351320333912
 51
232.47648680464988
  0
ARC
  8
_2-d_ハッチ他
  6
CONTINUOUS
 62
    4
 10
822.79472033374509
 20
1047.9540644018614
 40
1.2083333333333179
 50
127.52351320610693
 51
52.47648680188081
  0
ARC
  8
_2-d_ハッチ他
  6
CONTINUOUS
 62
    4
 10
818.37883990058322
 20
1049.8707310682546
 40
1.2083333333333581
 50
307.52351320333912
 51
232.47648680464988
  0
ARC
  8
_2-d_ハッチ他
  6
CONTINUOUS
 62
    4
 10
819.85080004505994
 20
1047.9540644016545
 40
1.2083333333333179
 50
127.52351320610693
 51
52.47648680188081
  0
ARC
  8
_2-d_ハッチ他
  6
CONTINUOUS
 62
    4
 10
815.43491961190261
 20
1049.87073106805
 40
1.2083333333333581
 50
307.52351320333912
 51
232.47648680464988
  0
ARC
  8
_2-d_ハッチ他
  6
CONTINUOUS
 62
    4
 10
816.90687975637479
 20
1047.9540644014498
 40
1.2083333333333179
 50
127.52351320610693
 51
52.47648680188081
  0
ARC
  8
_2-d_ハッチ他
  6
CONTINUOUS
 62
    4
 10
812.49099932321747
 20
1049.8707310678453
 40
1.2083333333333581
 50
307.52351320333912
 51
232.47648680464988
  0
ARC
  8
_2-d_ハッチ他
  6
CONTINUOUS
 62
    4
 10
813.96295946769419
 20
1047.9540644012452
 40
1.2083333333333179
 50
127.52351320610693
 51
52.47648680188081
  0
ARC
  8
_2-d_ハッチ他
  6
CONTINUOUS
 62
    4
 10
809.54707903453232
 20
1049.8707310676407
 40
1.2083333333333581
 50
307.52351320333912
 51
232.47648680464988
  0
ARC
  8
_2-d_ハッチ他
  6
CONTINUOUS
 62
    4
 10
811.01903917900904
 20
1047.9540644010406
 40
1.2083333333333179
 50
127.52351320610693
 51
52.47648680188081
  0
ARC
  8
_2-d_ハッチ他
  6
CONTINUOUS
 62
    4
 10
806.60315874585172
 20
1049.8707310674338
 40
1.2083333333333581
 50
307.52351320333912
 51
232.47648680464988
  0
ARC
  8
_2-d_ハッチ他
  6
CONTINUOUS
 62
    4
 10
808.07511889032844
 20
1047.9540644008359
 40
1.2083333333333179
 50
127.52351320610693
 51
52.47648680188081
  0
ARC
  8
_2-d_ハッチ他
  6
CONTINUOUS
 62
    4
 10
800.71531816848596
 20
1049.8707310670245
 40
1.2083333333333581
 50
307.52351320333912
 51
232.47648680464988
  0
ARC
  8
_2-d_ハッチ他
  6
CONTINUOUS
 62
    4
 10
803.65923845716657
 20
1049.8707310672291
 40
1.2083333333333581
 50
307.52351320333912
 51
232.47648680464988
  0
ARC
  8
_2-d_ハッチ他
  6
CONTINUOUS
 62
    4
 10
802.18727831295814
 20
1047.9540644004244
 40
1.2083333333333179
 50
127.52351320610693
 51
52.47648680188081
  0
ARC
  8
_2-d_ハッチ他
  6
CONTINUOUS
 62
    4
 10
805.13119860164329
 20
1047.954064400629
 40
1.2083333333333179
 50
127.52351320610693
 51
52.47648680188081
  0
ARC
  8
_2-d_ハッチ他
  6
CONTINUOUS
 62
    4
 10
799.24335802427754
 20
1047.9540644002197
 40
1.2083333333333179
 50
127.52351320610693
 51
52.47648680188081
  0
ARC
  8
_2-d_ハッチ他
  6
CONTINUOUS
 62
    4
 10
797.77139787980082
 20
1049.8707310668199
 40
1.2083333333333581
 50
307.52351320333912
 51
232.47648680464988
  0
ARC
  8
_2-d_ハッチ他
  6
CONTINUOUS
 62
    4
 10
847.81804278741652
 20
1049.8707310684615
 40
1.2083333333333581
 50
307.52351320333912
 51
232.47648680464988
  0
ARC
  8
_2-d_ハッチ他
  6
CONTINUOUS
 62
    4
 10
849.29000293189324
 20
1047.9540644018614
 40
1.2083333333333179
 50
127.52351320610693
 51
52.47648680188081
  0
ARC
  8
_2-d_ハッチ他
  6
CONTINUOUS
 62
    4
 10
844.87412249873591
 20
1049.8707310682546
 40
1.2083333333333581
 50
307.52351320333912
 51
232.47648680464988
  0
ARC
  8
_2-d_ハッチ他
  6
CONTINUOUS
 62
    4
 10
846.34608264320809
 20
1047.9540644016545
 40
1.2083333333333179
 50
127.52351320610693
 51
52.47648680188081
  0
ARC
  8
_2-d_ハッチ他
  6
CONTINUOUS
 62
    4
 10
841.93020221005077
 20
1049.87073106805
 40
1.2083333333333581
 50
307.52351320333912
 51
232.47648680464988
  0
ARC
  8
_2-d_ハッチ他
  6
CONTINUOUS
 62
    4
 10
843.40216235452749
 20
1047.9540644014498
 40
1.2083333333333179
 50
127.52351320610693
 51
52.47648680188081
  0
ARC
  8
_2-d_ハッチ他
  6
CONTINUOUS
 62
    4
 10
838.98628192137016
 20
1049.8707310678453
 40
1.2083333333333581
 50
307.52351320333912
 51
232.47648680464988
  0
ARC
  8
_2-d_ハッチ他
  6
CONTINUOUS
 62
    4
 10
840.45824206584234
 20
1047.9540644012452
 40
1.2083333333333179
 50
127.52351320610693
 51
52.47648680188081
  0
ARC
  8
_2-d_ハッチ他
  6
CONTINUOUS
 62
    4
 10
836.04236163268502
 20
1049.8707310676407
 40
1.2083333333333581
 50
307.52351320333912
 51
232.47648680464988
  0
ARC
  8
_2-d_ハッチ他
  6
CONTINUOUS
 62
    4
 10
837.51432177716174
 20
1047.9540644010406
 40
1.2083333333333179
 50
127.52351320610693
 51
52.47648680188081
  0
ARC
  8
_2-d_ハッチ他
  6
CONTINUOUS
 62
    4
 10
833.09844134399987
 20
1049.8707310674338
 40
1.2083333333333581
 50
307.52351320333912
 51
232.47648680464988
  0
ARC
  8
_2-d_ハッチ他
  6
CONTINUOUS
 62
    4
 10
834.57040148847659
 20
1047.9540644008359
 40
1.2083333333333179
 50
127.52351320610693
 51
52.47648680188081
  0
ARC
  8
_2-d_ハッチ他
  6
CONTINUOUS
 62
    4
 10
827.21060076663412
 20
1049.8707310670245
 40
1.2083333333333581
 50
307.52351320333912
 51
232.47648680464988
  0
ARC
  8
_2-d_ハッチ他
  6
CONTINUOUS
 62
    4
 10
830.15452105531926
 20
1049.8707310672291
 40
1.2083333333333581
 50
307.52351320333912
 51
232.47648680464988
  0
ARC
  8
_2-d_ハッチ他
  6
CONTINUOUS
 62
    4
 10
828.68256091111084
 20
1047.9540644004244
 40
1.2083333333333179
 50
127.52351320610693
 51
52.47648680188081
  0
ARC
  8
_2-d_ハッチ他
  6
CONTINUOUS
 62
    4
 10
831.62648119979144
 20
1047.954064400629
 40
1.2083333333333179
 50
127.52351320610693
 51
52.47648680188081
  0
ARC
  8
_2-d_ハッチ他
  6
CONTINUOUS
 62
    4
 10
825.73864062242569
 20
1047.9540644002197
 40
1.2083333333333179
 50
127.52351320610693
 51
52.47648680188081
  0
ARC
  8
_2-d_ハッチ他
  6
CONTINUOUS
 62
    4
 10
824.26668047794897
 20
1049.8707310668199
 40
1.2083333333333581
 50
307.52351320333912
 51
232.47648680464988
  0
ARC
  8
_2-d_ハッチ他
  6
CONTINUOUS
 62
    4
 10
852.23392322057839
 20
1047.9540644014498
 40
1.2083333333333179
 50
127.52351320610693
 51
52.47648680188081
  0
ARC
  8
_2-d_ハッチ他
  6
CONTINUOUS
 62
    4
 10
850.76196307610167
 20
1049.87073106805
 40
1.2083333333333581
 50
307.52351320333912
 51
232.47648680464988
  0
ARC
  8
_2-d_ハッチ他
  6
CONTINUOUS
 62
    4
 10
877.25724567424982
 20
1049.8707310684615
 40
1.2083333333333581
 50
307.52351320333912
 51
232.47648680464988
  0
ARC
  8
_2-d_ハッチ他
  6
CONTINUOUS
 62
    4
 10
878.72920581872654
 20
1047.9540644018614
 40
1.2083333333333179
 50
127.52351320610693
 51
52.47648680188081
  0
ARC
  8
_2-d_ハッチ他
  6
CONTINUOUS
 62
    4
 10
874.31332538556921
 20
1049.8707310682546
 40
1.2083333333333581
 50
307.52351320333912
 51
232.47648680464988
  0
ARC
  8
_2-d_ハッチ他
  6
CONTINUOUS
 62
    4
 10
875.78528553004139
 20
1047.9540644016545
 40
1.2083333333333179
 50
127.52351320610693
 51
52.47648680188081
  0
ARC
  8
_2-d_ハッチ他
  6
CONTINUOUS
 62
    4
 10
871.36940509688407
 20
1049.87073106805
 40
1.2083333333333581
 50
307.52351320333912
 51
232.47648680464988
  0
ARC
  8
_2-d_ハッチ他
  6
CONTINUOUS
 62
    4
 10
872.84136524136079
 20
1047.9540644014498
 40
1.2083333333333179
 50
127.52351320610693
 51
52.47648680188081
  0
ARC
  8
_2-d_ハッチ他
  6
CONTINUOUS
 62
    4
 10
868.42548480820346
 20
1049.8707310678453
 40
1.2083333333333581
 50
307.52351320333912
 51
232.47648680464988
  0
ARC
  8
_2-d_ハッチ他
  6
CONTINUOUS
 62
    4
 10
869.89744495267564
 20
1047.9540644012452
 40
1.2083333333333179
 50
127.52351320610693
 51
52.47648680188081
  0
ARC
  8
_2-d_ハッチ他
  6
CONTINUOUS
 62
    4
 10
865.48156451951832
 20
1049.8707310676407
 40
1.2083333333333581
 50
307.52351320333912
 51
232.47648680464988
  0
ARC
  8
_2-d_ハッチ他
  6
CONTINUOUS
 62
    4
 10
866.95352466399504
 20
1047.9540644010406
 40
1.2083333333333179
 50
127.52351320610693
 51
52.47648680188081
  0
ARC
  8
_2-d_ハッチ他
  6
CONTINUOUS
 62
    4
 10
862.53764423083317
 20
1049.8707310674338
 40
1.2083333333333581
 50
307.52351320333912
 51
232.47648680464988
  0
ARC
  8
_2-d_ハッチ他
  6
CONTINUOUS
 62
    4
 10
864.00960437530989
 20
1047.9540644008359
 40
1.2083333333333179
 50
127.52351320610693
 51
52.47648680188081
  0
ARC
  8
_2-d_ハッチ他
  6
CONTINUOUS
 62
    4
 10
856.64980365346742
 20
1049.8707310670245
 40
1.2083333333333581
 50
307.52351320333912
 51
232.47648680464988
  0
ARC
  8
_2-d_ハッチ他
  6
CONTINUOUS
 62
    4
 10
859.59372394215256
 20
1049.8707310672291
 40
1.2083333333333581
 50
307.52351320333912
 51
232.47648680464988
  0
ARC
  8
_2-d_ハッチ他
  6
CONTINUOUS
 62
    4
 10
858.12176379794414
 20
1047.9540644004244
 40
1.2083333333333179
 50
127.52351320610693
 51
52.47648680188081
  0
ARC
  8
_2-d_ハッチ他
  6
CONTINUOUS
 62
    4
 10
861.06568408662474
 20
1047.954064400629
 40
1.2083333333333179
 50
127.52351320610693
 51
52.47648680188081
  0
ARC
  8
_2-d_ハッチ他
  6
CONTINUOUS
 62
    4
 10
855.17784350925899
 20
1047.9540644002197
 40
1.2083333333333179
 50
127.52351320610693
 51
52.47648680188081
  0
ARC
  8
_2-d_ハッチ他
  6
CONTINUOUS
 62
    4
 10
853.70588336478681
 20
1049.8707310668199
 40
1.2083333333333581
 50
307.52351320333912
 51
232.47648680464988
  0
ARC
  8
_2-d_ハッチ他
  6
CONTINUOUS
 62
    4
 10
903.75252827240251
 20
1049.8707310684615
 40
1.2083333333333581
 50
307.52351320333912
 51
232.47648680464988
  0
ARC
  8
_2-d_ハッチ他
  6
CONTINUOUS
 62
    4
 10
905.22448841687924
 20
1047.9540644018614
 40
1.2083333333333179
 50
127.52351320610693
 51
52.47648680188081
  0
ARC
  8
_2-d_ハッチ他
  6
CONTINUOUS
 62
    4
 10
900.80860798371737
 20
1049.8707310682546
 40
1.2083333333333581
 50
307.52351320333912
 51
232.47648680464988
  0
ARC
  8
_2-d_ハッチ他
  6
CONTINUOUS
 62
    4
 10
902.28056812819409
 20
1047.9540644016545
 40
1.2083333333333179
 50
127.52351320610693
 51
52.47648680188081
  0
ARC
  8
_2-d_ハッチ他
  6
CONTINUOUS
 62
    4
 10
897.86468769503676
 20
1049.87073106805
 40
1.2083333333333581
 50
307.52351320333912
 51
232.47648680464988
  0
ARC
  8
_2-d_ハッチ他
  6
CONTINUOUS
 62
    4
 10
899.33664783950894
 20
1047.9540644014498
 40
1.2083333333333179
 50
127.52351320610693
 51
52.47648680188081
  0
ARC
  8
_2-d_ハッチ他
  6
CONTINUOUS
 62
    4
 10
894.92076740635162
 20
1049.8707310678453
 40
1.2083333333333581
 50
307.52351320333912
 51
232.47648680464988
  0
ARC
  8
_2-d_ハッチ他
  6
CONTINUOUS
 62
    4
 10
896.39272755082834
 20
1047.9540644012452
 40
1.2083333333333179
 50
127.52351320610693
 51
52.47648680188081
  0
ARC
  8
_2-d_ハッチ他
  6
CONTINUOUS
 62
    4
 10
891.97684711766647
 20
1049.8707310676407
 40
1.2083333333333581
 50
307.52351320333912
 51
232.47648680464988
  0
ARC
  8
_2-d_ハッチ他
  6
CONTINUOUS
 62
    4
 10
893.44880726214319
 20
1047.9540644010406
 40
1.2083333333333179
 50
127.52351320610693
 51
52.47648680188081
  0
ARC
  8
_2-d_ハッチ他
  6
CONTINUOUS
 62
    4
 10
889.03292682898586
 20
1049.8707310674338
 40
1.2083333333333581
 50
307.52351320333912
 51
232.47648680464988
  0
ARC
  8
_2-d_ハッチ他
  6
CONTINUOUS
 62
    4
 10
890.50488697346259
 20
1047.9540644008359
 40
1.2083333333333179
 50
127.52351320610693
 51
52.47648680188081
  0
ARC
  8
_2-d_ハッチ他
  6
CONTINUOUS
 62
    4
 10
883.14508625162011
 20
1049.8707310670245
 40
1.2083333333333581
 50
307.52351320333912
 51
232.47648680464988
  0
ARC
  8
_2-d_ハッチ他
  6
CONTINUOUS
 62
    4
 10
886.08900654030072
 20
1049.8707310672291
 40
1.2083333333333581
 50
307.52351320333912
 51
232.47648680464988
  0
ARC
  8
_2-d_ハッチ他
  6
CONTINUOUS
 62
    4
 10
884.61704639609229
 20
1047.9540644004244
 40
1.2083333333333179
 50
127.52351320610693
 51
52.47648680188081
  0
ARC
  8
_2-d_ハッチ他
  6
CONTINUOUS
 62
    4
 10
887.56096668477744
 20
1047.954064400629
 40
1.2083333333333179
 50
127.52351320610693
 51
52.47648680188081
  0
ARC
  8
_2-d_ハッチ他
  6
CONTINUOUS
 62
    4
 10
881.67312610741169
 20
1047.9540644002197
 40
1.2083333333333179
 50
127.52351320610693
 51
52.47648680188081
  0
ARC
  8
_2-d_ハッチ他
  6
CONTINUOUS
 62
    4
 10
880.20116596293497
 20
1049.8707310668199
 40
1.2083333333333581
 50
307.52351320333912
 51
232.47648680464988
  0
ARC
  8
_2-d_ハッチ他
  6
CONTINUOUS
 62
    4
 10
930.24781087055067
 20
1049.8707310684615
 40
1.2083333333333581
 50
307.52351320333912
 51
232.47648680464988
  0
ARC
  8
_2-d_ハッチ他
  6
CONTINUOUS
 62
    4
 10
931.71977101502739
 20
1047.9540644018614
 40
1.2083333333333179
 50
127.52351320610693
 51
52.47648680188081
  0
ARC
  8
_2-d_ハッチ他
  6
CONTINUOUS
 62
    4
 10
927.30389058187006
 20
1049.8707310682546
 40
1.2083333333333581
 50
307.52351320333912
 51
232.47648680464988
  0
ARC
  8
_2-d_ハッチ他
  6
CONTINUOUS
 62
    4
 10
928.77585072634224
 20
1047.9540644016545
 40
1.2083333333333179
 50
127.52351320610693
 51
52.47648680188081
  0
ARC
  8
_2-d_ハッチ他
  6
CONTINUOUS
 62
    4
 10
924.35997029318492
 20
1049.87073106805
 40
1.2083333333333581
 50
307.52351320333912
 51
232.47648680464988
  0
ARC
  8
_2-d_ハッチ他
  6
CONTINUOUS
 62
    4
 10
925.83193043766164
 20
1047.9540644014498
 40
1.2083333333333179
 50
127.52351320610693
 51
52.47648680188081
  0
ARC
  8
_2-d_ハッチ他
  6
CONTINUOUS
 62
    4
 10
921.41605000450431
 20
1049.8707310678453
 40
1.2083333333333581
 50
307.52351320333912
 51
232.47648680464988
  0
ARC
  8
_2-d_ハッチ他
  6
CONTINUOUS
 62
    4
 10
922.88801014897649
 20
1047.9540644012452
 40
1.2083333333333179
 50
127.52351320610693
 51
52.47648680188081
  0
ARC
  8
_2-d_ハッチ他
  6
CONTINUOUS
 62
    4
 10
918.47212971581916
 20
1049.8707310676407
 40
1.2083333333333581
 50
307.52351320333912
 51
232.47648680464988
  0
ARC
  8
_2-d_ハッチ他
  6
CONTINUOUS
 62
    4
 10
919.94408986029589
 20
1047.9540644010406
 40
1.2083333333333179
 50
127.52351320610693
 51
52.47648680188081
  0
ARC
  8
_2-d_ハッチ他
  6
CONTINUOUS
 62
    4
 10
915.52820942713402
 20
1049.8707310674338
 40
1.2083333333333581
 50
307.52351320333912
 51
232.47648680464988
  0
ARC
  8
_2-d_ハッチ他
  6
CONTINUOUS
 62
    4
 10
917.00016957161074
 20
1047.9540644008359
 40
1.2083333333333179
 50
127.52351320610693
 51
52.47648680188081
  0
ARC
  8
_2-d_ハッチ他
  6
CONTINUOUS
 62
    4
 10
909.64036884976827
 20
1049.8707310670245
 40
1.2083333333333581
 50
307.52351320333912
 51
232.47648680464988
  0
ARC
  8
_2-d_ハッチ他
  6
CONTINUOUS
 62
    4
 10
912.58428913845341
 20
1049.8707310672291
 40
1.2083333333333581
 50
307.52351320333912
 51
232.47648680464988
  0
ARC
  8
_2-d_ハッチ他
  6
CONTINUOUS
 62
    4
 10
911.11232899424499
 20
1047.9540644004244
 40
1.2083333333333179
 50
127.52351320610693
 51
52.47648680188081
  0
ARC
  8
_2-d_ハッチ他
  6
CONTINUOUS
 62
    4
 10
914.05624928292559
 20
1047.954064400629
 40
1.2083333333333179
 50
127.52351320610693
 51
52.47648680188081
  0
ARC
  8
_2-d_ハッチ他
  6
CONTINUOUS
 62
    4
 10
908.16840870555984
 20
1047.9540644002197
 40
1.2083333333333179
 50
127.52351320610693
 51
52.47648680188081
  0
ARC
  8
_2-d_ハッチ他
  6
CONTINUOUS
 62
    4
 10
906.69644856108312
 20
1049.8707310668199
 40
1.2083333333333581
 50
307.52351320333912
 51
232.47648680464988
  0
ARC
  8
_2-d_ハッチ他
  6
CONTINUOUS
 62
    4
 10
947.91133260265246
 20
1049.8707310684615
 40
1.2083333333333581
 50
307.52351320333912
 51
232.47648680464988
  0
ARC
  8
_2-d_ハッチ他
  6
CONTINUOUS
 62
    4
 10
949.38329274712919
 20
1047.9540644018614
 40
1.2083333333333179
 50
127.52351320610693
 51
52.47648680188081
  0
ARC
  8
_2-d_ハッチ他
  6
CONTINUOUS
 62
    4
 10
944.96741231396732
 20
1049.8707310682546
 40
1.2083333333333581
 50
307.52351320333912
 51
232.47648680464988
  0
ARC
  8
_2-d_ハッチ他
  6
CONTINUOUS
 62
    4
 10
946.43937245844404
 20
1047.9540644016545
 40
1.2083333333333179
 50
127.52351320610693
 51
52.47648680188081
  0
ARC
  8
_2-d_ハッチ他
  6
CONTINUOUS
 62
    4
 10
942.02349202528671
 20
1049.87073106805
 40
1.2083333333333581
 50
307.52351320333912
 51
232.47648680464988
  0
ARC
  8
_2-d_ハッチ他
  6
CONTINUOUS
 62
    4
 10
943.49545216975889
 20
1047.9540644014498
 40
1.2083333333333179
 50
127.52351320610693
 51
52.47648680188081
  0
ARC
  8
_2-d_ハッチ他
  6
CONTINUOUS
 62
    4
 10
939.07957173660157
 20
1049.8707310678453
 40
1.2083333333333581
 50
307.52351320333912
 51
232.47648680464988
  0
ARC
  8
_2-d_ハッチ他
  6
CONTINUOUS
 62
    4
 10
940.55153188107829
 20
1047.9540644012452
 40
1.2083333333333179
 50
127.52351320610693
 51
52.47648680188081
  0
ARC
  8
_2-d_ハッチ他
  6
CONTINUOUS
 62
    4
 10
936.13565144792096
 20
1049.8707310676407
 40
1.2083333333333581
 50
307.52351320333912
 51
232.47648680464988
  0
ARC
  8
_2-d_ハッチ他
  6
CONTINUOUS
 62
    4
 10
937.60761159239314
 20
1047.9540644010406
 40
1.2083333333333179
 50
127.52351320610693
 51
52.47648680188081
  0
ARC
  8
_2-d_ハッチ他
  6
CONTINUOUS
 62
    4
 10
933.19173115923581
 20
1049.8707310674338
 40
1.2083333333333581
 50
307.52351320333912
 51
232.47648680464988
  0
ARC
  8
_2-d_ハッチ他
  6
CONTINUOUS
 62
    4
 10
934.66369130371254
 20
1047.9540644008359
 40
1.2083333333333179
 50
127.52351320610693
 51
52.47648680188081
  0
ARC
  8
_2-d_ハッチ他
  6
CONTINUOUS
 62
    4
 10
974.40661520080062
 20
1049.8707310684615
 40
1.2083333333333581
 50
307.52351320333912
 51
232.47648680464988
  0
ARC
  8
_2-d_ハッチ他
  6
CONTINUOUS
 62
    4
 10
975.87857534527734
 20
1047.9540644018614
 40
1.2083333333333179
 50
127.52351320610693
 51
52.47648680188081
  0
ARC
  8
_2-d_ハッチ他
  6
CONTINUOUS
 62
    4
 10
971.46269491212001
 20
1049.8707310682546
 40
1.2083333333333581
 50
307.52351320333912
 51
232.47648680464988
  0
ARC
  8
_2-d_ハッチ他
  6
CONTINUOUS
 62
    4
 10
972.93465505659219
 20
1047.9540644016545
 40
1.2083333333333179
 50
127.52351320610693
 51
52.47648680188081
  0
ARC
  8
_2-d_ハッチ他
  6
CONTINUOUS
 62
    4
 10
968.51877462343487
 20
1049.87073106805
 40
1.2083333333333581
 50
307.52351320333912
 51
232.47648680464988
  0
ARC
  8
_2-d_ハッチ他
  6
CONTINUOUS
 62
    4
 10
969.99073476791159
 20
1047.9540644014498
 40
1.2083333333333179
 50
127.52351320610693
 51
52.47648680188081
  0
ARC
  8
_2-d_ハッチ他
  6
CONTINUOUS
 62
    4
 10
965.57485433475426
 20
1049.8707310678453
 40
1.2083333333333581
 50
307.52351320333912
 51
232.47648680464988
  0
ARC
  8
_2-d_ハッチ他
  6
CONTINUOUS
 62
    4
 10
967.04681447922644
 20
1047.9540644012452
 40
1.2083333333333179
 50
127.52351320610693
 51
52.47648680188081
  0
ARC
  8
_2-d_ハッチ他
  6
CONTINUOUS
 62
    4
 10
962.63093404606911
 20
1049.8707310676407
 40
1.2083333333333581
 50
307.52351320333912
 51
232.47648680464988
  0
ARC
  8
_2-d_ハッチ他
  6
CONTINUOUS
 62
    4
 10
964.10289419054584
 20
1047.9540644010406
 40
1.2083333333333179
 50
127.52351320610693
 51
52.47648680188081
  0
ARC
  8
_2-d_ハッチ他
  6
CONTINUOUS
 62
    4
 10
959.68701375738397
 20
1049.8707310674338
 40
1.2083333333333581
 50
307.52351320333912
 51
232.47648680464988
  0
ARC
  8
_2-d_ハッチ他
  6
CONTINUOUS
 62
    4
 10
961.15897390186069
 20
1047.9540644008359
 40
1.2083333333333179
 50
127.52351320610693
 51
52.47648680188081
  0
ARC
  8
_2-d_ハッチ他
  6
CONTINUOUS
 62
    4
 10
953.79917318001822
 20
1049.8707310670245
 40
1.2083333333333581
 50
307.52351320333912
 51
232.47648680464988
  0
ARC
  8
_2-d_ハッチ他
  6
CONTINUOUS
 62
    4
 10
956.74309346870336
 20
1049.8707310672291
 40
1.2083333333333581
 50
307.52351320333912
 51
232.47648680464988
  0
ARC
  8
_2-d_ハッチ他
  6
CONTINUOUS
 62
    4
 10
955.27113332449494
 20
1047.9540644004244
 40
1.2083333333333179
 50
127.52351320610693
 51
52.47648680188081
  0
ARC
  8
_2-d_ハッチ他
  6
CONTINUOUS
 62
    4
 10
958.21505361317554
 20
1047.954064400629
 40
1.2083333333333179
 50
127.52351320610693
 51
52.47648680188081
  0
ARC
  8
_2-d_ハッチ他
  6
CONTINUOUS
 62
    4
 10
952.32721303580979
 20
1047.9540644002197
 40
1.2083333333333179
 50
127.52351320610693
 51
52.47648680188081
  0
ARC
  8
_2-d_ハッチ他
  6
CONTINUOUS
 62
    4
 10
950.85525289133761
 20
1049.8707310668199
 40
1.2083333333333581
 50
307.52351320333912
 51
232.47648680464988
  0
ARC
  8
_2-d_ハッチ他
  6
CONTINUOUS
 62
    4
 10
992.07013693290241
 20
1049.8707310678453
 40
1.2083333333333581
 50
307.52351320333912
 51
232.47648680464988
  0
ARC
  8
_2-d_ハッチ他
  6
CONTINUOUS
 62
    4
 10
993.54209707737914
 20
1047.9540644012452
 40
1.2083333333333179
 50
127.52351320610693
 51
52.47648680188081
  0
ARC
  8
_2-d_ハッチ他
  6
CONTINUOUS
 62
    4
 10
989.12621664421727
 20
1049.8707310676407
 40
1.2083333333333581
 50
307.52351320333912
 51
232.47648680464988
  0
ARC
  8
_2-d_ハッチ他
  6
CONTINUOUS
 62
    4
 10
990.59817678869399
 20
1047.9540644010406
 40
1.2083333333333179
 50
127.52351320610693
 51
52.47648680188081
  0
ARC
  8
_2-d_ハッチ他
  6
CONTINUOUS
 62
    4
 10
986.18229635553666
 20
1049.8707310674338
 40
1.2083333333333581
 50
307.52351320333912
 51
232.47648680464988
  0
ARC
  8
_2-d_ハッチ他
  6
CONTINUOUS
 62
    4
 10
987.65425650000884
 20
1047.9540644008359
 40
1.2083333333333179
 50
127.52351320610693
 51
52.47648680188081
  0
ARC
  8
_2-d_ハッチ他
  6
CONTINUOUS
 62
    4
 10
980.29445577817091
 20
1049.8707310670245
 40
1.2083333333333581
 50
307.52351320333912
 51
232.47648680464988
  0
ARC
  8
_2-d_ハッチ他
  6
CONTINUOUS
 62
    4
 10
983.23837606685152
 20
1049.8707310672291
 40
1.2083333333333581
 50
307.52351320333912
 51
232.47648680464988
  0
ARC
  8
_2-d_ハッチ他
  6
CONTINUOUS
 62
    4
 10
981.76641592264309
 20
1047.9540644004244
 40
1.2083333333333179
 50
127.52351320610693
 51
52.47648680188081
  0
ARC
  8
_2-d_ハッチ他
  6
CONTINUOUS
 62
    4
 10
984.71033621132824
 20
1047.954064400629
 40
1.2083333333333179
 50
127.52351320610693
 51
52.47648680188081
  0
ARC
  8
_2-d_ハッチ他
  6
CONTINUOUS
 62
    4
 10
978.82249563396249
 20
1047.9540644002197
 40
1.2083333333333179
 50
127.52351320610693
 51
52.47648680188081
  0
ARC
  8
_2-d_ハッチ他
  6
CONTINUOUS
 62
    4
 10
977.35053548948576
 20
1049.8707310668199
 40
1.2083333333333581
 50
307.52351320333912
 51
232.47648680464988
  0
ARC
  8
_2-d_ハッチ他
  6
CONTINUOUS
 62
    4
 10
1056.8363832839348
 20
1049.8707310684615
 40
1.2083333333333581
 50
307.52351320333912
 51
232.47648680464988
  0
ARC
  8
_2-d_ハッチ他
  6
CONTINUOUS
 62
    4
 10
1058.3083434284115
 20
1047.9540644018614
 40
1.2083333333333179
 50
127.52351320610693
 51
52.47648680188081
  0
ARC
  8
_2-d_ハッチ他
  6
CONTINUOUS
 62
    4
 10
1053.8924629952542
 20
1049.8707310682546
 40
1.2083333333333581
 50
307.52351320333912
 51
232.47648680464988
  0
ARC
  8
_2-d_ハッチ他
  6
CONTINUOUS
 62
    4
 10
1055.3644231397263
 20
1047.9540644016545
 40
1.2083333333333179
 50
127.52351320610693
 51
52.47648680188081
  0
ARC
  8
_2-d_ハッチ他
  6
CONTINUOUS
 62
    4
 10
1050.948542706569
 20
1049.87073106805
 40
1.2083333333333581
 50
307.52351320333912
 51
232.47648680464988
  0
ARC
  8
_2-d_ハッチ他
  6
CONTINUOUS
 62
    4
 10
1052.4205028510457
 20
1047.9540644014498
 40
1.2083333333333179
 50
127.52351320610693
 51
52.47648680188081
  0
ARC
  8
_2-d_ハッチ他
  6
CONTINUOUS
 62
    4
 10
1048.0046224178839
 20
1049.8707310678453
 40
1.2083333333333581
 50
307.52351320333912
 51
232.47648680464988
  0
ARC
  8
_2-d_ハッチ他
  6
CONTINUOUS
 62
    4
 10
1049.4765825623606
 20
1047.9540644012452
 40
1.2083333333333179
 50
127.52351320610693
 51
52.47648680188081
  0
ARC
  8
_2-d_ハッチ他
  6
CONTINUOUS
 62
    4
 10
1083.3316658820875
 20
1049.8707310684615
 40
1.2083333333333581
 50
307.52351320333912
 51
232.47648680464988
  0
ARC
  8
_2-d_ハッチ他
  6
CONTINUOUS
 62
    4
 10
1084.8036260265596
 20
1047.9540644018614
 40
1.2083333333333179
 50
127.52351320610693
 51
52.47648680188081
  0
ARC
  8
_2-d_ハッチ他
  6
CONTINUOUS
 62
    4
 10
1080.3877455934023
 20
1049.8707310682546
 40
1.2083333333333581
 50
307.52351320333912
 51
232.47648680464988
  0
ARC
  8
_2-d_ハッチ他
  6
CONTINUOUS
 62
    4
 10
1081.859705737879
 20
1047.9540644016545
 40
1.2083333333333179
 50
127.52351320610693
 51
52.47648680188081
  0
ARC
  8
_2-d_ハッチ他
  6
CONTINUOUS
 62
    4
 10
1077.4438253047172
 20
1049.87073106805
 40
1.2083333333333581
 50
307.52351320333912
 51
232.47648680464988
  0
ARC
  8
_2-d_ハッチ他
  6
CONTINUOUS
 62
    4
 10
1078.9157854491939
 20
1047.9540644014498
 40
1.2083333333333179
 50
127.52351320610693
 51
52.47648680188081
  0
ARC
  8
_2-d_ハッチ他
  6
CONTINUOUS
 62
    4
 10
1074.4999050160366
 20
1049.8707310678453
 40
1.2083333333333581
 50
307.52351320333912
 51
232.47648680464988
  0
ARC
  8
_2-d_ハッチ他
  6
CONTINUOUS
 62
    4
 10
1075.9718651605087
 20
1047.9540644012452
 40
1.2083333333333179
 50
127.52351320610693
 51
52.47648680188081
  0
ARC
  8
_2-d_ハッチ他
  6
CONTINUOUS
 62
    4
 10
1071.5559847273514
 20
1049.8707310676407
 40
1.2083333333333581
 50
307.52351320333912
 51
232.47648680464988
  0
ARC
  8
_2-d_ハッチ他
  6
CONTINUOUS
 62
    4
 10
1073.0279448718281
 20
1047.9540644010406
 40
1.2083333333333179
 50
127.52351320610693
 51
52.47648680188081
  0
ARC
  8
_2-d_ハッチ他
  6
CONTINUOUS
 62
    4
 10
1068.6120644386708
 20
1049.8707310674338
 40
1.2083333333333581
 50
307.52351320333912
 51
232.47648680464988
  0
ARC
  8
_2-d_ハッチ他
  6
CONTINUOUS
 62
    4
 10
1070.084024583143
 20
1047.9540644008359
 40
1.2083333333333179
 50
127.52351320610693
 51
52.47648680188081
  0
ARC
  8
_2-d_ハッチ他
  6
CONTINUOUS
 62
    4
 10
1062.7242238613005
 20
1049.8707310670245
 40
1.2083333333333581
 50
307.52351320333912
 51
232.47648680464988
  0
ARC
  8
_2-d_ハッチ他
  6
CONTINUOUS
 62
    4
 10
1065.6681441499857
 20
1049.8707310672291
 40
1.2083333333333581
 50
307.52351320333912
 51
232.47648680464988
  0
ARC
  8
_2-d_ハッチ他
  6
CONTINUOUS
 62
    4
 10
1064.1961840057772
 20
1047.9540644004244
 40
1.2083333333333179
 50
127.52351320610693
 51
52.47648680188081
  0
ARC
  8
_2-d_ハッチ他
  6
CONTINUOUS
 62
    4
 10
1067.1401042944624
 20
1047.954064400629
 40
1.2083333333333179
 50
127.52351320610693
 51
52.47648680188081
  0
ARC
  8
_2-d_ハッチ他
  6
CONTINUOUS
 62
    4
 10
1061.2522637170921
 20
1047.9540644002197
 40
1.2083333333333179
 50
127.52351320610693
 51
52.47648680188081
  0
ARC
  8
_2-d_ハッチ他
  6
CONTINUOUS
 62
    4
 10
1059.7803035726199
 20
1049.8707310668199
 40
1.2083333333333581
 50
307.52351320333912
 51
232.47648680464988
  0
ARC
  8
_2-d_ハッチ他
  6
CONTINUOUS
 62
    4
 10
1100.9951876141847
 20
1049.8707310684615
 40
1.2083333333333581
 50
307.52351320333912
 51
232.47648680464988
  0
ARC
  8
_2-d_ハッチ他
  6
CONTINUOUS
 62
    4
 10
1102.4671477586614
 20
1047.9540644018614
 40
1.2083333333333179
 50
127.52351320610693
 51
52.47648680188081
  0
ARC
  8
_2-d_ハッチ他
  6
CONTINUOUS
 62
    4
 10
1098.0512673255041
 20
1049.8707310682546
 40
1.2083333333333581
 50
307.52351320333912
 51
232.47648680464988
  0
ARC
  8
_2-d_ハッチ他
  6
CONTINUOUS
 62
    4
 10
1099.5232274699763
 20
1047.9540644016545
 40
1.2083333333333179
 50
127.52351320610693
 51
52.47648680188081
  0
ARC
  8
_2-d_ハッチ他
  6
CONTINUOUS
 62
    4
 10
1095.107347036819
 20
1049.87073106805
 40
1.2083333333333581
 50
307.52351320333912
 51
232.47648680464988
  0
ARC
  8
_2-d_ハッチ他
  6
CONTINUOUS
 62
    4
 10
1096.5793071812957
 20
1047.9540644014498
 40
1.2083333333333179
 50
127.52351320610693
 51
52.47648680188081
  0
ARC
  8
_2-d_ハッチ他
  6
CONTINUOUS
 62
    4
 10
1092.1634267481338
 20
1049.8707310678453
 40
1.2083333333333581
 50
307.52351320333912
 51
232.47648680464988
  0
ARC
  8
_2-d_ハッチ他
  6
CONTINUOUS
 62
    4
 10
1093.6353868926105
 20
1047.9540644012452
 40
1.2083333333333179
 50
127.52351320610693
 51
52.47648680188081
  0
ARC
  8
_2-d_ハッチ他
  6
CONTINUOUS
 62
    4
 10
1089.2195064594532
 20
1049.8707310676407
 40
1.2083333333333581
 50
307.52351320333912
 51
232.47648680464988
  0
ARC
  8
_2-d_ハッチ他
  6
CONTINUOUS
 62
    4
 10
1090.6914666039254
 20
1047.9540644010406
 40
1.2083333333333179
 50
127.52351320610693
 51
52.47648680188081
  0
ARC
  8
_2-d_ハッチ他
  6
CONTINUOUS
 62
    4
 10
1086.2755861707681
 20
1049.8707310674338
 40
1.2083333333333581
 50
307.52351320333912
 51
232.47648680464988
  0
ARC
  8
_2-d_ハッチ他
  6
CONTINUOUS
 62
    4
 10
1087.7475463152448
 20
1047.9540644008359
 40
1.2083333333333179
 50
127.52351320610693
 51
52.47648680188081
  0
ARC
  8
_2-d_ハッチ他
  6
CONTINUOUS
 62
    4
 10
1127.4904702123374
 20
1049.8707310684615
 40
1.2083333333333581
 50
307.52351320333912
 51
232.47648680464988
  0
ARC
  8
_2-d_ハッチ他
  6
CONTINUOUS
 62
    4
 10
1128.9624303568096
 20
1047.9540644018614
 40
1.2083333333333179
 50
127.52351320610693
 51
52.47648680188081
  0
ARC
  8
_2-d_ハッチ他
  6
CONTINUOUS
 62
    4
 10
1124.5465499236523
 20
1049.8707310682546
 40
1.2083333333333581
 50
307.52351320333912
 51
232.47648680464988
  0
ARC
  8
_2-d_ハッチ他
  6
CONTINUOUS
 62
    4
 10
1126.018510068129
 20
1047.9540644016545
 40
1.2083333333333179
 50
127.52351320610693
 51
52.47648680188081
  0
ARC
  8
_2-d_ハッチ他
  6
CONTINUOUS
 62
    4
 10
1121.6026296349671
 20
1049.87073106805
 40
1.2083333333333581
 50
307.52351320333912
 51
232.47648680464988
  0
ARC
  8
_2-d_ハッチ他
  6
CONTINUOUS
 62
    4
 10
1123.0745897794438
 20
1047.9540644014498
 40
1.2083333333333179
 50
127.52351320610693
 51
52.47648680188081
  0
ARC
  8
_2-d_ハッチ他
  6
CONTINUOUS
 62
    4
 10
1118.6587093462865
 20
1049.8707310678453
 40
1.2083333333333581
 50
307.52351320333912
 51
232.47648680464988
  0
ARC
  8
_2-d_ハッチ他
  6
CONTINUOUS
 62
    4
 10
1120.1306694907632
 20
1047.9540644012452
 40
1.2083333333333179
 50
127.52351320610693
 51
52.47648680188081
  0
ARC
  8
_2-d_ハッチ他
  6
CONTINUOUS
 62
    4
 10
1115.7147890576014
 20
1049.8707310676407
 40
1.2083333333333581
 50
307.52351320333912
 51
232.47648680464988
  0
ARC
  8
_2-d_ハッチ他
  6
CONTINUOUS
 62
    4
 10
1117.1867492020781
 20
1047.9540644010406
 40
1.2083333333333179
 50
127.52351320610693
 51
52.47648680188081
  0
ARC
  8
_2-d_ハッチ他
  6
CONTINUOUS
 62
    4
 10
1112.7708687689208
 20
1049.8707310674338
 40
1.2083333333333581
 50
307.52351320333912
 51
232.47648680464988
  0
ARC
  8
_2-d_ハッチ他
  6
CONTINUOUS
 62
    4
 10
1114.2428289133929
 20
1047.9540644008359
 40
1.2083333333333179
 50
127.52351320610693
 51
52.47648680188081
  0
ARC
  8
_2-d_ハッチ他
  6
CONTINUOUS
 62
    4
 10
1106.8830281915505
 20
1049.8707310670245
 40
1.2083333333333581
 50
307.52351320333912
 51
232.47648680464988
  0
ARC
  8
_2-d_ハッチ他
  6
CONTINUOUS
 62
    4
 10
1109.8269484802356
 20
1049.8707310672291
 40
1.2083333333333581
 50
307.52351320333912
 51
232.47648680464988
  0
ARC
  8
_2-d_ハッチ他
  6
CONTINUOUS
 62
    4
 10
1108.3549883360272
 20
1047.9540644004244
 40
1.2083333333333179
 50
127.52351320610693
 51
52.47648680188081
  0
ARC
  8
_2-d_ハッチ他
  6
CONTINUOUS
 62
    4
 10
1111.2989086247123
 20
1047.954064400629
 40
1.2083333333333179
 50
127.52351320610693
 51
52.47648680188081
  0
ARC
  8
_2-d_ハッチ他
  6
CONTINUOUS
 62
    4
 10
1105.411068047342
 20
1047.9540644002197
 40
1.2083333333333179
 50
127.52351320610693
 51
52.47648680188081
  0
ARC
  8
_2-d_ハッチ他
  6
CONTINUOUS
 62
    4
 10
1103.9391079028699
 20
1049.8707310668199
 40
1.2083333333333581
 50
307.52351320333912
 51
232.47648680464988
  0
ARC
  8
_2-d_ハッチ他
  6
CONTINUOUS
 62
    4
 10
1153.9857528104856
 20
1049.8707310684615
 40
1.2083333333333581
 50
307.52351320333912
 51
232.47648680464988
  0
ARC
  8
_2-d_ハッチ他
  6
CONTINUOUS
 62
    4
 10
1155.4577129549623
 20
1047.9540644018614
 40
1.2083333333333179
 50
127.52351320610693
 51
52.47648680188081
  0
ARC
  8
_2-d_ハッチ他
  6
CONTINUOUS
 62
    4
 10
1151.0418325218004
 20
1049.8707310682546
 40
1.2083333333333581
 50
307.52351320333912
 51
232.47648680464988
  0
ARC
  8
_2-d_ハッチ他
  6
CONTINUOUS
 62
    4
 10
1152.5137926662771
 20
1047.9540644016545
 40
1.2083333333333179
 50
127.52351320610693
 51
52.47648680188081
  0
ARC
  8
_2-d_ハッチ他
  6
CONTINUOUS
 62
    4
 10
1148.0979122331198
 20
1049.87073106805
 40
1.2083333333333581
 50
307.52351320333912
 51
232.47648680464988
  0
ARC
  8
_2-d_ハッチ他
  6
CONTINUOUS
 62
    4
 10
1149.5698723775965
 20
1047.9540644014498
 40
1.2083333333333179
 50
127.52351320610693
 51
52.47648680188081
  0
ARC
  8
_2-d_ハッチ他
  6
CONTINUOUS
 62
    4
 10
1145.1539919444347
 20
1049.8707310678453
 40
1.2083333333333581
 50
307.52351320333912
 51
232.47648680464988
  0
ARC
  8
_2-d_ハッチ他
  6
CONTINUOUS
 62
    4
 10
1146.6259520889114
 20
1047.9540644012452
 40
1.2083333333333179
 50
127.52351320610693
 51
52.47648680188081
  0
ARC
  8
_2-d_ハッチ他
  6
CONTINUOUS
 62
    4
 10
1142.2100716557541
 20
1049.8707310676407
 40
1.2083333333333581
 50
307.52351320333912
 51
232.47648680464988
  0
ARC
  8
_2-d_ハッチ他
  6
CONTINUOUS
 62
    4
 10
1143.6820318002262
 20
1047.9540644010406
 40
1.2083333333333179
 50
127.52351320610693
 51
52.47648680188081
  0
ARC
  8
_2-d_ハッチ他
  6
CONTINUOUS
 62
    4
 10
1139.2661513670689
 20
1049.8707310674338
 40
1.2083333333333581
 50
307.52351320333912
 51
232.47648680464988
  0
ARC
  8
_2-d_ハッチ他
  6
CONTINUOUS
 62
    4
 10
1140.7381115115456
 20
1047.9540644008359
 40
1.2083333333333179
 50
127.52351320610693
 51
52.47648680188081
  0
ARC
  8
_2-d_ハッチ他
  6
CONTINUOUS
 62
    4
 10
1133.3783107897032
 20
1049.8707310670245
 40
1.2083333333333581
 50
307.52351320333912
 51
232.47648680464988
  0
ARC
  8
_2-d_ハッチ他
  6
CONTINUOUS
 62
    4
 10
1136.3222310783838
 20
1049.8707310672291
 40
1.2083333333333581
 50
307.52351320333912
 51
232.47648680464988
  0
ARC
  8
_2-d_ハッチ他
  6
CONTINUOUS
 62
    4
 10
1134.8502709341799
 20
1047.9540644004244
 40
1.2083333333333179
 50
127.52351320610693
 51
52.47648680188081
  0
ARC
  8
_2-d_ハッチ他
  6
CONTINUOUS
 62
    4
 10
1137.7941912228605
 20
1047.954064400629
 40
1.2083333333333179
 50
127.52351320610693
 51
52.47648680188081
  0
ARC
  8
_2-d_ハッチ他
  6
CONTINUOUS
 62
    4
 10
1131.9063506454947
 20
1047.9540644002197
 40
1.2083333333333179
 50
127.52351320610693
 51
52.47648680188081
  0
ARC
  8
_2-d_ハッチ他
  6
CONTINUOUS
 62
    4
 10
1130.434390501018
 20
1049.8707310668199
 40
1.2083333333333581
 50
307.52351320333912
 51
232.47648680464988
  0
ARC
  8
_2-d_ハッチ他
  6
CONTINUOUS
 62
    4
 10
1158.4016332436429
 20
1047.9540644014498
 40
1.2083333333333179
 50
127.52351320610693
 51
52.47648680188081
  0
ARC
  8
_2-d_ハッチ他
  6
CONTINUOUS
 62
    4
 10
1156.9296730991707
 20
1049.87073106805
 40
1.2083333333333581
 50
307.52351320333912
 51
232.47648680464988
  0
ARC
  8
_2-d_ハッチ他
  6
CONTINUOUS
 62
    4
 10
1183.4249556973189
 20
1049.8707310684615
 40
1.2083333333333581
 50
307.52351320333912
 51
232.47648680464988
  0
ARC
  8
_2-d_ハッチ他
  6
CONTINUOUS
 62
    4
 10
1184.8969158417956
 20
1047.9540644018614
 40
1.2083333333333179
 50
127.52351320610693
 51
52.47648680188081
  0
ARC
  8
_2-d_ハッチ他
  6
CONTINUOUS
 62
    4
 10
1180.4810354086383
 20
1049.8707310682546
 40
1.2083333333333581
 50
307.52351320333912
 51
232.47648680464988
  0
ARC
  8
_2-d_ハッチ他
  6
CONTINUOUS
 62
    4
 10
1181.9529955531104
 20
1047.9540644016545
 40
1.2083333333333179
 50
127.52351320610693
 51
52.47648680188081
  0
ARC
  8
_2-d_ハッチ他
  6
CONTINUOUS
 62
    4
 10
1177.5371151199531
 20
1049.87073106805
 40
1.2083333333333581
 50
307.52351320333912
 51
232.47648680464988
  0
ARC
  8
_2-d_ハッチ他
  6
CONTINUOUS
 62
    4
 10
1179.0090752644298
 20
1047.9540644014498
 40
1.2083333333333179
 50
127.52351320610693
 51
52.47648680188081
  0
ARC
  8
_2-d_ハッチ他
  6
CONTINUOUS
 62
    4
 10
1174.593194831268
 20
1049.8707310678453
 40
1.2083333333333581
 50
307.52351320333912
 51
232.47648680464988
  0
ARC
  8
_2-d_ハッチ他
  6
CONTINUOUS
 62
    4
 10
1176.0651549757447
 20
1047.9540644012452
 40
1.2083333333333179
 50
127.52351320610693
 51
52.47648680188081
  0
ARC
  8
_2-d_ハッチ他
  6
CONTINUOUS
 62
    4
 10
1171.6492745425874
 20
1049.8707310676407
 40
1.2083333333333581
 50
307.52351320333912
 51
232.47648680464988
  0
ARC
  8
_2-d_ハッチ他
  6
CONTINUOUS
 62
    4
 10
1173.1212346870595
 20
1047.9540644010406
 40
1.2083333333333179
 50
127.52351320610693
 51
52.47648680188081
  0
ARC
  8
_2-d_ハッチ他
  6
CONTINUOUS
 62
    4
 10
1168.7053542539022
 20
1049.8707310674338
 40
1.2083333333333581
 50
307.52351320333912
 51
232.47648680464988
  0
ARC
  8
_2-d_ハッチ他
  6
CONTINUOUS
 62
    4
 10
1170.1773143983789
 20
1047.9540644008359
 40
1.2083333333333179
 50
127.52351320610693
 51
52.47648680188081
  0
ARC
  8
_2-d_ハッチ他
  6
CONTINUOUS
 62
    4
 10
1162.8175136765365
 20
1049.8707310670245
 40
1.2083333333333581
 50
307.52351320333912
 51
232.47648680464988
  0
ARC
  8
_2-d_ハッチ他
  6
CONTINUOUS
 62
    4
 10
1165.7614339652216
 20
1049.8707310672291
 40
1.2083333333333581
 50
307.52351320333912
 51
232.47648680464988
  0
ARC
  8
_2-d_ハッチ他
  6
CONTINUOUS
 62
    4
 10
1164.2894738210132
 20
1047.9540644004244
 40
1.2083333333333179
 50
127.52351320610693
 51
52.47648680188081
  0
ARC
  8
_2-d_ハッチ他
  6
CONTINUOUS
 62
    4
 10
1167.2333941096938
 20
1047.954064400629
 40
1.2083333333333179
 50
127.52351320610693
 51
52.47648680188081
  0
ARC
  8
_2-d_ハッチ他
  6
CONTINUOUS
 62
    4
 10
1161.345553532328
 20
1047.9540644002197
 40
1.2083333333333179
 50
127.52351320610693
 51
52.47648680188081
  0
ARC
  8
_2-d_ハッチ他
  6
CONTINUOUS
 62
    4
 10
1159.8735933878513
 20
1049.8707310668199
 40
1.2083333333333581
 50
307.52351320333912
 51
232.47648680464988
  0
ARC
  8
_2-d_ハッチ他
  6
CONTINUOUS
 62
    4
 10
1209.9202382954716
 20
1049.8707310684615
 40
1.2083333333333581
 50
307.52351320333912
 51
232.47648680464988
  0
ARC
  8
_2-d_ハッチ他
  6
CONTINUOUS
 62
    4
 10
1211.3921984399437
 20
1047.9540644018614
 40
1.2083333333333179
 50
127.52351320610693
 51
52.47648680188081
  0
ARC
  8
_2-d_ハッチ他
  6
CONTINUOUS
 62
    4
 10
1206.9763180067864
 20
1049.8707310682546
 40
1.2083333333333581
 50
307.52351320333912
 51
232.47648680464988
  0
ARC
  8
_2-d_ハッチ他
  6
CONTINUOUS
 62
    4
 10
1208.4482781512631
 20
1047.9540644016545
 40
1.2083333333333179
 50
127.52351320610693
 51
52.47648680188081
  0
ARC
  8
_2-d_ハッチ他
  6
CONTINUOUS
 62
    4
 10
1204.0323977181013
 20
1049.87073106805
 40
1.2083333333333581
 50
307.52351320333912
 51
232.47648680464988
  0
ARC
  8
_2-d_ハッチ他
  6
CONTINUOUS
 62
    4
 10
1205.504357862578
 20
1047.9540644014498
 40
1.2083333333333179
 50
127.52351320610693
 51
52.47648680188081
  0
ARC
  8
_2-d_ハッチ他
  6
CONTINUOUS
 62
    4
 10
1201.0884774294207
 20
1049.8707310678453
 40
1.2083333333333581
 50
307.52351320333912
 51
232.47648680464988
  0
ARC
  8
_2-d_ハッチ他
  6
CONTINUOUS
 62
    4
 10
1202.5604375738974
 20
1047.9540644012452
 40
1.2083333333333179
 50
127.52351320610693
 51
52.47648680188081
  0
ARC
  8
_2-d_ハッチ他
  6
CONTINUOUS
 62
    4
 10
1198.1445571407355
 20
1049.8707310676407
 40
1.2083333333333581
 50
307.52351320333912
 51
232.47648680464988
  0
ARC
  8
_2-d_ハッチ他
  6
CONTINUOUS
 62
    4
 10
1199.6165172852122
 20
1047.9540644010406
 40
1.2083333333333179
 50
127.52351320610693
 51
52.47648680188081
  0
ARC
  8
_2-d_ハッチ他
  6
CONTINUOUS
 62
    4
 10
1195.2006368520549
 20
1049.8707310674338
 40
1.2083333333333581
 50
307.52351320333912
 51
232.47648680464988
  0
ARC
  8
_2-d_ハッチ他
  6
CONTINUOUS
 62
    4
 10
1196.6725969965271
 20
1047.9540644008359
 40
1.2083333333333179
 50
127.52351320610693
 51
52.47648680188081
  0
ARC
  8
_2-d_ハッチ他
  6
CONTINUOUS
 62
    4
 10
1189.3127962746846
 20
1049.8707310670245
 40
1.2083333333333581
 50
307.52351320333912
 51
232.47648680464988
  0
ARC
  8
_2-d_ハッチ他
  6
CONTINUOUS
 62
    4
 10
1192.2567165633698
 20
1049.8707310672291
 40
1.2083333333333581
 50
307.52351320333912
 51
232.47648680464988
  0
ARC
  8
_2-d_ハッチ他
  6
CONTINUOUS
 62
    4
 10
1190.7847564191613
 20
1047.9540644004244
 40
1.2083333333333179
 50
127.52351320610693
 51
52.47648680188081
  0
ARC
  8
_2-d_ハッチ他
  6
CONTINUOUS
 62
    4
 10
1193.7286767078465
 20
1047.954064400629
 40
1.2083333333333179
 50
127.52351320610693
 51
52.47648680188081
  0
ARC
  8
_2-d_ハッチ他
  6
CONTINUOUS
 62
    4
 10
1187.8408361304762
 20
1047.9540644002197
 40
1.2083333333333179
 50
127.52351320610693
 51
52.47648680188081
  0
ARC
  8
_2-d_ハッチ他
  6
CONTINUOUS
 62
    4
 10
1186.368875986004
 20
1049.8707310668199
 40
1.2083333333333581
 50
307.52351320333912
 51
232.47648680464988
  0
ARC
  8
_2-d_ハッチ他
  6
CONTINUOUS
 62
    4
 10
1236.4155208936197
 20
1049.8707310684615
 40
1.2083333333333581
 50
307.52351320333912
 51
232.47648680464988
  0
ARC
  8
_2-d_ハッチ他
  6
CONTINUOUS
 62
    4
 10
1237.8874810380964
 20
1047.9540644018614
 40
1.2083333333333179
 50
127.52351320610693
 51
52.47648680188081
  0
ARC
  8
_2-d_ハッチ他
  6
CONTINUOUS
 62
    4
 10
1233.4716006049346
 20
1049.8707310682546
 40
1.2083333333333581
 50
307.52351320333912
 51
232.47648680464988
  0
ARC
  8
_2-d_ハッチ他
  6
CONTINUOUS
 62
    4
 10
1234.9435607494113
 20
1047.9540644016545
 40
1.2083333333333179
 50
127.52351320610693
 51
52.47648680188081
  0
ARC
  8
_2-d_ハッチ他
  6
CONTINUOUS
 62
    4
 10
1230.527680316254
 20
1049.87073106805
 40
1.2083333333333581
 50
307.52351320333912
 51
232.47648680464988
  0
ARC
  8
_2-d_ハッチ他
  6
CONTINUOUS
 62
    4
 10
1231.9996404607307
 20
1047.9540644014498
 40
1.2083333333333179
 50
127.52351320610693
 51
52.47648680188081
  0
ARC
  8
_2-d_ハッチ他
  6
CONTINUOUS
 62
    4
 10
1227.5837600275688
 20
1049.8707310678453
 40
1.2083333333333581
 50
307.52351320333912
 51
232.47648680464988
  0
ARC
  8
_2-d_ハッチ他
  6
CONTINUOUS
 62
    4
 10
1229.0557201720455
 20
1047.9540644012452
 40
1.2083333333333179
 50
127.52351320610693
 51
52.47648680188081
  0
ARC
  8
_2-d_ハッチ他
  6
CONTINUOUS
 62
    4
 10
1224.6398397388882
 20
1049.8707310676407
 40
1.2083333333333581
 50
307.52351320333912
 51
232.47648680464988
  0
ARC
  8
_2-d_ハッチ他
  6
CONTINUOUS
 62
    4
 10
1226.1117998833604
 20
1047.9540644010406
 40
1.2083333333333179
 50
127.52351320610693
 51
52.47648680188081
  0
ARC
  8
_2-d_ハッチ他
  6
CONTINUOUS
 62
    4
 10
1221.6959194502031
 20
1049.8707310674338
 40
1.2083333333333581
 50
307.52351320333912
 51
232.47648680464988
  0
ARC
  8
_2-d_ハッチ他
  6
CONTINUOUS
 62
    4
 10
1223.1678795946798
 20
1047.9540644008359
 40
1.2083333333333179
 50
127.52351320610693
 51
52.47648680188081
  0
ARC
  8
_2-d_ハッチ他
  6
CONTINUOUS
 62
    4
 10
1215.8080788728373
 20
1049.8707310670245
 40
1.2083333333333581
 50
307.52351320333912
 51
232.47648680464988
  0
ARC
  8
_2-d_ハッチ他
  6
CONTINUOUS
 62
    4
 10
1218.7519991615179
 20
1049.8707310672291
 40
1.2083333333333581
 50
307.52351320333912
 51
232.47648680464988
  0
ARC
  8
_2-d_ハッチ他
  6
CONTINUOUS
 62
    4
 10
1217.280039017314
 20
1047.9540644004244
 40
1.2083333333333179
 50
127.52351320610693
 51
52.47648680188081
  0
ARC
  8
_2-d_ハッチ他
  6
CONTINUOUS
 62
    4
 10
1220.2239593059946
 20
1047.954064400629
 40
1.2083333333333179
 50
127.52351320610693
 51
52.47648680188081
  0
ARC
  8
_2-d_ハッチ他
  6
CONTINUOUS
 62
    4
 10
1214.3361187286289
 20
1047.9540644002197
 40
1.2083333333333179
 50
127.52351320610693
 51
52.47648680188081
  0
ARC
  8
_2-d_ハッチ他
  6
CONTINUOUS
 62
    4
 10
1212.8641585841522
 20
1049.8707310668199
 40
1.2083333333333581
 50
307.52351320333912
 51
232.47648680464988
  0
ARC
  8
_2-d_ハッチ他
  6
CONTINUOUS
 62
    4
 10
1254.0790426257215
 20
1049.8707310684615
 40
1.2083333333333581
 50
307.52351320333912
 51
232.47648680464988
  0
ARC
  8
_2-d_ハッチ他
  6
CONTINUOUS
 62
    4
 10
1255.5510027701937
 20
1047.9540644018614
 40
1.2083333333333179
 50
127.52351320610693
 51
52.47648680188081
  0
ARC
  8
_2-d_ハッチ他
  6
CONTINUOUS
 62
    4
 10
1251.1351223370364
 20
1049.8707310682546
 40
1.2083333333333581
 50
307.52351320333912
 51
232.47648680464988
  0
ARC
  8
_2-d_ハッチ他
  6
CONTINUOUS
 62
    4
 10
1252.6070824815131
 20
1047.9540644016545
 40
1.2083333333333179
 50
127.52351320610693
 51
52.47648680188081
  0
ARC
  8
_2-d_ハッチ他
  6
CONTINUOUS
 62
    4
 10
1248.1912020483558
 20
1049.87073106805
 40
1.2083333333333581
 50
307.52351320333912
 51
232.47648680464988
  0
ARC
  8
_2-d_ハッチ他
  6
CONTINUOUS
 62
    4
 10
1249.6631621928279
 20
1047.9540644014498
 40
1.2083333333333179
 50
127.52351320610693
 51
52.47648680188081
  0
ARC
  8
_2-d_ハッチ他
  6
CONTINUOUS
 62
    4
 10
1245.2472817596706
 20
1049.8707310678453
 40
1.2083333333333581
 50
307.52351320333912
 51
232.47648680464988
  0
ARC
  8
_2-d_ハッチ他
  6
CONTINUOUS
 62
    4
 10
1246.7192419041473
 20
1047.9540644012452
 40
1.2083333333333179
 50
127.52351320610693
 51
52.47648680188081
  0
ARC
  8
_2-d_ハッチ他
  6
CONTINUOUS
 62
    4
 10
1242.3033614709855
 20
1049.8707310676407
 40
1.2083333333333581
 50
307.52351320333912
 51
232.47648680464988
  0
ARC
  8
_2-d_ハッチ他
  6
CONTINUOUS
 62
    4
 10
1243.7753216154622
 20
1047.9540644010406
 40
1.2083333333333179
 50
127.52351320610693
 51
52.47648680188081
  0
ARC
  8
_2-d_ハッチ他
  6
CONTINUOUS
 62
    4
 10
1239.3594411823049
 20
1049.8707310674338
 40
1.2083333333333581
 50
307.52351320333912
 51
232.47648680464988
  0
ARC
  8
_2-d_ハッチ他
  6
CONTINUOUS
 62
    4
 10
1240.831401326777
 20
1047.9540644008359
 40
1.2083333333333179
 50
127.52351320610693
 51
52.47648680188081
  0
ARC
  8
_2-d_ハッチ他
  6
CONTINUOUS
 62
    4
 10
1280.5743252238697
 20
1049.8707310684615
 40
1.2083333333333581
 50
307.52351320333912
 51
232.47648680464988
  0
ARC
  8
_2-d_ハッチ他
  6
CONTINUOUS
 62
    4
 10
1282.0462853683464
 20
1047.9540644018614
 40
1.2083333333333179
 50
127.52351320610693
 51
52.47648680188081
  0
ARC
  8
_2-d_ハッチ他
  6
CONTINUOUS
 62
    4
 10
1277.6304049351891
 20
1049.8707310682546
 40
1.2083333333333581
 50
307.52351320333912
 51
232.47648680464988
  0
ARC
  8
_2-d_ハッチ他
  6
CONTINUOUS
 62
    4
 10
1279.1023650796612
 20
1047.9540644016545
 40
1.2083333333333179
 50
127.52351320610693
 51
52.47648680188081
  0
ARC
  8
_2-d_ハッチ他
  6
CONTINUOUS
 62
    4
 10
1274.6864846465039
 20
1049.87073106805
 40
1.2083333333333581
 50
307.52351320333912
 51
232.47648680464988
  0
ARC
  8
_2-d_ハッチ他
  6
CONTINUOUS
 62
    4
 10
1276.1584447909806
 20
1047.9540644014498
 40
1.2083333333333179
 50
127.52351320610693
 51
52.47648680188081
  0
ARC
  8
_2-d_ハッチ他
  6
CONTINUOUS
 62
    4
 10
1271.7425643578188
 20
1049.8707310678453
 40
1.2083333333333581
 50
307.52351320333912
 51
232.47648680464988
  0
ARC
  8
_2-d_ハッチ他
  6
CONTINUOUS
 62
    4
 10
1273.2145245022955
 20
1047.9540644012452
 40
1.2083333333333179
 50
127.52351320610693
 51
52.47648680188081
  0
ARC
  8
_2-d_ハッチ他
  6
CONTINUOUS
 62
    4
 10
1268.7986440691382
 20
1049.8707310676407
 40
1.2083333333333581
 50
307.52351320333912
 51
232.47648680464988
  0
ARC
  8
_2-d_ハッチ他
  6
CONTINUOUS
 62
    4
 10
1270.2706042136103
 20
1047.9540644010406
 40
1.2083333333333179
 50
127.52351320610693
 51
52.47648680188081
  0
ARC
  8
_2-d_ハッチ他
  6
CONTINUOUS
 62
    4
 10
1265.854723780453
 20
1049.8707310674338
 40
1.2083333333333581
 50
307.52351320333912
 51
232.47648680464988
  0
ARC
  8
_2-d_ハッチ他
  6
CONTINUOUS
 62
    4
 10
1267.3266839249297
 20
1047.9540644008359
 40
1.2083333333333179
 50
127.52351320610693
 51
52.47648680188081
  0
ARC
  8
_2-d_ハッチ他
  6
CONTINUOUS
 62
    4
 10
1259.9668832030873
 20
1049.8707310670245
 40
1.2083333333333581
 50
307.52351320333912
 51
232.47648680464988
  0
ARC
  8
_2-d_ハッチ他
  6
CONTINUOUS
 62
    4
 10
1262.9108034917724
 20
1049.8707310672291
 40
1.2083333333333581
 50
307.52351320333912
 51
232.47648680464988
  0
ARC
  8
_2-d_ハッチ他
  6
CONTINUOUS
 62
    4
 10
1261.438843347564
 20
1047.9540644004244
 40
1.2083333333333179
 50
127.52351320610693
 51
52.47648680188081
  0
ARC
  8
_2-d_ハッチ他
  6
CONTINUOUS
 62
    4
 10
1264.3827636362446
 20
1047.954064400629
 40
1.2083333333333179
 50
127.52351320610693
 51
52.47648680188081
  0
ARC
  8
_2-d_ハッチ他
  6
CONTINUOUS
 62
    4
 10
1258.4949230588788
 20
1047.9540644002197
 40
1.2083333333333179
 50
127.52351320610693
 51
52.47648680188081
  0
ARC
  8
_2-d_ハッチ他
  6
CONTINUOUS
 62
    4
 10
1257.0229629144021
 20
1049.8707310668199
 40
1.2083333333333581
 50
307.52351320333912
 51
232.47648680464988
  0
ARC
  8
_2-d_ハッチ他
  6
CONTINUOUS
 62
    4
 10
1307.0696078220224
 20
1049.8707310684615
 40
1.2083333333333581
 50
307.52351320333912
 51
232.47648680464988
  0
ARC
  8
_2-d_ハッチ他
  6
CONTINUOUS
 62
    4
 10
1308.5415679664945
 20
1047.9540644018614
 40
1.2083333333333179
 50
127.52351320610693
 51
52.47648680188081
  0
ARC
  8
_2-d_ハッチ他
  6
CONTINUOUS
 62
    4
 10
1304.1256875333372
 20
1049.8707310682546
 40
1.2083333333333581
 50
307.52351320333912
 51
232.47648680464988
  0
ARC
  8
_2-d_ハッチ他
  6
CONTINUOUS
 62
    4
 10
1305.5976476778139
 20
1047.9540644016545
 40
1.2083333333333179
 50
127.52351320610693
 51
52.47648680188081
  0
ARC
  8
_2-d_ハッチ他
  6
CONTINUOUS
 62
    4
 10
1301.1817672446521
 20
1049.87073106805
 40
1.2083333333333581
 50
307.52351320333912
 51
232.47648680464988
  0
ARC
  8
_2-d_ハッチ他
  6
CONTINUOUS
 62
    4
 10
1302.6537273891288
 20
1047.9540644014498
 40
1.2083333333333179
 50
127.52351320610693
 51
52.47648680188081
  0
ARC
  8
_2-d_ハッチ他
  6
CONTINUOUS
 62
    4
 10
1298.2378469559715
 20
1049.8707310678453
 40
1.2083333333333581
 50
307.52351320333912
 51
232.47648680464988
  0
ARC
  8
_2-d_ハッチ他
  6
CONTINUOUS
 62
    4
 10
1299.7098071004436
 20
1047.9540644012452
 40
1.2083333333333179
 50
127.52351320610693
 51
52.47648680188081
  0
ARC
  8
_2-d_ハッチ他
  6
CONTINUOUS
 62
    4
 10
1295.2939266672863
 20
1049.8707310676407
 40
1.2083333333333581
 50
307.52351320333912
 51
232.47648680464988
  0
ARC
  8
_2-d_ハッチ他
  6
CONTINUOUS
 62
    4
 10
1296.765886811763
 20
1047.9540644010406
 40
1.2083333333333179
 50
127.52351320610693
 51
52.47648680188081
  0
ARC
  8
_2-d_ハッチ他
  6
CONTINUOUS
 62
    4
 10
1292.3500063786057
 20
1049.8707310674338
 40
1.2083333333333581
 50
307.52351320333912
 51
232.47648680464988
  0
ARC
  8
_2-d_ハッチ他
  6
CONTINUOUS
 62
    4
 10
1293.8219665230779
 20
1047.9540644008359
 40
1.2083333333333179
 50
127.52351320610693
 51
52.47648680188081
  0
ARC
  8
_2-d_ハッチ他
  6
CONTINUOUS
 62
    4
 10
1286.4621658012354
 20
1049.8707310670245
 40
1.2083333333333581
 50
307.52351320333912
 51
232.47648680464988
  0
ARC
  8
_2-d_ハッチ他
  6
CONTINUOUS
 62
    4
 10
1289.4060860899206
 20
1049.8707310672291
 40
1.2083333333333581
 50
307.52351320333912
 51
232.47648680464988
  0
ARC
  8
_2-d_ハッチ他
  6
CONTINUOUS
 62
    4
 10
1287.9341259457121
 20
1047.9540644004244
 40
1.2083333333333179
 50
127.52351320610693
 51
52.47648680188081
  0
ARC
  8
_2-d_ハッチ他
  6
CONTINUOUS
 62
    4
 10
1290.8780462343973
 20
1047.954064400629
 40
1.2083333333333179
 50
127.52351320610693
 51
52.47648680188081
  0
ARC
  8
_2-d_ハッチ他
  6
CONTINUOUS
 62
    4
 10
1284.990205657027
 20
1047.9540644002197
 40
1.2083333333333179
 50
127.52351320610693
 51
52.47648680188081
  0
ARC
  8
_2-d_ハッチ他
  6
CONTINUOUS
 62
    4
 10
1283.5182455125548
 20
1049.8707310668199
 40
1.2083333333333581
 50
307.52351320333912
 51
232.47648680464988
  0
ARC
  8
_2-d_ハッチ他
  6
CONTINUOUS
 62
    4
 10
1311.4854882551797
 20
1047.9540644014498
 40
1.2083333333333179
 50
127.52351320610693
 51
52.47648680188081
  0
ARC
  8
_2-d_ハッチ他
  6
CONTINUOUS
 62
    4
 10
1310.013528110703
 20
1049.87073106805
 40
1.2083333333333581
 50
307.52351320333912
 51
232.47648680464988
  0
ARC
  8
_2-d_ハッチ他
  6
CONTINUOUS
 62
    4
 10
1336.5088107088557
 20
1049.8707310684615
 40
1.2083333333333581
 50
307.52351320333912
 51
232.47648680464988
  0
ARC
  8
_2-d_ハッチ他
  6
CONTINUOUS
 62
    4
 10
1337.9807708533278
 20
1047.9540644018614
 40
1.2083333333333179
 50
127.52351320610693
 51
52.47648680188081
  0
ARC
  8
_2-d_ハッチ他
  6
CONTINUOUS
 62
    4
 10
1333.5648904201705
 20
1049.8707310682546
 40
1.2083333333333581
 50
307.52351320333912
 51
232.47648680464988
  0
ARC
  8
_2-d_ハッチ他
  6
CONTINUOUS
 62
    4
 10
1335.0368505646472
 20
1047.9540644016545
 40
1.2083333333333179
 50
127.52351320610693
 51
52.47648680188081
  0
ARC
  8
_2-d_ハッチ他
  6
CONTINUOUS
 62
    4
 10
1330.6209701314854
 20
1049.87073106805
 40
1.2083333333333581
 50
307.52351320333912
 51
232.47648680464988
  0
ARC
  8
_2-d_ハッチ他
  6
CONTINUOUS
 62
    4
 10
1332.0929302759621
 20
1047.9540644014498
 40
1.2083333333333179
 50
127.52351320610693
 51
52.47648680188081
  0
ARC
  8
_2-d_ハッチ他
  6
CONTINUOUS
 62
    4
 10
1327.6770498428048
 20
1049.8707310678453
 40
1.2083333333333581
 50
307.52351320333912
 51
232.47648680464988
  0
ARC
  8
_2-d_ハッチ他
  6
CONTINUOUS
 62
    4
 10
1329.1490099872815
 20
1047.9540644012452
 40
1.2083333333333179
 50
127.52351320610693
 51
52.47648680188081
  0
ARC
  8
_2-d_ハッチ他
  6
CONTINUOUS
 62
    4
 10
1324.7331295541196
 20
1049.8707310676407
 40
1.2083333333333581
 50
307.52351320333912
 51
232.47648680464988
  0
ARC
  8
_2-d_ハッチ他
  6
CONTINUOUS
 62
    4
 10
1326.2050896985963
 20
1047.9540644010406
 40
1.2083333333333179
 50
127.52351320610693
 51
52.47648680188081
  0
ARC
  8
_2-d_ハッチ他
  6
CONTINUOUS
 62
    4
 10
1321.7892092654345
 20
1049.8707310674338
 40
1.2083333333333581
 50
307.52351320333912
 51
232.47648680464988
  0
ARC
  8
_2-d_ハッチ他
  6
CONTINUOUS
 62
    4
 10
1323.2611694099112
 20
1047.9540644008359
 40
1.2083333333333179
 50
127.52351320610693
 51
52.47648680188081
  0
ARC
  8
_2-d_ハッチ他
  6
CONTINUOUS
 62
    4
 10
1315.9013686880687
 20
1049.8707310670245
 40
1.2083333333333581
 50
307.52351320333912
 51
232.47648680464988
  0
ARC
  8
_2-d_ハッチ他
  6
CONTINUOUS
 62
    4
 10
1318.8452889767539
 20
1049.8707310672291
 40
1.2083333333333581
 50
307.52351320333912
 51
232.47648680464988
  0
ARC
  8
_2-d_ハッチ他
  6
CONTINUOUS
 62
    4
 10
1317.3733288325454
 20
1047.9540644004244
 40
1.2083333333333179
 50
127.52351320610693
 51
52.47648680188081
  0
ARC
  8
_2-d_ハッチ他
  6
CONTINUOUS
 62
    4
 10
1320.317249121226
 20
1047.954064400629
 40
1.2083333333333179
 50
127.52351320610693
 51
52.47648680188081
  0
ARC
  8
_2-d_ハッチ他
  6
CONTINUOUS
 62
    4
 10
1314.4294085438603
 20
1047.9540644002197
 40
1.2083333333333179
 50
127.52351320610693
 51
52.47648680188081
  0
ARC
  8
_2-d_ハッチ他
  6
CONTINUOUS
 62
    4
 10
1312.9574483993881
 20
1049.8707310668199
 40
1.2083333333333581
 50
307.52351320333912
 51
232.47648680464988
  0
ARC
  8
_2-d_ハッチ他
  6
CONTINUOUS
 62
    4
 10
1348.2844918635872
 20
1049.8707310674338
 40
1.2083333333333581
 50
307.52351320333912
 51
232.47648680464988
  0
ARC
  8
_2-d_ハッチ他
  6
CONTINUOUS
 62
    4
 10
1342.3966512862214
 20
1049.8707310670245
 40
1.2083333333333581
 50
307.52351320333912
 51
232.47648680464988
  0
ARC
  8
_2-d_ハッチ他
  6
CONTINUOUS
 62
    4
 10
1345.3405715749066
 20
1049.8707310672291
 40
1.2083333333333581
 50
307.52351320333912
 51
232.47648680464988
  0
ARC
  8
_2-d_ハッチ他
  6
CONTINUOUS
 62
    4
 10
1343.8686114306981
 20
1047.9540644004244
 40
1.2083333333333179
 50
127.52351320610693
 51
52.47648680188081
  0
ARC
  8
_2-d_ハッチ他
  6
CONTINUOUS
 62
    4
 10
1346.8125317193787
 20
1047.954064400629
 40
1.2083333333333179
 50
127.52351320610693
 51
52.47648680188081
  0
ARC
  8
_2-d_ハッチ他
  6
CONTINUOUS
 62
    4
 10
1340.924691142013
 20
1047.9540644002197
 40
1.2083333333333179
 50
127.52351320610693
 51
52.47648680188081
  0
ARC
  8
_2-d_ハッチ他
  6
CONTINUOUS
 62
    4
 10
1339.4527309975363
 20
1049.8707310668199
 40
1.2083333333333581
 50
307.52351320333912
 51
232.47648680464988
  0
ARC
  8
_2-d_ハッチ他
  6
CONTINUOUS
 62
    4
 10
1371.8358541730547
 20
1049.8707310684615
 40
1.2083333333333581
 50
307.52351320333912
 51
232.47648680464988
  0
ARC
  8
_2-d_ハッチ他
  6
CONTINUOUS
 62
    4
 10
1373.3078143175314
 20
1047.9540644018614
 40
1.2083333333333179
 50
127.52351320610693
 51
52.47648680188081
  0
ARC
  8
_2-d_ハッチ他
  6
CONTINUOUS
 62
    4
 10
1368.8919338843696
 20
1049.8707310682546
 40
1.2083333333333581
 50
307.52351320333912
 51
232.47648680464988
  0
ARC
  8
_2-d_ハッチ他
  6
CONTINUOUS
 62
    4
 10
1370.3638940288463
 20
1047.9540644016545
 40
1.2083333333333179
 50
127.52351320610693
 51
52.47648680188081
  0
ARC
  8
_2-d_ハッチ他
  6
CONTINUOUS
 62
    4
 10
1365.948013595689
 20
1049.87073106805
 40
1.2083333333333581
 50
307.52351320333912
 51
232.47648680464988
  0
ARC
  8
_2-d_ハッチ他
  6
CONTINUOUS
 62
    4
 10
1367.4199737401657
 20
1047.9540644014498
 40
1.2083333333333179
 50
127.52351320610693
 51
52.47648680188081
  0
ARC
  8
_2-d_ハッチ他
  6
CONTINUOUS
 62
    4
 10
1363.0040933070038
 20
1049.8707310678453
 40
1.2083333333333581
 50
307.52351320333912
 51
232.47648680464988
  0
ARC
  8
_2-d_ハッチ他
  6
CONTINUOUS
 62
    4
 10
1364.4760534514805
 20
1047.9540644012452
 40
1.2083333333333179
 50
127.52351320610693
 51
52.47648680188081
  0
ARC
  8
_2-d_ハッチ他
  6
CONTINUOUS
 62
    4
 10
1360.0601730183232
 20
1049.8707310676407
 40
1.2083333333333581
 50
307.52351320333912
 51
232.47648680464988
  0
ARC
  8
_2-d_ハッチ他
  6
CONTINUOUS
 62
    4
 10
1361.5321331627954
 20
1047.9540644010406
 40
1.2083333333333179
 50
127.52351320610693
 51
52.47648680188081
  0
ARC
  8
_2-d_ハッチ他
  6
CONTINUOUS
 62
    4
 10
1357.1162527296381
 20
1049.8707310674338
 40
1.2083333333333581
 50
307.52351320333912
 51
232.47648680464988
  0
ARC
  8
_2-d_ハッチ他
  6
CONTINUOUS
 62
    4
 10
1358.5882128741148
 20
1047.9540644008359
 40
1.2083333333333179
 50
127.52351320610693
 51
52.47648680188081
  0
ARC
  8
_2-d_ハッチ他
  6
CONTINUOUS
 62
    4
 10
1351.2284121522723
 20
1049.8707310670245
 40
1.2083333333333581
 50
307.52351320333912
 51
232.47648680464988
  0
ARC
  8
_2-d_ハッチ他
  6
CONTINUOUS
 62
    4
 10
1354.1723324409529
 20
1049.8707310672291
 40
1.2083333333333581
 50
307.52351320333912
 51
232.47648680464988
  0
ARC
  8
_2-d_ハッチ他
  6
CONTINUOUS
 62
    4
 10
1352.700372296749
 20
1047.9540644004244
 40
1.2083333333333179
 50
127.52351320610693
 51
52.47648680188081
  0
ARC
  8
_2-d_ハッチ他
  6
CONTINUOUS
 62
    4
 10
1355.6442925854296
 20
1047.954064400629
 40
1.2083333333333179
 50
127.52351320610693
 51
52.47648680188081
  0
ARC
  8
_2-d_ハッチ他
  6
CONTINUOUS
 62
    4
 10
1376.251734606212
 20
1047.9540644014498
 40
1.2083333333333179
 50
127.52351320610693
 51
52.47648680188081
  0
ARC
  8
_2-d_ハッチ他
  6
CONTINUOUS
 62
    4
 10
1374.7797744617399
 20
1049.87073106805
 40
1.2083333333333581
 50
307.52351320333912
 51
232.47648680464988
  0
ARC
  8
_2-d_ハッチ他
  6
CONTINUOUS
 62
    4
 10
1401.275057059888
 20
1049.8707310684615
 40
1.2083333333333581
 50
307.52351320333912
 51
232.47648680464988
  0
ARC
  8
_2-d_ハッチ他
  6
CONTINUOUS
 62
    4
 10
1402.7470172043647
 20
1047.9540644018614
 40
1.2083333333333179
 50
127.52351320610693
 51
52.47648680188081
  0
ARC
  8
_2-d_ハッチ他
  6
CONTINUOUS
 62
    4
 10
1398.3311367712029
 20
1049.8707310682546
 40
1.2083333333333581
 50
307.52351320333912
 51
232.47648680464988
  0
ARC
  8
_2-d_ハッチ他
  6
CONTINUOUS
 62
    4
 10
1399.8030969156796
 20
1047.9540644016545
 40
1.2083333333333179
 50
127.52351320610693
 51
52.47648680188081
  0
ARC
  8
_2-d_ハッチ他
  6
CONTINUOUS
 62
    4
 10
1395.3872164825223
 20
1049.87073106805
 40
1.2083333333333581
 50
307.52351320333912
 51
232.47648680464988
  0
ARC
  8
_2-d_ハッチ他
  6
CONTINUOUS
 62
    4
 10
1396.8591766269944
 20
1047.9540644014498
 40
1.2083333333333179
 50
127.52351320610693
 51
52.47648680188081
  0
ARC
  8
_2-d_ハッチ他
  6
CONTINUOUS
 62
    4
 10
1392.4432961938371
 20
1049.8707310678453
 40
1.2083333333333581
 50
307.52351320333912
 51
232.47648680464988
  0
ARC
  8
_2-d_ハッチ他
  6
CONTINUOUS
 62
    4
 10
1393.9152563383138
 20
1047.9540644012452
 40
1.2083333333333179
 50
127.52351320610693
 51
52.47648680188081
  0
ARC
  8
_2-d_ハッチ他
  6
CONTINUOUS
 62
    4
 10
1389.499375905152
 20
1049.8707310676407
 40
1.2083333333333581
 50
307.52351320333912
 51
232.47648680464988
  0
ARC
  8
_2-d_ハッチ他
  6
CONTINUOUS
 62
    4
 10
1390.9713360496287
 20
1047.9540644010406
 40
1.2083333333333179
 50
127.52351320610693
 51
52.47648680188081
  0
ARC
  8
_2-d_ハッチ他
  6
CONTINUOUS
 62
    4
 10
1386.5554556164714
 20
1049.8707310674338
 40
1.2083333333333581
 50
307.52351320333912
 51
232.47648680464988
  0
ARC
  8
_2-d_ハッチ他
  6
CONTINUOUS
 62
    4
 10
1388.0274157609481
 20
1047.9540644008359
 40
1.2083333333333179
 50
127.52351320610693
 51
52.47648680188081
  0
ARC
  8
_2-d_ハッチ他
  6
CONTINUOUS
 62
    4
 10
1380.6676150391056
 20
1049.8707310670245
 40
1.2083333333333581
 50
307.52351320333912
 51
232.47648680464988
  0
ARC
  8
_2-d_ハッチ他
  6
CONTINUOUS
 62
    4
 10
1383.6115353277862
 20
1049.8707310672291
 40
1.2083333333333581
 50
307.52351320333912
 51
232.47648680464988
  0
ARC
  8
_2-d_ハッチ他
  6
CONTINUOUS
 62
    4
 10
1382.1395751835778
 20
1047.9540644004244
 40
1.2083333333333179
 50
127.52351320610693
 51
52.47648680188081
  0
ARC
  8
_2-d_ハッチ他
  6
CONTINUOUS
 62
    4
 10
1385.0834954722629
 20
1047.954064400629
 40
1.2083333333333179
 50
127.52351320610693
 51
52.47648680188081
  0
ARC
  8
_2-d_ハッチ他
  6
CONTINUOUS
 62
    4
 10
1379.1956548948972
 20
1047.9540644002197
 40
1.2083333333333179
 50
127.52351320610693
 51
52.47648680188081
  0
ARC
  8
_2-d_ハッチ他
  6
CONTINUOUS
 62
    4
 10
1377.7236947504205
 20
1049.8707310668199
 40
1.2083333333333581
 50
307.52351320333912
 51
232.47648680464988
  0
ARC
  8
_2-d_ハッチ他
  6
CONTINUOUS
 62
    4
 10
1413.0507382146195
 20
1049.8707310674338
 40
1.2083333333333581
 50
307.52351320333912
 51
232.47648680464988
  0
ARC
  8
_2-d_ハッチ他
  6
CONTINUOUS
 62
    4
 10
1407.1628976372538
 20
1049.8707310670245
 40
1.2083333333333581
 50
307.52351320333912
 51
232.47648680464988
  0
ARC
  8
_2-d_ハッチ他
  6
CONTINUOUS
 62
    4
 10
1410.1068179259389
 20
1049.8707310672291
 40
1.2083333333333581
 50
307.52351320333912
 51
232.47648680464988
  0
ARC
  8
_2-d_ハッチ他
  6
CONTINUOUS
 62
    4
 10
1408.6348577817305
 20
1047.9540644004244
 40
1.2083333333333179
 50
127.52351320610693
 51
52.47648680188081
  0
ARC
  8
_2-d_ハッチ他
  6
CONTINUOUS
 62
    4
 10
1411.5787780704111
 20
1047.954064400629
 40
1.2083333333333179
 50
127.52351320610693
 51
52.47648680188081
  0
ARC
  8
_2-d_ハッチ他
  6
CONTINUOUS
 62
    4
 10
1405.6909374930453
 20
1047.9540644002197
 40
1.2083333333333179
 50
127.52351320610693
 51
52.47648680188081
  0
ARC
  8
_2-d_ハッチ他
  6
CONTINUOUS
 62
    4
 10
1404.2189773485732
 20
1049.8707310668199
 40
1.2083333333333581
 50
307.52351320333912
 51
232.47648680464988
  0
ARC
  8
_2-d_ハッチ他
  6
CONTINUOUS
 62
    4
 10
1349.7564520080639
 20
1047.9540644002197
 40
1.2083333333333179
 50
127.52351320610693
 51
52.47648680188081
  0
ARC
  8
_2-d_ハッチ他
  6
CONTINUOUS
 62
    4
 10
1421.8824990806704
 20
1049.8707310674338
 40
1.2083333333333581
 50
307.52351320333912
 51
232.47648680464988
  0
ARC
  8
_2-d_ハッチ他
  6
CONTINUOUS
 62
    4
 10
1423.3544592251471
 20
1047.9540644008359
 40
1.2083333333333179
 50
127.52351320610693
 51
52.47648680188081
  0
ARC
  8
_2-d_ハッチ他
  6
CONTINUOUS
 62
    4
 10
1415.9946585033047
 20
1049.8707310670245
 40
1.2083333333333581
 50
307.52351320333912
 51
232.47648680464988
  0
ARC
  8
_2-d_ハッチ他
  6
CONTINUOUS
 62
    4
 10
1418.9385787919898
 20
1049.8707310672291
 40
1.2083333333333581
 50
307.52351320333912
 51
232.47648680464988
  0
ARC
  8
_2-d_ハッチ他
  6
CONTINUOUS
 62
    4
 10
1417.4666186477814
 20
1047.9540644004244
 40
1.2083333333333179
 50
127.52351320610693
 51
52.47648680188081
  0
ARC
  8
_2-d_ハッチ他
  6
CONTINUOUS
 62
    4
 10
1420.410538936462
 20
1047.954064400629
 40
1.2083333333333179
 50
127.52351320610693
 51
52.47648680188081
  0
ARC
  8
_2-d_ハッチ他
  6
CONTINUOUS
 62
    4
 10
1414.5226983590962
 20
1047.9540644002197
 40
1.2083333333333179
 50
127.52351320610693
 51
52.47648680188081
  0
ARC
  8
_2-d_ハッチ他
  6
CONTINUOUS
 62
    4
 10
995.01405722158756
 20
1049.87073106805
 40
1.2083333333333581
 50
59.648199512617587
 51
232.47648680464988
  0
ARC
  8
_2-d_ハッチ他
  6
CONTINUOUS
 62
    4
 10
1046.5326622736754
 20
1047.9540644010406
 40
1.2083333333333179
 50
221.2822476065254
 51
52.476486801880824
  0
LINE
  8
_2-e_con他
  6
CONTINUOUS
 62
    4
 10
955.33266280370731
 20
866.41239772936228
 11
1105.3326628037073
 21
1016.4123977293623
  0
LINE
  8
_2-e_con他
  6
CONTINUOUS
 62
    4
 10
969.4747984274361
 20
866.41239772936228
 11
1119.4747984274361
 21
1016.4123977293623
  0
LINE
  8
_2-e_con他
  6
CONTINUOUS
 62
    4
 10
962.40373061556943
 20
866.41239772936228
 11
1112.4037306155694
 21
1016.4123977293623
  0
LINE
  8
_2-e_con他
  6
CONTINUOUS
 62
    4
 10
1162.4037306155694
 20
866.41239772936228
 11
1312.4037306155694
 21
1016.4123977293623
  0
LINE
  8
_2-e_con他
  6
CONTINUOUS
 62
    4
 10
1169.4747984274361
 20
866.41239772936228
 11
1319.4747984274361
 21
1016.4123977293623
  0
LINE
  8
_2-e_con他
  6
CONTINUOUS
 62
    4
 10
1155.3326628037073
 20
866.41239772936228
 11
1305.3326628037073
 21
1016.4123977293623
  0
LINE
  8
_2-e_con他
  6
CONTINUOUS
 62
    4
 10
774.16246092911911
 20
885.24219585477408
 11
905.33266280370731
 21
1016.4123977293623
  0
LINE
  8
_2-e_con他
  6
CONTINUOUS
 62
    4
 10
774.16246092911911
 20
871.10006023104529
 11
919.4747984274361
 21
1016.4123977293623
  0
LINE
  8
_2-e_con他
  6
CONTINUOUS
 62
    4
 10
774.16246092911911
 20
878.17112804290969
 11
912.40373061556943
 21
1016.4123977293623
  0
LINE
  8
_2-e_con他
  6
CONTINUOUS
 62
    4
 10
1355.3326628037073
 20
866.41239772936228
 11
1424.1624609291191
 21
935.24219585477408
  0
LINE
  8
_2-e_con他
  6
CONTINUOUS
 62
    4
 10
1369.4747984274361
 20
866.41239772936228
 11
1424.1624609291191
 21
921.10006023104529
  0
LINE
  8
_2-e_con他
  6
CONTINUOUS
 62
    4
 10
1362.4037306155694
 20
866.41239772936228
 11
1424.1624609291191
 21
928.17112804290969
  0
LINE
  8
_2-d_ハッチ他
  6
CONTINUOUS
 62
    4
 10
774.16246092911911
 20
1032.5575567856761
 11
790.30761998543289
 21
1016.41239772936
  0
LINE
  8
_2-d_ハッチ他
  6
CONTINUOUS
 62
    4
 10
788.59189123289048
 20
1046.41239772936
 11
818.59189123289048
 21
1016.4123977293623
  0
LINE
  8
_2-d_ハッチ他
  6
CONTINUOUS
 62
    4
 10
816.87616248034806
 20
1046.4123977293623
 11
846.87616248034806
 21
1016.4123977293623
  0
LINE
  8
_2-d_ハッチ他
  6
CONTINUOUS
 62
    4
 10
845.16043372781473
 20
1046.4123977293623
 11
875.16043372781473
 21
1016.4123977293623
  0
LINE
  8
_2-d_ハッチ他
  6
CONTINUOUS
 62
    4
 10
873.44470497527232
 20
1046.4123977293623
 11
903.44470497527232
 21
1016.4123977293623
  0
LINE
  8
_2-d_ハッチ他
  6
CONTINUOUS
 62
    4
 10
901.72897622273899
 20
1046.4123977293623
 11
931.72897622273899
 21
1016.4123977293623
  0
LINE
  8
_2-d_ハッチ他
  6
CONTINUOUS
 62
    4
 10
930.01324747019657
 20
1046.4123977293623
 11
960.01324747019657
 21
1016.4123977293623
  0
LINE
  8
_2-d_ハッチ他
  6
CONTINUOUS
 62
    4
 10
958.29751871766325
 20
1046.4123977293623
 11
988.29751871766325
 21
1016.4123977293623
  0
LINE
  8
_2-d_ハッチ他
  6
CONTINUOUS
 62
    4
 10
1071.4346037075118
 20
1046.4123977293623
 11
1101.4346037075118
 21
1016.4123977293623
  0
LINE
  8
_2-d_ハッチ他
  6
CONTINUOUS
 62
    4
 10
1099.7188749549694
 20
1046.4123977293623
 11
1129.7188749549694
 21
1016.4123977293623
  0
LINE
  8
_2-d_ハッチ他
  6
CONTINUOUS
 62
    4
 10
1128.003146202436
 20
1046.4123977293623
 11
1158.003146202436
 21
1016.4123977293623
  0
LINE
  8
_2-d_ハッチ他
  6
CONTINUOUS
 62
    4
 10
1156.2874174498936
 20
1046.4123977293623
 11
1186.2874174498891
 21
1016.4123977293623
  0
LINE
  8
_2-d_ハッチ他
  6
CONTINUOUS
 62
    4
 10
1184.5716886973603
 20
1046.4123977293623
 11
1214.5716886973603
 21
1016.4123977293623
  0
LINE
  8
_2-d_ハッチ他
  6
CONTINUOUS
 62
    4
 10
1212.8559599448179
 20
1046.41239772936
 11
1242.8559599448179
 21
1016.41239772936
  0
LINE
  8
_2-d_ハッチ他
  6
CONTINUOUS
 62
    4
 10
1241.1402311922845
 20
1046.4123977293623
 11
1271.14023119228
 21
1016.4123977293623
  0
LINE
  8
_2-d_ハッチ他
  6
CONTINUOUS
 62
    4
 10
1269.4245024397421
 20
1046.41239772936
 11
1299.4245024397421
 21
1016.41239772936
  0
LINE
  8
_2-d_ハッチ他
  6
CONTINUOUS
 62
    4
 10
1297.7087736872088
 20
1046.4123977293623
 11
1327.7087736872088
 21
1016.41239772936
  0
LINE
  8
_2-d_ハッチ他
  6
CONTINUOUS
 62
    4
 10
1325.9930449346664
 20
1046.41239772936
 11
1355.9930449346664
 21
1016.41239772936
  0
LINE
  8
_2-d_ハッチ他
  6
CONTINUOUS
 62
    4
 10
1354.277316182124
 20
1046.4123977293623
 11
1384.277316182124
 21
1016.4123977293623
  0
LINE
  8
_2-d_ハッチ他
  6
CONTINUOUS
 62
    4
 10
1382.5615874295906
 20
1046.41239772936
 11
1412.5615874295906
 21
1016.4123977293623
  0
LINE
  8
_2-d_ハッチ他
  6
CONTINUOUS
 62
    4
 10
1410.8458586770482
 20
1046.4123977293623
 11
1424.1624609291191
 21
1033.0957954772914
  0
LINE
  8
_2-d_ハッチ他
  6
CONTINUOUS
 62
    4
 10
1403.4848098331893
 20
1016.41239772936
 11
1424.1624609291191
 21
1037.0900488252921
  0
LINE
  8
_2-d_ハッチ他
  6
CONTINUOUS
 62
    4
 10
1375.2005385857226
 20
1016.41239772936
 11
1405.2005385857226
 21
1046.41239772936
  0
LINE
  8
_2-d_ハッチ他
  6
CONTINUOUS
 62
    4
 10
1346.916267338265
 20
1016.41239772936
 11
1376.916267338265
 21
1046.41239772936
  0
LINE
  8
_2-d_ハッチ他
  6
CONTINUOUS
 62
    4
 10
1318.6319960907983
 20
1016.41239772936
 11
1348.6319960907983
 21
1046.41239772936
  0
LINE
  8
_2-d_ハッチ他
  6
CONTINUOUS
 62
    4
 10
1290.3477248433408
 20
1016.41239772936
 11
1320.3477248433408
 21
1046.41239772936
  0
LINE
  8
_2-d_ハッチ他
  6
CONTINUOUS
 62
    4
 10
1262.0634535958741
 20
1016.41239772936
 11
1292.0634535958741
 21
1046.41239772936
  0
LINE
  8
_2-d_ハッチ他
  6
CONTINUOUS
 62
    4
 10
1233.7791823484165
 20
1016.41239772936
 11
1263.7791823484165
 21
1046.41239772936
  0
LINE
  8
_2-d_ハッチ他
  6
CONTINUOUS
 62
    4
 10
1205.4949111009498
 20
1016.41239772936
 11
1235.4949111009498
 21
1046.41239772936
  0
LINE
  8
_2-d_ハッチ他
  6
CONTINUOUS
 62
    4
 10
1177.2106398534922
 20
1016.4123977293623
 11
1207.2106398534922
 21
1046.41239772936
  0
LINE
  8
_2-d_ハッチ他
  6
CONTINUOUS
 62
    4
 10
1148.9263686060256
 20
1016.41239772936
 11
1178.9263686060256
 21
1046.41239772936
  0
LINE
  8
_2-d_ハッチ他
  6
CONTINUOUS
 62
    4
 10
1120.642097358568
 20
1016.4123977293623
 11
1150.642097358568
 21
1046.4123977293623
  0
LINE
  8
_2-d_ハッチ他
  6
CONTINUOUS
 62
    4
 10
1092.3578261111104
 20
1016.4123977293623
 11
1122.3578261111104
 21
1046.4123977293623
  0
LINE
  8
_2-d_ハッチ他
  6
CONTINUOUS
 62
    4
 10
1064.0735548636437
 20
1016.4123977293623
 11
1094.0735548636437
 21
1046.4123977293623
  0
LINE
  8
_2-d_ハッチ他
  6
CONTINUOUS
 62
    4
 10
950.9364698737952
 20
1016.41239772936
 11
980.9364698737952
 21
1046.41239772936
  0
LINE
  8
_2-d_ハッチ他
  6
CONTINUOUS
 62
    4
 10
922.65219862633762
 20
1016.41239772936
 11
952.65219862634217
 21
1046.4123977293623
  0
LINE
  8
_2-d_ハッチ他
  6
CONTINUOUS
 62
    4
 10
894.36792737887095
 20
1016.41239772936
 11
924.36792737887095
 21
1046.41239772936
  0
LINE
  8
_2-d_ハッチ他
  6
CONTINUOUS
 62
    4
 10
866.08365613141336
 20
1016.41239772936
 11
896.08365613141336
 21
1046.41239772936
  0
LINE
  8
_2-d_ハッチ他
  6
CONTINUOUS
 62
    4
 10
837.79938488394669
 20
1016.41239772936
 11
867.79938488394669
 21
1046.41239772936
  0
LINE
  8
_2-d_ハッチ他
  6
CONTINUOUS
 62
    4
 10
809.5151136364891
 20
1016.41239772936
 11
839.5151136364891
 21
1046.41239772936
  0
LINE
  8
_2-d_ハッチ他
  6
CONTINUOUS
 62
    4
 10
781.23084238902243
 20
1016.41239772936
 11
811.23084238902243
 21
1046.41239772936
  0
LINE
  8
_2-d_ハッチ他
  6
CONTINUOUS
 62
    4
 10
774.16246092911911
 20
1037.6282875169143
 11
782.94657114156485
 21
1046.41239772936
  0
LINE
  8
_2-8_drain他
  6
CONTINUOUS
 62
    7
 10
1045.6246377264004
 20
1058.4123977293627
 11
1045.6246377264004
 21
1016.4123977293623
  0
LINE
  8
_2-8_drain他
  6
CONTINUOUS
 62
    7
 10
995.62463772640035
 20
1058.4123977293627
 11
995.62463772640035
 21
1016.4123977293623
  0
LINE
  8
_2-d_ハッチ他
  6
CONTINUOUS
 62
    4
 10
986.58178996512083
 20
1046.4123977293623
 11
995.62463772640035
 21
1037.3695499680805
  0
LINE
  8
_2-d_ハッチ他
  6
CONTINUOUS
 62
    4
 10
979.22074112126188
 20
1016.41239772936
 11
995.62463772640035
 21
1032.8162943344985
  0
LINE
  8
_2-d_ハッチ他
  6
CONTINUOUS
 62
    4
 10
1045.6246377264004
 20
1043.9380924630048
 11
1073.1503324600451
 21
1016.4123977293623
  0
LINE
  8
_2-d_ハッチ他
  6
CONTINUOUS
 62
    4
 10
1045.6246377264004
 20
1026.2477518395742
 11
1065.7892836161861
 21
1046.4123977293623
  0
LINE
  8
_2-3_
  6
CONTINUOUS
 62
    3
 10
774.16246092911911
 20
866.41239772936228
 11
1424.1624609291191
 21
866.41239772936228
  0
LINE
  8
_2-b_dim
  6
CONTINUOUS
 62
    7
 10
1045.6246377264004
 20
969.13739175590604
 11
1045.6246377264004
 21
1010.6662901836792
  0
LINE
  8
_2-b_dim
  6
CONTINUOUS
 62
    7
 10
995.62463772640035
 20
969.13739175590604
 11
995.62463772640035
 21
1010.6662901836792
  0
TEXT
  8
_2-b_dim
 62
    7
 10
998.542861707974
 20
972.07699192906443
 40
15
 41
1
 50
0
  1
50～60
  0
POINT
  8
_2-b_dim
 62
    1
 10
995.62463772640035
 20
969.13739175590604
  0
LINE
  8
_2-b_dim
  6
CONTINUOUS
 62
    7
 10
995.62463772640035
 20
969.13739175590604
 11
1045.6246377264004
 21
969.13739175590604
  0
POINT
  8
_2-b_dim
 62
    1
 10
1045.6246377264004
 20
969.13739175590604
  0
LINE
  8
_2-8_drain他
  6
CONTINUOUS
 62
    3
 10
1000.2537579047655
 20
1081.4123977293623
 11
1020.6246377264004
 21
1081.4123977293623
  0
LINE
  8
_2-8_drain他
  6
CONTINUOUS
 62
    7
 10
983.54117746882798
 20
1073.1938488191993
 11
941.5875497442355
 21
1056.4123977293623
  0
ARC
  8
_2-8_drain他
  6
CONTINUOUS
 62
    7
 10
1000.2537579047655
 20
1031.4123977293623
 40
45
 50
90
 51
111.80140948635173
  0
LINE
  8
_2-8_drain他
  6
CONTINUOUS
 62
    7
 10
1000.2537579047655
 20
1076.4123977293623
 11
1020.6246377264004
 21
1076.4123977293623
  0
LINE
  8
_2-8_drain他
  6
CONTINUOUS
 62
    7
 10
1040.9955175480397
 20
1076.4123977293623
 11
1020.6246377264004
 21
1076.4123977293623
  0
ARC
  8
_2-8_drain他
  6
CONTINUOUS
 62
    7
 10
1040.9955175480397
 20
1031.4123977293623
 40
45
 50
68.198590513648256
 51
90
  0
LINE
  8
_2-8_drain他
  6
CONTINUOUS
 62
    7
 10
1057.7080979839727
 20
1073.1938488191993
 11
1099.6617257085652
 21
1056.4123977293623
  0
LINE
  8
_2-8_drain他
  6
CONTINUOUS
 62
    4
 10
1118.1051574395676
 20
1056.4123977293623
 11
1118.1051574395676
 21
1061.4123977293623
  0
LINE
  8
_2-8_drain他
  6
CONTINUOUS
 62
    4
 10
1113.1051574395676
 20
1056.4123977293623
 11
1113.1051574395676
 21
1061.4123977293623
  0
LINE
  8
_2-8_drain他
  6
CONTINUOUS
 62
    4
 10
1108.1051574395676
 20
1056.4123977293623
 11
1108.1051574395676
 21
1061.4123977293623
  0
LINE
  8
_2-8_drain他
  6
CONTINUOUS
 62
    4
 10
1103.1051574395676
 20
1056.4123977293623
 11
1103.1051574395676
 21
1061.4123977293623
  0
LINE
  8
_2-8_drain他
  6
CONTINUOUS
 62
    4
 10
1098.1051574395676
 20
1057.0350250369604
 11
1098.1051574395676
 21
1062.4201898440954
  0
LINE
  8
_2-8_drain他
  6
CONTINUOUS
 62
    4
 10
1093.1051574395676
 20
1059.0350250369609
 11
1093.1051574395676
 21
1064.4201898440958
  0
LINE
  8
_2-8_drain他
  6
CONTINUOUS
 62
    4
 10
1088.1051574395676
 20
1061.0350250369613
 11
1088.1051574395676
 21
1066.4201898440963
  0
LINE
  8
_2-8_drain他
  6
CONTINUOUS
 62
    4
 10
1083.1051574395676
 20
1063.0350250369618
 11
1083.1051574395676
 21
1068.4201898440967
  0
LINE
  8
_2-8_drain他
  6
CONTINUOUS
 62
    4
 10
1078.1051574395676
 20
1065.0350250369622
 11
1078.1051574395676
 21
1070.4201898440949
  0
LINE
  8
_2-8_drain他
  6
CONTINUOUS
 62
    4
 10
1073.1051574395676
 20
1067.0350250369604
 11
1073.1051574395676
 21
1072.4201898440954
  0
LINE
  8
_2-8_drain他
  6
CONTINUOUS
 62
    4
 10
1068.1051574395676
 20
1069.0350250369609
 11
1068.1051574395676
 21
1074.4201898440958
  0
LINE
  8
_2-8_drain他
  6
CONTINUOUS
 62
    4
 10
1063.1051574395676
 20
1071.0350250369613
 11
1063.1051574395676
 21
1076.4201898440963
  0
LINE
  8
_2-8_drain他
  6
CONTINUOUS
 62
    4
 10
1058.1051574395676
 20
1073.0350250369618
 11
1058.1051574395676
 21
1078.3938858154381
  0
LINE
  8
_2-8_drain他
  6
CONTINUOUS
 62
    4
 10
1053.1051574395676
 20
1074.7524095163665
 11
1053.1051574395676
 21
1079.923804858998
  0
LINE
  8
_2-8_drain他
  6
CONTINUOUS
 62
    4
 10
1048.1051574395676
 20
1075.8472153908845
 11
1048.1051574395676
 21
1080.9043467777958
  0
LINE
  8
_2-8_drain他
  6
CONTINUOUS
 62
    4
 10
1043.1051574395676
 20
1076.3629196343193
 11
1043.1051574395676
 21
1081.367872099325
  0
LINE
  8
_2-8_drain他
  6
CONTINUOUS
 62
    4
 10
1038.1051574395676
 20
1076.4123977293623
 11
1038.1051574395676
 21
1081.4123977293623
  0
LINE
  8
_2-8_drain他
  6
CONTINUOUS
 62
    4
 10
1033.1051574395676
 20
1076.4123977293623
 11
1033.1051574395676
 21
1081.4123977293623
  0
LINE
  8
_2-8_drain他
  6
CONTINUOUS
 62
    4
 10
1028.1051574395676
 20
1076.4123977293623
 11
1028.1051574395676
 21
1081.4123977293623
  0
LINE
  8
_2-8_drain他
  6
CONTINUOUS
 62
    4
 10
1023.1051574395676
 20
1076.4123977293623
 11
1023.1051574395676
 21
1081.4123977293623
  0
LINE
  8
_2-8_drain他
  6
CONTINUOUS
 62
    4
 10
1018.1051574395676
 20
1076.4123977293623
 11
1018.1051574395676
 21
1081.4123977293623
  0
LINE
  8
_2-8_drain他
  6
CONTINUOUS
 62
    4
 10
1013.1051574395676
 20
1076.4123977293623
 11
1013.1051574395676
 21
1081.4123977293623
  0
LINE
  8
_2-8_drain他
  6
CONTINUOUS
 62
    4
 10
1008.1051574395676
 20
1076.4123977293623
 11
1008.1051574395676
 21
1081.4123977293623
  0
LINE
  8
_2-8_drain他
  6
CONTINUOUS
 62
    4
 10
1003.1051574395676
 20
1076.4123977293623
 11
1003.1051574395676
 21
1081.4123977293623
  0
LINE
  8
_2-8_drain他
  6
CONTINUOUS
 62
    4
 10
998.10515743956762
 20
1076.3610741953182
 11
998.10515743956762
 21
1081.3662115581503
  0
LINE
  8
_2-8_drain他
  6
CONTINUOUS
 62
    4
 10
993.10515743956762
 20
1075.840964118441
 11
993.10515743956762
 21
1080.8987343424981
  0
LINE
  8
_2-8_drain他
  6
CONTINUOUS
 62
    4
 10
988.10515743956762
 20
1074.7415046522731
 11
988.10515743956762
 21
1079.9140627186882
  0
LINE
  8
_2-8_drain他
  6
CONTINUOUS
 62
    4
 10
983.10515743956762
 20
1073.019440807496
 11
983.10515743956762
 21
1078.3796789162154
  0
LINE
  8
_2-8_drain他
  6
CONTINUOUS
 62
    4
 10
978.10515743956762
 20
1071.0194408074956
 11
978.10515743956762
 21
1076.4046056146306
  0
LINE
  8
_2-8_drain他
  6
CONTINUOUS
 62
    4
 10
973.10515743956762
 20
1069.0194408074951
 11
973.10515743956762
 21
1074.4046056146301
  0
LINE
  8
_2-8_drain他
  6
CONTINUOUS
 62
    4
 10
968.10515743956762
 20
1067.0194408074969
 11
968.10515743956762
 21
1072.4046056146296
  0
LINE
  8
_2-8_drain他
  6
CONTINUOUS
 62
    4
 10
963.10515743956762
 20
1065.0194408074965
 11
963.10515743956762
 21
1070.4046056146315
  0
LINE
  8
_2-8_drain他
  6
CONTINUOUS
 62
    4
 10
958.10515743956762
 20
1063.019440807496
 11
958.10515743956762
 21
1068.404605614631
  0
LINE
  8
_2-8_drain他
  6
CONTINUOUS
 62
    4
 10
953.10515743956762
 20
1061.0194408074956
 11
953.10515743956762
 21
1066.4046056146306
  0
LINE
  8
_2-8_drain他
  6
CONTINUOUS
 62
    4
 10
948.10515743956762
 20
1059.0194408074951
 11
948.10515743956762
 21
1064.4046056146301
  0
LINE
  8
_2-8_drain他
  6
CONTINUOUS
 62
    4
 10
943.10515743956762
 20
1057.0194408074969
 11
943.10515743956762
 21
1062.4046056146296
  0
LINE
  8
_2-8_drain他
  6
CONTINUOUS
 62
    4
 10
938.10515743956762
 20
1056.4123977293623
 11
938.10515743956762
 21
1061.4123977293623
  0
LINE
  8
_2-8_drain他
  6
CONTINUOUS
 62
    4
 10
933.10515743956762
 20
1056.4123977293623
 11
933.10515743956762
 21
1061.4123977293623
  0
LINE
  8
_2-8_drain他
  6
CONTINUOUS
 62
    4
 10
928.10515743956762
 20
1056.4123977293623
 11
928.10515743956762
 21
1061.4123977293623
  0
LINE
  8
_2-8_drain他
  6
CONTINUOUS
 62
    4
 10
923.10515743956762
 20
1056.4123977293623
 11
923.10515743956762
 21
1061.4123977293623
  0
LINE
  8
_2-8_drain他
  6
CONTINUOUS
 62
    7
 10
946.5875497442355
 20
1058.4123977293627
 11
1094.6617257085652
 21
1058.4123977293627
  0
LINE
  8
_2-3_
  6
CONTINUOUS
 62
    3
 10
1059.5650513657436
 20
1077.8362322736264
 11
1100.6246377264004
 21
1061.4123977293623
  0
ARC
  8
_2-3_
  6
CONTINUOUS
 62
    3
 10
1040.9955175480397
 20
1031.4123977293623
 40
50
 50
68.198590513648242
 51
90
  0
LINE
  8
_2-3_
  6
CONTINUOUS
 62
    3
 10
1040.9955175480397
 20
1081.4123977293623
 11
1020.6246377264004
 21
1081.4123977293623
  0
ARC
  8
_2-3_
  6
CONTINUOUS
 62
    3
 10
1000.2537579047655
 20
1031.4123977293623
 40
50
 50
90
 51
111.80140948635176
  0
LINE
  8
_2-3_
  6
CONTINUOUS
 62
    3
 10
981.68422408705715
 20
1077.8362322736264
 11
940.62463772640035
 21
1061.4123977293623
  0
LINE
  8
_2-8_drain他
  6
CONTINUOUS
 62
    7
 10
1124.6275056594684
 20
1061.4123977293623
 11
1124.6457244469909
 21
1061.543302676044
  0
LINE
  8
_2-8_drain他
  6
CONTINUOUS
 62
    7
 10
1124.6457244469909
 20
1061.543302676044
 11
1124.6787912266516
 21
1061.7683766110629
  0
LINE
  8
_2-8_drain他
  6
CONTINUOUS
 62
    7
 10
1124.6787912266516
 20
1061.7683766110629
 11
1124.7164554425169
 21
1061.9917165213208
  0
LINE
  8
_2-8_drain他
  6
CONTINUOUS
 62
    7
 10
1124.7164554425169
 20
1061.9917165213208
 11
1124.7616268643421
 21
1062.2122249227921
  0
LINE
  8
_2-8_drain他
  6
CONTINUOUS
 62
    7
 10
1124.7616268643421
 20
1062.2122249227921
 11
1124.8172152618733
 21
1062.4288043314511
  0
LINE
  8
_2-8_drain他
  6
CONTINUOUS
 62
    7
 10
1124.8172152618733
 20
1062.4288043314511
 11
1124.8861304048612
 21
1062.6403572632701
  0
LINE
  8
_2-8_drain他
  6
CONTINUOUS
 62
    7
 10
1124.8861304048612
 20
1062.6403572632701
 11
1124.9333541031544
 21
1062.7603223662625
  0
LINE
  8
_2-8_drain他
  6
CONTINUOUS
 62
    7
 10
1124.9333541031544
 20
1062.7603223662625
 11
1124.9742951644155
 21
1062.8524392058519
  0
LINE
  8
_2-8_drain他
  6
CONTINUOUS
 62
    7
 10
1124.9742951644155
 20
1062.8524392058519
 11
1125.0527103370994
 21
1063.0081535088659
  0
LINE
  8
_2-8_drain他
  6
CONTINUOUS
 62
    7
 10
1125.0527103370994
 20
1063.0081535088659
 11
1125.1398173514278
 21
1063.1601571117455
  0
LINE
  8
_2-8_drain他
  6
CONTINUOUS
 62
    7
 10
1125.1398173514278
 20
1063.1601571117455
 11
1125.2342023405752
 21
1063.3087096275456
  0
LINE
  8
_2-8_drain他
  6
CONTINUOUS
 62
    7
 10
1125.2342023405752
 20
1063.3087096275456
 11
1125.3344514377202
 21
1063.4540706693185
  0
LINE
  8
_2-8_drain他
  6
CONTINUOUS
 62
    7
 10
1125.3344514377202
 20
1063.4540706693185
 11
1125.4391507760372
 21
1063.5964998501147
  0
LINE
  8
_2-8_drain他
  6
CONTINUOUS
 62
    7
 10
1125.4391507760372
 20
1063.5964998501147
 11
1125.5013583557136
 21
1063.6778676973183
  0
LINE
  8
_2-8_drain他
  6
CONTINUOUS
 62
    7
 10
1125.5013583557136
 20
1063.6778676973183
 11
1125.5755746296516
 21
1063.7725512901222
  0
LINE
  8
_2-8_drain他
  6
CONTINUOUS
 62
    7
 10
1125.5755746296516
 20
1063.7725512901222
 11
1125.7057995697548
 21
1063.9332700839834
  0
LINE
  8
_2-8_drain他
  6
CONTINUOUS
 62
    7
 10
1125.7057995697548
 20
1063.9332700839834
 11
1125.8386513889761
 21
1064.0911368463737
  0
LINE
  8
_2-8_drain他
  6
CONTINUOUS
 62
    7
 10
1125.8386513889761
 20
1064.0911368463737
 11
1125.9738495271038
 21
1064.2465573398392
  0
LINE
  8
_2-8_drain他
  6
CONTINUOUS
 62
    7
 10
1125.9738495271038
 20
1064.2465573398392
 11
1126.1111134239261
 21
1064.3999373269282
  0
LINE
  8
_2-8_drain他
  6
CONTINUOUS
 62
    7
 10
1126.1111134239261
 20
1064.3999373269282
 11
1126.250162519236
 21
1064.5516825701823
  0
LINE
  8
_2-8_drain他
  6
CONTINUOUS
 62
    7
 10
1126.250162519236
 20
1064.5516825701823
 11
1126.3315184171458
 21
1064.6391056631894
  0
LINE
  8
_2-8_drain他
  6
CONTINUOUS
 62
    7
 10
1126.3315184171458
 20
1064.6391056631894
 11
1126.4171534905606
 21
1064.7301758375881
  0
LINE
  8
_2-8_drain他
  6
CONTINUOUS
 62
    7
 10
1126.4171534905606
 20
1064.7301758375881
 11
1126.5663508488703
 21
1064.8858775864217
  0
LINE
  8
_2-8_drain他
  6
CONTINUOUS
 62
    7
 10
1126.5663508488703
 20
1064.8858775864217
 11
1126.7181010624379
 21
1065.0392235648208
  0
LINE
  8
_2-8_drain他
  6
CONTINUOUS
 62
    7
 10
1126.7181010624379
 20
1065.0392235648208
 11
1126.8730901419437
 21
1065.1894112037401
  0
LINE
  8
_2-8_drain他
  6
CONTINUOUS
 62
    7
 10
1126.8730901419437
 20
1065.1894112037401
 11
1127.0320040980503
 21
1065.3356379341387
  0
LINE
  8
_2-8_drain他
  6
CONTINUOUS
 62
    7
 10
1127.0320040980503
 20
1065.3356379341387
 11
1127.1955289414288
 21
1065.4771011869668
  0
LINE
  8
_2-8_drain他
  6
CONTINUOUS
 62
    7
 10
1127.1955289414288
 20
1065.4771011869668
 11
1127.2927563830169
 21
1065.5566509942475
  0
LINE
  8
_2-8_drain他
  6
CONTINUOUS
 62
    7
 10
1127.2927563830169
 20
1065.5566509942475
 11
1127.3804100825598
 21
1065.6253763467437
  0
LINE
  8
_2-8_drain他
  6
CONTINUOUS
 62
    7
 10
1127.3804100825598
 20
1065.6253763467437
 11
1127.5350231824812
 21
1065.7395891145445
  0
LINE
  8
_2-8_drain他
  6
CONTINUOUS
 62
    7
 10
1127.5350231824812
 20
1065.7395891145445
 11
1127.693988325668
 21
1065.8475618034738
  0
LINE
  8
_2-8_drain他
  6
CONTINUOUS
 62
    7
 10
1127.693988325668
 20
1065.8475618034738
 11
1127.8572349828935
 21
1065.9483370349001
  0
LINE
  8
_2-8_drain他
  6
CONTINUOUS
 62
    7
 10
1127.8572349828935
 20
1065.9483370349001
 11
1128.0246926249263
 21
1066.0409574301873
  0
LINE
  8
_2-8_drain他
  6
CONTINUOUS
 62
    7
 10
1128.0246926249263
 20
1066.0409574301873
 11
1128.1962907225304
 21
1066.1244656106971
  0
LINE
  8
_2-8_drain他
  6
CONTINUOUS
 62
    7
 10
1128.1962907225304
 20
1066.1244656106971
 11
1128.2976869837009
 21
1066.1683478816196
  0
LINE
  8
_2-8_drain他
  6
CONTINUOUS
 62
    7
 10
1128.2976869837009
 20
1066.1683478816196
 11
1128.4115924764362
 21
1066.2128765948826
  0
LINE
  8
_2-8_drain他
  6
CONTINUOUS
 62
    7
 10
1128.4115924764362
 20
1066.2128765948826
 11
1128.6114809342914
 21
1066.2801872232951
  0
LINE
  8
_2-8_drain他
  6
CONTINUOUS
 62
    7
 10
1128.6114809342914
 20
1066.2801872232951
 11
1128.8151830331524
 21
1066.336790774795
  0
LINE
  8
_2-8_drain他
  6
CONTINUOUS
 62
    7
 10
1128.8151830331524
 20
1066.336790774795
 11
1129.0219821099615
 21
1066.3841656485245
  0
LINE
  8
_2-8_drain他
  6
CONTINUOUS
 62
    7
 10
1129.0219821099615
 20
1066.3841656485245
 11
1129.2311615016704
 21
1066.423790243635
  0
LINE
  8
_2-8_drain他
  6
CONTINUOUS
 62
    7
 10
1129.2311615016704
 20
1066.423790243635
 11
1129.4420045452259
 21
1066.457142959269
  0
LINE
  8
_2-8_drain他
  6
CONTINUOUS
 62
    7
 10
1129.4420045452259
 20
1066.457142959269
 11
1129.5647733932535
 21
1066.4741963253034
  0
LINE
  8
_2-8_drain他
  6
CONTINUOUS
 62
    7
 10
1129.5647733932535
 20
1066.4741963253034
 11
1129.7132303633359
 21
1066.4929133245716
  0
LINE
  8
_2-8_drain他
  6
CONTINUOUS
 62
    7
 10
1129.7132303633359
 20
1066.4929133245716
 11
1129.969550628625
 21
1066.5198200856601
  0
LINE
  8
_2-8_drain他
  6
CONTINUOUS
 62
    7
 10
1129.969550628625
 20
1066.5198200856601
 11
1130.225945957204
 21
1066.5386783329593
  0
LINE
  8
_2-8_drain他
  6
CONTINUOUS
 62
    7
 10
1130.225945957204
 20
1066.5386783329593
 11
1130.4819737938349
 21
1066.5480244241469
  0
LINE
  8
_2-8_drain他
  6
CONTINUOUS
 62
    7
 10
1130.4819737938349
 20
1066.5480244241469
 11
1130.7371915832707
 21
1066.5463947169003
  0
LINE
  8
_2-8_drain他
  6
CONTINUOUS
 62
    7
 10
1130.7371915832707
 20
1066.5463947169003
 11
1130.99115677026
 21
1066.532325568897
  0
LINE
  8
_2-8_drain他
  6
CONTINUOUS
 62
    7
 10
1130.99115677026
 20
1066.532325568897
 11
1131.1377082464967
 21
1066.5178889601164
  0
LINE
  8
_2-8_drain他
  6
CONTINUOUS
 62
    7
 10
1131.1377082464967
 20
1066.5178889601164
 11
1131.2450524380617
 21
1066.5041991740311
  0
LINE
  8
_2-8_drain他
  6
CONTINUOUS
 62
    7
 10
1131.2450524380617
 20
1066.5041991740311
 11
1131.4295024988312
 21
1066.4752395427906
  0
LINE
  8
_2-8_drain他
  6
CONTINUOUS
 62
    7
 10
1131.4295024988312
 20
1066.4752395427906
 11
1131.6134733562737
 21
1066.4409240612515
  0
LINE
  8
_2-8_drain他
  6
CONTINUOUS
 62
    7
 10
1131.6134733562737
 20
1066.4409240612515
 11
1131.7973293921293
 21
1066.4029092352241
  0
LINE
  8
_2-8_drain他
  6
CONTINUOUS
 62
    7
 10
1131.7973293921293
 20
1066.4029092352241
 11
1131.9814349881515
 21
1066.3628515705188
  0
LINE
  8
_2-8_drain他
  6
CONTINUOUS
 62
    7
 10
1131.9814349881515
 20
1066.3628515705188
 11
1132.1661545260802
 21
1066.3224075729415
  0
LINE
  8
_2-8_drain他
  6
CONTINUOUS
 62
    7
 10
1132.1661545260802
 20
1066.3224075729415
 11
1132.273716751615
 21
1066.2994257860562
  0
LINE
  8
_2-8_drain他
  6
CONTINUOUS
 62
    7
 10
1132.273716751615
 20
1066.2994257860562
 11
1132.3958279829455
 21
1066.2741520645575
  0
LINE
  8
_2-8_drain他
  6
CONTINUOUS
 62
    7
 10
1132.3958279829455
 20
1066.2741520645575
 11
1132.6066260065088
 21
1066.2308025483214
  0
LINE
  8
_2-8_drain他
  6
CONTINUOUS
 62
    7
 10
1132.6066260065088
 20
1066.2308025483214
 11
1132.8163312303466
 21
1066.1846693901732
  0
LINE
  8
_2-8_drain他
  6
CONTINUOUS
 62
    7
 10
1132.8163312303466
 20
1066.1846693901732
 11
1133.0232881796107
 21
1066.132183348471
  0
LINE
  8
_2-8_drain他
  6
CONTINUOUS
 62
    7
 10
1133.0232881796107
 20
1066.132183348471
 11
1133.2258413794668
 21
1066.0697751815708
  0
LINE
  8
_2-8_drain他
  6
CONTINUOUS
 62
    7
 10
1133.2258413794668
 20
1066.0697751815708
 11
1133.4223353550667
 21
1065.9938756478375
  0
LINE
  8
_2-8_drain他
  6
CONTINUOUS
 62
    7
 10
1133.4223353550667
 20
1065.9938756478375
 11
1133.5328731811885
 21
1065.9422657071816
  0
LINE
  8
_2-8_drain他
  6
CONTINUOUS
 62
    7
 10
1133.5328731811885
 20
1065.9422657071816
 11
1133.6321954123648
 21
1065.8891802352566
  0
LINE
  8
_2-8_drain他
  6
CONTINUOUS
 62
    7
 10
1133.6321954123648
 20
1065.8891802352566
 11
1133.797619327556
 21
1065.7858939541582
  0
LINE
  8
_2-8_drain他
  6
CONTINUOUS
 62
    7
 10
1133.797619327556
 20
1065.7858939541582
 11
1133.9556708989173
 21
1065.669344322426
  0
LINE
  8
_2-8_drain他
  6
CONTINUOUS
 62
    7
 10
1133.9556708989173
 20
1065.669344322426
 11
1134.1063459453333
 21
1065.5414176491111
  0
LINE
  8
_2-8_drain他
  6
CONTINUOUS
 62
    7
 10
1134.1063459453333
 20
1065.5414176491111
 11
1134.2496402856975
 21
1065.4040002432641
  0
LINE
  8
_2-8_drain他
  6
CONTINUOUS
 62
    7
 10
1134.2496402856975
 20
1065.4040002432641
 11
1134.3855497389038
 21
1065.2589784139361
  0
LINE
  8
_2-8_drain他
  6
CONTINUOUS
 62
    7
 10
1134.3855497389038
 20
1065.2589784139361
 11
1134.4609918188914
 21
1065.1721247099392
  0
LINE
  8
_2-8_drain他
  6
CONTINUOUS
 62
    7
 10
1134.4609918188914
 20
1065.1721247099392
 11
1134.5452868432628
 21
1065.0695573219475
  0
LINE
  8
_2-8_drain他
  6
CONTINUOUS
 62
    7
 10
1134.5452868432628
 20
1065.0695573219475
 11
1134.6834587025294
 21
1064.8882723122103
  0
LINE
  8
_2-8_drain他
  6
CONTINUOUS
 62
    7
 10
1134.6834587025294
 20
1064.8882723122103
 11
1134.813568969548
 21
1064.7020476375912
  0
LINE
  8
_2-8_drain他
  6
CONTINUOUS
 62
    7
 10
1134.813568969548
 20
1064.7020476375912
 11
1134.9367888715367
 21
1064.5116815765011
  0
LINE
  8
_2-8_drain他
  6
CONTINUOUS
 62
    7
 10
1134.9367888715367
 20
1064.5116815765011
 11
1135.0542896357044
 21
1064.3179724073577
  0
LINE
  8
_2-8_drain他
  6
CONTINUOUS
 62
    7
 10
1135.0542896357044
 20
1064.3179724073577
 11
1135.1672424892738
 21
1064.1217184085742
  0
LINE
  8
_2-8_drain他
  6
CONTINUOUS
 62
    7
 10
1135.1672424892738
 20
1064.1217184085742
 11
1135.2311328161338
 21
1064.0070396115455
  0
LINE
  8
_2-8_drain他
  6
CONTINUOUS
 62
    7
 10
1135.2311328161338
 20
1064.0070396115455
 11
1135.2984001836373
 21
1063.8839730194088
  0
LINE
  8
_2-8_drain他
  6
CONTINUOUS
 62
    7
 10
1135.2984001836373
 20
1063.8839730194088
 11
1135.4123814248485
 21
1063.6707662630404
  0
LINE
  8
_2-8_drain他
  6
CONTINUOUS
 62
    7
 10
1135.4123814248485
 20
1063.6707662630404
 11
1135.5244959732088
 21
1063.4564692635042
  0
LINE
  8
_2-8_drain他
  6
CONTINUOUS
 62
    7
 10
1135.5244959732088
 20
1063.4564692635042
 11
1135.6355125824573
 21
1063.2413200024309
  0
LINE
  8
_2-8_drain他
  6
CONTINUOUS
 62
    7
 10
1135.6355125824573
 20
1063.2413200024309
 11
1135.7462000063149
 21
1063.0255564614488
  0
LINE
  8
_2-8_drain他
  6
CONTINUOUS
 62
    7
 10
1135.7462000063149
 20
1063.0255564614488
 11
1135.8573269985161
 21
1062.8094166221929
  0
LINE
  8
_2-8_drain他
  6
CONTINUOUS
 62
    7
 10
1135.8573269985161
 20
1062.8094166221929
 11
1135.9222849931436
 21
1062.6839768726934
  0
LINE
  8
_2-8_drain他
  6
CONTINUOUS
 62
    7
 10
1135.9222849931436
 20
1062.6839768726934
 11
1136.0106984473211
 21
1062.5151486896864
  0
LINE
  8
_2-8_drain他
  6
CONTINUOUS
 62
    7
 10
1136.0106984473211
 20
1062.5151486896864
 11
1136.1672032632484
 21
1062.2257529237988
  0
LINE
  8
_2-8_drain他
  6
CONTINUOUS
 62
    7
 10
1136.1672032632484
 20
1062.2257529237988
 11
1136.33142485648
 21
1061.9410447475486
  0
LINE
  8
_2-8_drain他
  6
CONTINUOUS
 62
    7
 10
1136.33142485648
 20
1061.9410447475486
 11
1136.5063488438634
 21
1061.6639913195293
  0
LINE
  8
_2-8_drain他
  6
CONTINUOUS
 62
    7
 10
1136.5063488438634
 20
1061.6639913195293
 11
1136.6949608422644
 21
1061.3975597983433
  0
LINE
  8
_2-8_drain他
  6
CONTINUOUS
 62
    7
 10
1136.6949608422644
 20
1061.3975597983433
 11
1136.9002464685398
 21
1061.1447173425865
  0
LINE
  8
_2-8_drain他
  6
CONTINUOUS
 62
    7
 10
1136.9002464685398
 20
1061.1447173425865
 11
1137.028128476363
 21
1061.0054644428062
  0
LINE
  8
_2-8_drain他
  6
CONTINUOUS
 62
    7
 10
1137.028128476363
 20
1061.0054644428062
 11
1137.0743436486689
 21
1060.9583594368958
  0
LINE
  8
_2-8_drain他
  6
CONTINUOUS
 62
    7
 10
1137.0743436486689
 20
1060.9583594368958
 11
1137.1560429102099
 21
1060.8790143418612
  0
LINE
  8
_2-8_drain他
  6
CONTINUOUS
 62
    7
 10
1137.1560429102099
 20
1060.8790143418612
 11
1137.2402453025413
 21
1060.8022142324178
  0
LINE
  8
_2-8_drain他
  6
CONTINUOUS
 62
    7
 10
1137.2402453025413
 20
1060.8022142324178
 11
1137.3268912780347
 21
1060.7281653290927
  0
LINE
  8
_2-8_drain他
  6
CONTINUOUS
 62
    7
 10
1137.3268912780347
 20
1060.7281653290927
 11
1137.4159212890706
 21
1060.6570738524017
  0
LINE
  8
_2-8_drain他
  6
CONTINUOUS
 62
    7
 10
1137.4159212890706
 20
1060.6570738524017
 11
1137.507275788025
 21
1060.589146022872
  0
LINE
  8
_2-8_drain他
  6
CONTINUOUS
 62
    7
 10
1137.507275788025
 20
1060.589146022872
 11
1137.5613030129168
 21
1060.5512787264827
  0
LINE
  8
_2-8_drain他
  6
CONTINUOUS
 62
    7
 10
1137.5613030129168
 20
1060.5512787264827
 11
1137.6509044240036
 21
1060.4919860361049
  0
LINE
  8
_2-8_drain他
  6
CONTINUOUS
 62
    7
 10
1137.6509044240036
 20
1060.4919860361049
 11
1137.8090958681785
 21
1060.3955727719092
  0
LINE
  8
_2-8_drain他
  6
CONTINUOUS
 62
    7
 10
1137.8090958681785
 20
1060.3955727719092
 11
1137.9705071552096
 21
1060.3042443628381
  0
LINE
  8
_2-8_drain他
  6
CONTINUOUS
 62
    7
 10
1137.9705071552096
 20
1060.3042443628381
 11
1138.1334271035028
 21
1060.2153536543876
  0
LINE
  8
_2-8_drain他
  6
CONTINUOUS
 62
    7
 10
1138.1334271035028
 20
1060.2153536543876
 11
1138.2961445314547
 21
1060.1262534920518
  0
LINE
  8
_2-8_drain他
  6
CONTINUOUS
 62
    7
 10
1138.2961445314547
 20
1060.1262534920518
 11
1138.4569482574668
 21
1060.0342967213267
  0
LINE
  8
_2-8_drain他
  6
CONTINUOUS
 62
    7
 10
1138.4569482574668
 20
1060.0342967213267
 11
1138.5486632657919
 21
1059.9786097798149
  0
LINE
  8
_2-8_drain他
  6
CONTINUOUS
 62
    7
 10
1138.5486632657919
 20
1059.9786097798149
 11
1138.6410742581936
 21
1059.9192450099424
  0
LINE
  8
_2-8_drain他
  6
CONTINUOUS
 62
    7
 10
1138.6410742581936
 20
1059.9192450099424
 11
1138.7970172603443
 21
1059.8117432481747
  0
LINE
  8
_2-8_drain他
  6
CONTINUOUS
 62
    7
 10
1138.7970172603443
 20
1059.8117432481747
 11
1138.9493398025659
 21
1059.6987600582072
  0
LINE
  8
_2-8_drain他
  6
CONTINUOUS
 62
    7
 10
1138.9493398025659
 20
1059.6987600582072
 11
1139.0988162913025
 21
1059.5815000058117
  0
LINE
  8
_2-8_drain他
  6
CONTINUOUS
 62
    7
 10
1139.0988162913025
 20
1059.5815000058117
 11
1139.2462211329937
 21
1059.4611676567645
  0
LINE
  8
_2-8_drain他
  6
CONTINUOUS
 62
    7
 10
1139.2462211329937
 20
1059.4611676567645
 11
1139.3923287340929
 21
1059.3389675768374
  0
LINE
  8
_2-8_drain他
  6
CONTINUOUS
 62
    7
 10
1139.3923287340929
 20
1059.3389675768374
 11
1139.4767819034948
 21
1059.2677103977446
  0
LINE
  8
_2-8_drain他
  6
CONTINUOUS
 62
    7
 10
1139.4767819034948
 20
1059.2677103977446
 11
1139.5826237671142
 21
1059.1782298138453
  0
LINE
  8
_2-8_drain他
  6
CONTINUOUS
 62
    7
 10
1139.5826237671142
 20
1059.1782298138453
 11
1139.7641965454247
 21
1059.023146760049
  0
LINE
  8
_2-8_drain他
  6
CONTINUOUS
 62
    7
 10
1139.7641965454247
 20
1059.023146760049
 11
1139.9433711980507
 21
1058.8657575918076
  0
LINE
  8
_2-8_drain他
  6
CONTINUOUS
 62
    7
 10
1139.9433711980507
 20
1058.8657575918076
 11
1140.1187033242738
 21
1058.7045673938821
  0
LINE
  8
_2-8_drain他
  6
CONTINUOUS
 62
    7
 10
1140.1187033242738
 20
1058.7045673938821
 11
1140.2887485233848
 21
1058.5380812510318
  0
LINE
  8
_2-8_drain他
  6
CONTINUOUS
 62
    7
 10
1140.2887485233848
 20
1058.5380812510318
 11
1140.4520623946607
 21
1058.3648042480224
  0
LINE
  8
_2-8_drain他
  6
CONTINUOUS
 62
    7
 10
1140.4520623946607
 20
1058.3648042480224
 11
1140.5431309766025
 21
1058.2606029398114
  0
LINE
  8
_2-8_drain他
  6
CONTINUOUS
 62
    7
 10
1140.5431309766025
 20
1058.2606029398114
 11
1140.5947902492378
 21
1058.1985156642902
  0
LINE
  8
_2-8_drain他
  6
CONTINUOUS
 62
    7
 10
1140.5947902492378
 20
1058.1985156642902
 11
1140.6811153595434
 21
1058.0890429244512
  0
LINE
  8
_2-8_drain他
  6
CONTINUOUS
 62
    7
 10
1140.6811153595434
 20
1058.0890429244512
 11
1140.7634752316742
 21
1057.9765416666926
  0
LINE
  8
_2-8_drain他
  6
CONTINUOUS
 62
    7
 10
1140.7634752316742
 20
1057.9765416666926
 11
1140.8412959224186
 21
1057.8610607339813
  0
LINE
  8
_2-8_drain他
  6
CONTINUOUS
 62
    7
 10
1140.8412959224186
 20
1057.8610607339813
 11
1140.9140034885647
 21
1057.7426489692887
  0
LINE
  8
_2-8_drain他
  6
CONTINUOUS
 62
    7
 10
1140.9140034885647
 20
1057.7426489692887
 11
1140.9810239868918
 21
1057.6213552155839
  0
LINE
  8
_2-8_drain他
  6
CONTINUOUS
 62
    7
 10
1140.9810239868918
 20
1057.6213552155839
 11
1141.0170638979796
 21
1057.5497035577434
  0
LINE
  8
_2-8_drain他
  6
CONTINUOUS
 62
    7
 10
1141.0170638979796
 20
1057.5497035577434
 11
1141.0637157513381
 21
1057.448227666692
  0
LINE
  8
_2-8_drain他
  6
CONTINUOUS
 62
    7
 10
1141.0637157513381
 20
1057.448227666692
 11
1141.1352025096901
 21
1057.2694632876421
  0
LINE
  8
_2-8_drain他
  6
CONTINUOUS
 62
    7
 10
1141.1352025096901
 20
1057.2694632876421
 11
1141.197153848311
 21
1057.0866428694928
  0
LINE
  8
_2-8_drain他
  6
CONTINUOUS
 62
    7
 10
1141.197153848311
 20
1057.0866428694928
 11
1141.2516517365791
 21
1056.9006520103023
  0
LINE
  8
_2-8_drain他
  6
CONTINUOUS
 62
    7
 10
1141.2516517365791
 20
1056.9006520103023
 11
1141.300778143868
 21
1056.7123763081288
  0
LINE
  8
_2-8_drain他
  6
CONTINUOUS
 62
    7
 10
1141.300778143868
 20
1056.7123763081288
 11
1141.3466150395468
 21
1056.5227013610236
  0
LINE
  8
_2-8_drain他
  6
CONTINUOUS
 62
    7
 10
1141.3466150395468
 20
1056.5227013610236
 11
1141.372513589017
 21
1056.4123977293623
  0
LINE
  8
_2-3_
  6
CONTINUOUS
 62
    3
 10
1130.6246377264004
 20
1056.4123977293623
 11
1130.6246377264004
 21
1061.4123977293623
  0
LINE
  8
_2-3_
  6
CONTINUOUS
 62
    3
 10
1130.6246377264004
 20
1061.4123977293623
 11
1100.6246377264004
 21
1061.4123977293623
  0
LINE
  8
_2-8_drain他
  6
CONTINUOUS
 62
    4
 10
1128.1051574395676
 20
1056.4123977293623
 11
1128.1051574395676
 21
1061.4123977293623
  0
LINE
  8
_2-8_drain他
  6
CONTINUOUS
 62
    4
 10
1123.1051574395676
 20
1056.4123977293623
 11
1123.1051574395676
 21
1061.4123977293623
  0
LINE
  8
_2-8_drain他
  6
CONTINUOUS
 62
    7
 10
916.62176979333231
 20
1061.4123977293623
 11
916.60355100580978
 21
1061.543302676044
  0
LINE
  8
_2-8_drain他
  6
CONTINUOUS
 62
    7
 10
916.60355100580978
 20
1061.543302676044
 11
916.57048422614912
 21
1061.7683766110629
  0
LINE
  8
_2-8_drain他
  6
CONTINUOUS
 62
    7
 10
916.57048422614912
 20
1061.7683766110629
 11
916.53282001028379
 21
1061.9917165213208
  0
LINE
  8
_2-8_drain他
  6
CONTINUOUS
 62
    7
 10
916.53282001028379
 20
1061.9917165213208
 11
916.48764858845857
 21
1062.2122249227921
  0
LINE
  8
_2-8_drain他
  6
CONTINUOUS
 62
    7
 10
916.48764858845857
 20
1062.2122249227921
 11
916.43206019092736
 21
1062.4288043314511
  0
LINE
  8
_2-8_drain他
  6
CONTINUOUS
 62
    7
 10
916.43206019092736
 20
1062.4288043314511
 11
916.3631450479395
 21
1062.6403572632701
  0
LINE
  8
_2-8_drain他
  6
CONTINUOUS
 62
    7
 10
916.3631450479395
 20
1062.6403572632701
 11
916.31592134964626
 21
1062.7603223662625
  0
LINE
  8
_2-8_drain他
  6
CONTINUOUS
 62
    7
 10
916.31592134964626
 20
1062.7603223662625
 11
916.27498028838522
 21
1062.8524392058519
  0
LINE
  8
_2-8_drain他
  6
CONTINUOUS
 62
    7
 10
916.27498028838522
 20
1062.8524392058519
 11
916.19656511570133
 21
1063.0081535088659
  0
LINE
  8
_2-8_drain他
  6
CONTINUOUS
 62
    7
 10
916.19656511570133
 20
1063.0081535088659
 11
916.10945810137741
 21
1063.1601571117455
  0
LINE
  8
_2-8_drain他
  6
CONTINUOUS
 62
    7
 10
916.10945810137741
 20
1063.1601571117455
 11
916.01507311222554
 21
1063.3087096275456
  0
LINE
  8
_2-8_drain他
  6
CONTINUOUS
 62
    7
 10
916.01507311222554
 20
1063.3087096275456
 11
915.91482401508506
 21
1063.4540706693185
  0
LINE
  8
_2-8_drain他
  6
CONTINUOUS
 62
    7
 10
915.91482401508506
 20
1063.4540706693185
 11
915.81012467676805
 21
1063.5964998501147
  0
LINE
  8
_2-8_drain他
  6
CONTINUOUS
 62
    7
 10
915.81012467676805
 20
1063.5964998501147
 11
915.74791709708711
 21
1063.6778676973183
  0
LINE
  8
_2-8_drain他
  6
CONTINUOUS
 62
    7
 10
915.74791709708711
 20
1063.6778676973183
 11
915.67370082315369
 21
1063.7725512901222
  0
LINE
  8
_2-8_drain他
  6
CONTINUOUS
 62
    7
 10
915.67370082315369
 20
1063.7725512901222
 11
915.54347588305041
 21
1063.9332700839834
  0
LINE
  8
_2-8_drain他
  6
CONTINUOUS
 62
    7
 10
915.54347588305041
 20
1063.9332700839834
 11
915.41062406382912
 21
1064.0911368463737
  0
LINE
  8
_2-8_drain他
  6
CONTINUOUS
 62
    7
 10
915.41062406382912
 20
1064.0911368463737
 11
915.27542592570148
 21
1064.2465573398392
  0
LINE
  8
_2-8_drain他
  6
CONTINUOUS
 62
    7
 10
915.27542592570148
 20
1064.2465573398392
 11
915.1381620288746
 21
1064.3999373269282
  0
LINE
  8
_2-8_drain他
  6
CONTINUOUS
 62
    7
 10
915.1381620288746
 20
1064.3999373269282
 11
914.99911293356922
 21
1064.5516825701823
  0
LINE
  8
_2-8_drain他
  6
CONTINUOUS
 62
    7
 10
914.99911293356922
 20
1064.5516825701823
 11
914.91775703565486
 21
1064.6391056631894
  0
LINE
  8
_2-8_drain他
  6
CONTINUOUS
 62
    7
 10
914.91775703565486
 20
1064.6391056631894
 11
914.83212196224008
 21
1064.7301758375881
  0
LINE
  8
_2-8_drain他
  6
CONTINUOUS
 62
    7
 10
914.83212196224008
 20
1064.7301758375881
 11
914.68292460393491
 21
1064.8858775864217
  0
LINE
  8
_2-8_drain他
  6
CONTINUOUS
 62
    7
 10
914.68292460393491
 20
1064.8858775864217
 11
914.53117439036282
 21
1065.0392235648208
  0
LINE
  8
_2-8_drain他
  6
CONTINUOUS
 62
    7
 10
914.53117439036282
 20
1065.0392235648208
 11
914.3761853108615
 21
1065.1894112037401
  0
LINE
  8
_2-8_drain他
  6
CONTINUOUS
 62
    7
 10
914.3761853108615
 20
1065.1894112037401
 11
914.21727135475498
 21
1065.3356379341387
  0
LINE
  8
_2-8_drain他
  6
CONTINUOUS
 62
    7
 10
914.21727135475498
 20
1065.3356379341387
 11
914.05374651137186
 21
1065.4771011869668
  0
LINE
  8
_2-8_drain他
  6
CONTINUOUS
 62
    7
 10
914.05374651137186
 20
1065.4771011869668
 11
913.95651906978378
 21
1065.5566509942475
  0
LINE
  8
_2-8_drain他
  6
CONTINUOUS
 62
    7
 10
913.95651906978378
 20
1065.5566509942475
 11
913.86886537024088
 21
1065.6253763467437
  0
LINE
  8
_2-8_drain他
  6
CONTINUOUS
 62
    7
 10
913.86886537024088
 20
1065.6253763467437
 11
913.7142522703241
 21
1065.7395891145445
  0
LINE
  8
_2-8_drain他
  6
CONTINUOUS
 62
    7
 10
913.7142522703241
 20
1065.7395891145445
 11
913.55528712713271
 21
1065.8475618034738
  0
LINE
  8
_2-8_drain他
  6
CONTINUOUS
 62
    7
 10
913.55528712713271
 20
1065.8475618034738
 11
913.39204046990722
 21
1065.9483370349001
  0
LINE
  8
_2-8_drain他
  6
CONTINUOUS
 62
    7
 10
913.39204046990722
 20
1065.9483370349001
 11
913.22458282787443
 21
1066.0409574301873
  0
LINE
  8
_2-8_drain他
  6
CONTINUOUS
 62
    7
 10
913.22458282787443
 20
1066.0409574301873
 11
913.05298473027028
 21
1066.1244656106971
  0
LINE
  8
_2-8_drain他
  6
CONTINUOUS
 62
    7
 10
913.05298473027028
 20
1066.1244656106971
 11
912.95158846910431
 21
1066.1683478816196
  0
LINE
  8
_2-8_drain他
  6
CONTINUOUS
 62
    7
 10
912.95158846910431
 20
1066.1683478816196
 11
912.83768297636448
 21
1066.2128765948826
  0
LINE
  8
_2-8_drain他
  6
CONTINUOUS
 62
    7
 10
912.83768297636448
 20
1066.2128765948826
 11
912.63779451850928
 21
1066.2801872232951
  0
LINE
  8
_2-8_drain他
  6
CONTINUOUS
 62
    7
 10
912.63779451850928
 20
1066.2801872232951
 11
912.43409241965287
 21
1066.336790774795
  0
LINE
  8
_2-8_drain他
  6
CONTINUOUS
 62
    7
 10
912.43409241965287
 20
1066.336790774795
 11
912.22729334284372
 21
1066.3841656485245
  0
LINE
  8
_2-8_drain他
  6
CONTINUOUS
 62
    7
 10
912.22729334284372
 20
1066.3841656485245
 11
912.01811395113486
 21
1066.423790243635
  0
LINE
  8
_2-8_drain他
  6
CONTINUOUS
 62
    7
 10
912.01811395113486
 20
1066.423790243635
 11
911.80727090757932
 21
1066.457142959269
  0
LINE
  8
_2-8_drain他
  6
CONTINUOUS
 62
    7
 10
911.80727090757932
 20
1066.457142959269
 11
911.68450205954719
 21
1066.4741963253034
  0
LINE
  8
_2-8_drain他
  6
CONTINUOUS
 62
    7
 10
911.68450205954719
 20
1066.4741963253034
 11
911.53604508946478
 21
1066.4929133245716
  0
LINE
  8
_2-8_drain他
  6
CONTINUOUS
 62
    7
 10
911.53604508946478
 20
1066.4929133245716
 11
911.27972482418022
 21
1066.5198200856601
  0
LINE
  8
_2-8_drain他
  6
CONTINUOUS
 62
    7
 10
911.27972482418022
 20
1066.5198200856601
 11
911.02332949559673
 21
1066.5386783329593
  0
LINE
  8
_2-8_drain他
  6
CONTINUOUS
 62
    7
 10
911.02332949559673
 20
1066.5386783329593
 11
910.76730165896583
 21
1066.5480244241469
  0
LINE
  8
_2-8_drain他
  6
CONTINUOUS
 62
    7
 10
910.76730165896583
 20
1066.5480244241469
 11
910.51208386953454
 21
1066.5463947169003
  0
LINE
  8
_2-8_drain他
  6
CONTINUOUS
 62
    7
 10
910.51208386953454
 20
1066.5463947169003
 11
910.25811868254073
 21
1066.532325568897
  0
LINE
  8
_2-8_drain他
  6
CONTINUOUS
 62
    7
 10
910.25811868254073
 20
1066.532325568897
 11
910.11156720630402
 21
1066.5178889601164
  0
LINE
  8
_2-8_drain他
  6
CONTINUOUS
 62
    7
 10
910.11156720630402
 20
1066.5178889601164
 11
910.00422301473895
 21
1066.5041991740311
  0
LINE
  8
_2-8_drain他
  6
CONTINUOUS
 62
    7
 10
910.00422301473895
 20
1066.5041991740311
 11
909.8197729539695
 21
1066.4752395427906
  0
LINE
  8
_2-8_drain他
  6
CONTINUOUS
 62
    7
 10
909.8197729539695
 20
1066.4752395427906
 11
909.63580209652696
 21
1066.4409240612515
  0
LINE
  8
_2-8_drain他
  6
CONTINUOUS
 62
    7
 10
909.63580209652696
 20
1066.4409240612515
 11
909.45194606067139
 21
1066.4029092352241
  0
LINE
  8
_2-8_drain他
  6
CONTINUOUS
 62
    7
 10
909.45194606067139
 20
1066.4029092352241
 11
909.26784046464923
 21
1066.3628515705188
  0
LINE
  8
_2-8_drain他
  6
CONTINUOUS
 62
    7
 10
909.26784046464923
 20
1066.3628515705188
 11
909.08312092672054
 21
1066.3224075729415
  0
LINE
  8
_2-8_drain他
  6
CONTINUOUS
 62
    7
 10
909.08312092672054
 20
1066.3224075729415
 11
908.97555870118572
 21
1066.2994257860562
  0
LINE
  8
_2-8_drain他
  6
CONTINUOUS
 62
    7
 10
908.97555870118572
 20
1066.2994257860562
 11
908.8534474698597
 21
1066.2741520645575
  0
LINE
  8
_2-8_drain他
  6
CONTINUOUS
 62
    7
 10
908.8534474698597
 20
1066.2741520645575
 11
908.64264944629645
 21
1066.2308025483214
  0
LINE
  8
_2-8_drain他
  6
CONTINUOUS
 62
    7
 10
908.64264944629645
 20
1066.2308025483214
 11
908.43294422245867
 21
1066.1846693901732
  0
LINE
  8
_2-8_drain他
  6
CONTINUOUS
 62
    7
 10
908.43294422245867
 20
1066.1846693901732
 11
908.22598727318996
 21
1066.132183348471
  0
LINE
  8
_2-8_drain他
  6
CONTINUOUS
 62
    7
 10
908.22598727318996
 20
1066.132183348471
 11
908.02343407333387
 21
1066.0697751815708
  0
LINE
  8
_2-8_drain他
  6
CONTINUOUS
 62
    7
 10
908.02343407333387
 20
1066.0697751815708
 11
907.826940097734
 21
1065.9938756478375
  0
LINE
  8
_2-8_drain他
  6
CONTINUOUS
 62
    7
 10
907.826940097734
 20
1065.9938756478375
 11
907.71640227161674
 21
1065.9422657071816
  0
LINE
  8
_2-8_drain他
  6
CONTINUOUS
 62
    7
 10
907.71640227161674
 20
1065.9422657071816
 11
907.61708004043589
 21
1065.8891802352566
  0
LINE
  8
_2-8_drain他
  6
CONTINUOUS
 62
    7
 10
907.61708004043589
 20
1065.8891802352566
 11
907.45165612524465
 21
1065.7858939541582
  0
LINE
  8
_2-8_drain他
  6
CONTINUOUS
 62
    7
 10
907.45165612524465
 20
1065.7858939541582
 11
907.29360455388792
 21
1065.669344322426
  0
LINE
  8
_2-8_drain他
  6
CONTINUOUS
 62
    7
 10
907.29360455388792
 20
1065.669344322426
 11
907.14292950746744
 21
1065.5414176491111
  0
LINE
  8
_2-8_drain他
  6
CONTINUOUS
 62
    7
 10
907.14292950746744
 20
1065.5414176491111
 11
906.99963516710318
 21
1065.4040002432641
  0
LINE
  8
_2-8_drain他
  6
CONTINUOUS
 62
    7
 10
906.99963516710318
 20
1065.4040002432641
 11
906.86372571389688
 21
1065.2589784139361
  0
LINE
  8
_2-8_drain他
  6
CONTINUOUS
 62
    7
 10
906.86372571389688
 20
1065.2589784139361
 11
906.78828363391381
 21
1065.1721247099392
  0
LINE
  8
_2-8_drain他
  6
CONTINUOUS
 62
    7
 10
906.78828363391381
 20
1065.1721247099392
 11
906.70398860954242
 21
1065.0695573219475
  0
LINE
  8
_2-8_drain他
  6
CONTINUOUS
 62
    7
 10
906.70398860954242
 20
1065.0695573219475
 11
906.56581675027132
 21
1064.8882723122103
  0
LINE
  8
_2-8_drain他
  6
CONTINUOUS
 62
    7
 10
906.56581675027132
 20
1064.8882723122103
 11
906.43570648325272
 21
1064.7020476375912
  0
LINE
  8
_2-8_drain他
  6
CONTINUOUS
 62
    7
 10
906.43570648325272
 20
1064.7020476375912
 11
906.31248658126856
 21
1064.5116815765011
  0
LINE
  8
_2-8_drain他
  6
CONTINUOUS
 62
    7
 10
906.31248658126856
 20
1064.5116815765011
 11
906.19498581709627
 21
1064.3179724073577
  0
LINE
  8
_2-8_drain他
  6
CONTINUOUS
 62
    7
 10
906.19498581709627
 20
1064.3179724073577
 11
906.0820329635269
 21
1064.1217184085742
  0
LINE
  8
_2-8_drain他
  6
CONTINUOUS
 62
    7
 10
906.0820329635269
 20
1064.1217184085742
 11
906.01814263667143
 21
1064.0070396115455
  0
LINE
  8
_2-8_drain他
  6
CONTINUOUS
 62
    7
 10
906.01814263667143
 20
1064.0070396115455
 11
905.95087526916336
 21
1063.8839730194088
  0
LINE
  8
_2-8_drain他
  6
CONTINUOUS
 62
    7
 10
905.95087526916336
 20
1063.8839730194088
 11
905.83689402795676
 21
1063.6707662630404
  0
LINE
  8
_2-8_drain他
  6
CONTINUOUS
 62
    7
 10
905.83689402795676
 20
1063.6707662630404
 11
905.72477947959192
 21
1063.4564692635042
  0
LINE
  8
_2-8_drain他
  6
CONTINUOUS
 62
    7
 10
905.72477947959192
 20
1063.4564692635042
 11
905.61376287034341
 21
1063.2413200024309
  0
LINE
  8
_2-8_drain他
  6
CONTINUOUS
 62
    7
 10
905.61376287034341
 20
1063.2413200024309
 11
905.50307544648581
 21
1063.0255564614488
  0
LINE
  8
_2-8_drain他
  6
CONTINUOUS
 62
    7
 10
905.50307544648581
 20
1063.0255564614488
 11
905.39194845428915
 21
1062.8094166221929
  0
LINE
  8
_2-8_drain他
  6
CONTINUOUS
 62
    7
 10
905.39194845428915
 20
1062.8094166221929
 11
905.32699045965705
 21
1062.6839768726934
  0
LINE
  8
_2-8_drain他
  6
CONTINUOUS
 62
    7
 10
905.32699045965705
 20
1062.6839768726934
 11
905.23857700547956
 21
1062.5151486896864
  0
LINE
  8
_2-8_drain他
  6
CONTINUOUS
 62
    7
 10
905.23857700547956
 20
1062.5151486896864
 11
905.08207218955226
 21
1062.2257529237988
  0
LINE
  8
_2-8_drain他
  6
CONTINUOUS
 62
    7
 10
905.08207218955226
 20
1062.2257529237988
 11
904.91785059632525
 21
1061.9410447475486
  0
LINE
  8
_2-8_drain他
  6
CONTINUOUS
 62
    7
 10
904.91785059632525
 20
1061.9410447475486
 11
904.7429266089373
 21
1061.6639913195293
  0
LINE
  8
_2-8_drain他
  6
CONTINUOUS
 62
    7
 10
904.7429266089373
 20
1061.6639913195293
 11
904.55431461053627
 21
1061.3975597983433
  0
LINE
  8
_2-8_drain他
  6
CONTINUOUS
 62
    7
 10
904.55431461053627
 20
1061.3975597983433
 11
904.34902898426094
 21
1061.1447173425865
  0
LINE
  8
_2-8_drain他
  6
CONTINUOUS
 62
    7
 10
904.34902898426094
 20
1061.1447173425865
 11
904.22114697643769
 21
1061.0054644428062
  0
LINE
  8
_2-8_drain他
  6
CONTINUOUS
 62
    7
 10
904.22114697643769
 20
1061.0054644428062
 11
904.1749318041318
 21
1060.9583594368958
  0
LINE
  8
_2-8_drain他
  6
CONTINUOUS
 62
    7
 10
904.1749318041318
 20
1060.9583594368958
 11
904.09323254259084
 21
1060.8790143418612
  0
LINE
  8
_2-8_drain他
  6
CONTINUOUS
 62
    7
 10
904.09323254259084
 20
1060.8790143418612
 11
904.00903015025938
 21
1060.8022142324178
  0
LINE
  8
_2-8_drain他
  6
CONTINUOUS
 62
    7
 10
904.00903015025938
 20
1060.8022142324178
 11
903.92238417476597
 21
1060.7281653290927
  0
LINE
  8
_2-8_drain他
  6
CONTINUOUS
 62
    7
 10
903.92238417476597
 20
1060.7281653290927
 11
903.83335416373006
 21
1060.6570738524017
  0
LINE
  8
_2-8_drain他
  6
CONTINUOUS
 62
    7
 10
903.83335416373006
 20
1060.6570738524017
 11
903.74199966478022
 21
1060.589146022872
  0
LINE
  8
_2-8_drain他
  6
CONTINUOUS
 62
    7
 10
903.74199966478022
 20
1060.589146022872
 11
903.68797243988388
 21
1060.5512787264827
  0
LINE
  8
_2-8_drain他
  6
CONTINUOUS
 62
    7
 10
903.68797243988388
 20
1060.5512787264827
 11
903.59837102879715
 21
1060.4919860361049
  0
LINE
  8
_2-8_drain他
  6
CONTINUOUS
 62
    7
 10
903.59837102879715
 20
1060.4919860361049
 11
903.44017958462678
 21
1060.3955727719092
  0
LINE
  8
_2-8_drain他
  6
CONTINUOUS
 62
    7
 10
903.44017958462678
 20
1060.3955727719092
 11
903.27876829759111
 21
1060.3042443628381
  0
LINE
  8
_2-8_drain他
  6
CONTINUOUS
 62
    7
 10
903.27876829759111
 20
1060.3042443628381
 11
903.11584834929795
 21
1060.2153536543876
  0
LINE
  8
_2-8_drain他
  6
CONTINUOUS
 62
    7
 10
903.11584834929795
 20
1060.2153536543876
 11
902.95313092134597
 21
1060.1262534920518
  0
LINE
  8
_2-8_drain他
  6
CONTINUOUS
 62
    7
 10
902.95313092134597
 20
1060.1262534920518
 11
902.79232719533388
 21
1060.0342967213267
  0
LINE
  8
_2-8_drain他
  6
CONTINUOUS
 62
    7
 10
902.79232719533388
 20
1060.0342967213267
 11
902.7006121870088
 21
1059.9786097798149
  0
LINE
  8
_2-8_drain他
  6
CONTINUOUS
 62
    7
 10
902.7006121870088
 20
1059.9786097798149
 11
902.60820119461164
 21
1059.9192450099424
  0
LINE
  8
_2-8_drain他
  6
CONTINUOUS
 62
    7
 10
902.60820119461164
 20
1059.9192450099424
 11
902.45225819245638
 21
1059.8117432481747
  0
LINE
  8
_2-8_drain他
  6
CONTINUOUS
 62
    7
 10
902.45225819245638
 20
1059.8117432481747
 11
902.29993565023483
 21
1059.6987600582072
  0
LINE
  8
_2-8_drain他
  6
CONTINUOUS
 62
    7
 10
902.29993565023483
 20
1059.6987600582072
 11
902.15045916149825
 21
1059.5815000058117
  0
LINE
  8
_2-8_drain他
  6
CONTINUOUS
 62
    7
 10
902.15045916149825
 20
1059.5815000058117
 11
902.00305431980701
 21
1059.4611676567645
  0
LINE
  8
_2-8_drain他
  6
CONTINUOUS
 62
    7
 10
902.00305431980701
 20
1059.4611676567645
 11
901.85694671870783
 21
1059.3389675768374
  0
LINE
  8
_2-8_drain他
  6
CONTINUOUS
 62
    7
 10
901.85694671870783
 20
1059.3389675768374
 11
901.77249354930586
 21
1059.2677103977446
  0
LINE
  8
_2-8_drain他
  6
CONTINUOUS
 62
    7
 10
901.77249354930586
 20
1059.2677103977446
 11
901.66665168568647
 21
1059.1782298138453
  0
LINE
  8
_2-8_drain他
  6
CONTINUOUS
 62
    7
 10
901.66665168568647
 20
1059.1782298138453
 11
901.48507890738051
 21
1059.023146760049
  0
LINE
  8
_2-8_drain他
  6
CONTINUOUS
 62
    7
 10
901.48507890738051
 20
1059.023146760049
 11
901.30590425475452
 21
1058.8657575918076
  0
LINE
  8
_2-8_drain他
  6
CONTINUOUS
 62
    7
 10
901.30590425475452
 20
1058.8657575918076
 11
901.13057212852686
 21
1058.7045673938821
  0
LINE
  8
_2-8_drain他
  6
CONTINUOUS
 62
    7
 10
901.13057212852686
 20
1058.7045673938821
 11
900.96052692942044
 21
1058.5380812510318
  0
LINE
  8
_2-8_drain他
  6
CONTINUOUS
 62
    7
 10
900.96052692942044
 20
1058.5380812510318
 11
900.79721305813996
 21
1058.3648042480224
  0
LINE
  8
_2-8_drain他
  6
CONTINUOUS
 62
    7
 10
900.79721305813996
 20
1058.3648042480224
 11
900.70614447620278
 21
1058.2606029398114
  0
LINE
  8
_2-8_drain他
  6
CONTINUOUS
 62
    7
 10
900.70614447620278
 20
1058.2606029398114
 11
900.6544852035629
 21
1058.1985156642902
  0
LINE
  8
_2-8_drain他
  6
CONTINUOUS
 62
    7
 10
900.6544852035629
 20
1058.1985156642902
 11
900.56816009325735
 21
1058.0890429244512
  0
LINE
  8
_2-8_drain他
  6
CONTINUOUS
 62
    7
 10
900.56816009325735
 20
1058.0890429244512
 11
900.48580022112651
 21
1057.9765416666926
  0
LINE
  8
_2-8_drain他
  6
CONTINUOUS
 62
    7
 10
900.48580022112651
 20
1057.9765416666926
 11
900.40797953038214
 21
1057.8610607339813
  0
LINE
  8
_2-8_drain他
  6
CONTINUOUS
 62
    7
 10
900.40797953038214
 20
1057.8610607339813
 11
900.33527196423597
 21
1057.7426489692887
  0
LINE
  8
_2-8_drain他
  6
CONTINUOUS
 62
    7
 10
900.33527196423597
 20
1057.7426489692887
 11
900.26825146590886
 21
1057.6213552155839
  0
LINE
  8
_2-8_drain他
  6
CONTINUOUS
 62
    7
 10
900.26825146590886
 20
1057.6213552155839
 11
900.23221155482111
 21
1057.5497035577434
  0
LINE
  8
_2-8_drain他
  6
CONTINUOUS
 62
    7
 10
900.23221155482111
 20
1057.5497035577434
 11
900.18555970146258
 21
1057.448227666692
  0
LINE
  8
_2-8_drain他
  6
CONTINUOUS
 62
    7
 10
900.18555970146258
 20
1057.448227666692
 11
900.11407294311061
 21
1057.2694632876421
  0
LINE
  8
_2-8_drain他
  6
CONTINUOUS
 62
    7
 10
900.11407294311061
 20
1057.2694632876421
 11
900.05212160448968
 21
1057.0866428694928
  0
LINE
  8
_2-8_drain他
  6
CONTINUOUS
 62
    7
 10
900.05212160448968
 20
1057.0866428694928
 11
899.9976237162216
 21
1056.9006520103023
  0
LINE
  8
_2-8_drain他
  6
CONTINUOUS
 62
    7
 10
899.9976237162216
 20
1056.9006520103023
 11
899.9484973089327
 21
1056.7123763081288
  0
LINE
  8
_2-8_drain他
  6
CONTINUOUS
 62
    7
 10
899.9484973089327
 20
1056.7123763081288
 11
899.9026604132539
 21
1056.5227013610236
  0
LINE
  8
_2-8_drain他
  6
CONTINUOUS
 62
    7
 10
899.9026604132539
 20
1056.5227013610236
 11
899.87676186378826
 21
1056.4123977293623
  0
LINE
  8
_2-3_
  6
CONTINUOUS
 62
    3
 10
910.62463772640035
 20
1056.4123977293623
 11
910.62463772640035
 21
1061.4123977293623
  0
LINE
  8
_2-3_
  6
CONTINUOUS
 62
    3
 10
910.62463772640035
 20
1061.4123977293623
 11
940.62463772640035
 21
1061.4123977293623
  0
LINE
  8
_2-8_drain他
  6
CONTINUOUS
 62
    4
 10
918.10515743956762
 20
1056.4123977293623
 11
918.10515743956762
 21
1061.4123977293623
  0
LINE
  8
_2-8_drain他
  6
CONTINUOUS
 62
    4
 10
913.10515743956762
 20
1056.4123977293623
 11
913.10515743956762
 21
1061.4123977293623
  0
LINE
  8
_2-8_drain他
  6
CONTINUOUS
 62
    7
 10
959.08754974424005
 20
1063.4123977293627
 11
1080.6246377264004
 21
1063.4123977293627
  0
LINE
  8
_2-8_drain他
  6
CONTINUOUS
 62
    7
 10
1080.6246377264004
 20
1063.4123977293627
 11
1080.6246377264004
 21
1064.0272329222291
  0
ARC
  8
_2-8_drain他
  6
CONTINUOUS
 62
    7
 10
1071.2122636969114
 20
1060.9123977293627
 40
5.0713947367682755
 50
330.4646116574325
 51
29.535388342567483
  0
ARC
  8
_2-8_drain他
  6
CONTINUOUS
 62
    7
 10
1072.0370117558921
 20
1060.9123977293627
 40
5.0713947367682755
 50
150.46461165743253
 51
209.5353883425675
  0
LINE
  8
_2-8_drain他
  6
CONTINUOUS
 62
    7
 10
960.62463772640035
 20
1063.4123977293627
 11
960.62463772640035
 21
1064.0272329222291
  0
ARC
  8
_2-8_drain他
  6
CONTINUOUS
 62
    7
 10
970.03701175588935
 20
1060.9123977293627
 40
5.0713947367682755
 50
150.46461165743253
 51
209.5353883425675
  0
ARC
  8
_2-8_drain他
  6
CONTINUOUS
 62
    7
 10
969.21226369690862
 20
1060.9123977293627
 40
5.0713947367682755
 50
330.4646116574325
 51
29.535388342567476
  0
LINE
  8
_2-8_drain他
  6
CONTINUOUS
 62
    4
 10
1074.0029960958598
 20
1063.4123977293627
 11
1074.0029960958598
 21
1066.6758895744449
  0
LINE
  8
_2-8_drain他
  6
CONTINUOUS
 62
    4
 10
1064.0029960958598
 20
1063.4123977293627
 11
1064.0029960958598
 21
1070.6758895744458
  0
LINE
  8
_2-8_drain他
  6
CONTINUOUS
 62
    4
 10
1054.0029960958598
 20
1063.4123977293627
 11
1054.0029960958598
 21
1074.4914587895603
  0
LINE
  8
_2-8_drain他
  6
CONTINUOUS
 62
    4
 10
1044.0029960958598
 20
1063.4123977293627
 11
1044.0029960958598
 21
1076.3117860635505
  0
LINE
  8
_2-8_drain他
  6
CONTINUOUS
 62
    4
 10
1034.0029960958598
 20
1063.4123977293627
 11
1034.0029960958598
 21
1076.4123977293623
  0
LINE
  8
_2-8_drain他
  6
CONTINUOUS
 62
    4
 10
1024.0029960958598
 20
1063.4123977293627
 11
1024.0029960958598
 21
1076.4123977293623
  0
LINE
  8
_2-8_drain他
  6
CONTINUOUS
 62
    4
 10
1014.0029960958598
 20
1063.4123977293627
 11
1014.0029960958598
 21
1076.4123977293623
  0
LINE
  8
_2-8_drain他
  6
CONTINUOUS
 62
    4
 10
1004.0029960958598
 20
1063.4123977293627
 11
1004.0029960958598
 21
1076.4123977293623
  0
LINE
  8
_2-8_drain他
  6
CONTINUOUS
 62
    4
 10
994.00299609585977
 20
1063.4123977293627
 11
994.00299609585977
 21
1075.9761495553523
  0
LINE
  8
_2-8_drain他
  6
CONTINUOUS
 62
    4
 10
984.00299609585977
 20
1063.4123977293627
 11
984.00299609585977
 21
1073.3756285467082
  0
LINE
  8
_2-8_drain他
  6
CONTINUOUS
 62
    4
 10
974.00299609585977
 20
1063.4123977293627
 11
974.00299609585977
 21
1069.3785762700106
  0
LINE
  8
_2-8_drain他
  6
CONTINUOUS
 62
    4
 10
964.00299609585977
 20
1063.4123977293627
 11
964.00299609585977
 21
1065.378576270012
  0
LINE
  8
_2-4_out_line
  6
CONTINUOUS
 62
    2
 10
1130.6246377264004
 20
1056.4123977293623
 11
1424.1624609291191
 21
1056.4123977293623
  0
LINE
  8
_2-4_out_line
  6
CONTINUOUS
 62
    2
 10
774.16246092911911
 20
1056.4123977293623
 11
910.62463772640035
 21
1056.4123977293623
  0
LINE
  8
_2-d_ハッチ他
  6
CONTINUOUS
 62
    4
 10
1067.6246377264031
 20
1058.4123977293627
 11
1075.6246377264004
 21
1063.4123977293627
  0
LINE
  8
_2-d_ハッチ他
  6
CONTINUOUS
 62
    4
 10
1075.6246377264004
 20
1058.4123977293627
 11
1067.6246377264031
 21
1063.4123977293627
  0
LINE
  8
_2-d_ハッチ他
  6
CONTINUOUS
 62
    4
 10
1093.6662626323048
 20
1058.412397729365
 11
1093.9506806540883
 21
1058.6968157511508
  0
LINE
  8
_2-d_ハッチ他
  6
CONTINUOUS
 62
    4
 10
1091.5449422887375
 20
1058.4123977293582
 11
1092.4354518372591
 21
1059.3029072778797
  0
LINE
  8
_2-d_ハッチ他
  6
CONTINUOUS
 62
    4
 10
1089.4236219451748
 20
1058.4123977293605
 11
1090.9202230204298
 21
1059.9089988046155
  0
LINE
  8
_2-d_ハッチ他
  6
CONTINUOUS
 62
    4
 10
1087.3023016016166
 20
1058.4123977293627
 11
1089.4049942036006
 21
1060.5150903313468
  0
LINE
  8
_2-d_ハッチ他
  6
CONTINUOUS
 62
    4
 10
1085.1809812580584
 20
1058.4123977293627
 11
1087.8897653867759
 21
1061.121181858078
  0
LINE
  8
_2-d_ハッチ他
  6
CONTINUOUS
 62
    4
 10
1083.0596609145002
 20
1058.4123977293605
 11
1086.3745365699467
 21
1061.7272733848092
  0
LINE
  8
_2-d_ハッチ他
  6
CONTINUOUS
 62
    4
 10
1080.938340570942
 20
1058.4123977293627
 11
1084.8593077531175
 21
1062.3333649115382
  0
LINE
  8
_2-d_ハッチ他
  6
CONTINUOUS
 62
    4
 10
1078.8170202273839
 20
1058.4123977293605
 11
1083.3440789362928
 21
1062.9394564382694
  0
LINE
  8
_2-d_ハッチ他
  6
CONTINUOUS
 62
    4
 10
1076.6956998838166
 20
1058.4123977293627
 11
1081.828850119459
 21
1063.5455479650029
  0
LINE
  8
_2-d_ハッチ他
  6
CONTINUOUS
 62
    4
 10
1076.2093375303855
 20
1060.0473557194875
 11
1079.5743795402584
 21
1063.4123977293627
  0
LINE
  8
_2-d_ハッチ他
  6
CONTINUOUS
 62
    4
 10
1076.1422585681928
 20
1062.101597100853
 11
1077.4530591967002
 21
1063.4123977293627
  0
LINE
  8
_2-d_ハッチ他
  6
CONTINUOUS
 62
    4
 10
973.62463772640217
 20
1058.4123977293627
 11
965.62463772640035
 21
1063.4123977293627
  0
LINE
  8
_2-d_ハッチ他
  6
CONTINUOUS
 62
    4
 10
965.62463772640035
 20
1058.4123977293627
 11
973.62463772640217
 21
1063.4123977293627
  0
LINE
  8
_2-d_ハッチ他
  6
CONTINUOUS
 62
    4
 10
947.58301282050047
 20
1058.412397729365
 11
947.29859479871243
 21
1058.6968157511508
  0
LINE
  8
_2-d_ハッチ他
  6
CONTINUOUS
 62
    4
 10
949.7043331640632
 20
1058.4123977293582
 11
948.81382361554165
 21
1059.3029072778797
  0
LINE
  8
_2-d_ハッチ他
  6
CONTINUOUS
 62
    4
 10
951.82565350762593
 20
1058.4123977293605
 11
950.32905243237087
 21
1059.9089988046155
  0
LINE
  8
_2-d_ハッチ他
  6
CONTINUOUS
 62
    4
 10
953.94697385118411
 20
1058.4123977293627
 11
951.84428124920009
 21
1060.5150903313468
  0
LINE
  8
_2-d_ハッチ他
  6
CONTINUOUS
 62
    4
 10
956.06829419474229
 20
1058.4123977293627
 11
953.35951006602932
 21
1061.121181858078
  0
LINE
  8
_2-d_ハッチ他
  6
CONTINUOUS
 62
    4
 10
958.18961453830048
 20
1058.4123977293605
 11
954.87473888285399
 21
1061.7272733848092
  0
LINE
  8
_2-d_ハッチ他
  6
CONTINUOUS
 62
    4
 10
960.31093488185866
 20
1058.4123977293627
 11
956.38996769968321
 21
1062.3333649115382
  0
LINE
  8
_2-d_ハッチ他
  6
CONTINUOUS
 62
    4
 10
962.43225522541684
 20
1058.4123977293605
 11
957.90519651650789
 21
1062.9394564382694
  0
LINE
  8
_2-d_ハッチ他
  6
CONTINUOUS
 62
    4
 10
964.55357556898412
 20
1058.4123977293627
 11
959.42042533334165
 21
1063.5455479650029
  0
LINE
  8
_2-d_ハッチ他
  6
CONTINUOUS
 62
    4
 10
965.03993792241522
 20
1060.0473557194875
 11
961.6748959125423
 21
1063.4123977293627
  0
LINE
  8
_2-d_ハッチ他
  6
CONTINUOUS
 62
    4
 10
965.1070168846079
 20
1062.101597100853
 11
963.79621625610048
 21
1063.4123977293627
  0
LINE
  8
_2-2_in_line
  6
CONTINUOUS
 62
    7
 10
774.16246092911911
 20
1016.4123977293623
 11
1424.1624609291191
 21
1016.4123977293623
  0
LINE
  8
_2-2_in_line
  6
CONTINUOUS
 62
    7
 10
774.16246092911911
 20
1046.4123977293623
 11
995.62463772640035
 21
1046.4123977293623
  0
LINE
  8
_2-2_in_line
  6
CONTINUOUS
 62
    7
 10
1045.6246377264004
 20
1046.4123977293623
 11
1424.1624609291191
 21
1046.4123977293623
  0
LINE
  8
_2-2_in_line
  6
CONTINUOUS
 62
    7
 10
1045.6246377264004
 20
1051.4123977293623
 11
1424.1624609291191
 21
1051.4123977293623
  0
LINE
  8
_2-2_in_line
  6
CONTINUOUS
 62
    7
 10
774.16246092911911
 20
1051.4123977293623
 11
995.62463772640035
 21
1051.4123977293623
  0
LINE
  8
_2-2_in_line
  6
CONTINUOUS
 62
    7
 10
1045.6246377264004
 20
1056.4123977293623
 11
1130.6246377264004
 21
1056.4123977293623
  0
LINE
  8
_2-2_in_line
  6
CONTINUOUS
 62
    7
 10
910.62463772640035
 20
1056.4123977293623
 11
995.62463772640035
 21
1056.4123977293623
  0
TEXT
  8
_2-a_moji
 62
    7
 10
1132.2022621976746
 20
297.47911490688193
 40
15
 41
1
 50
0
  1
ＥＬ-2001注入
  0
LINE
  8
_2-a_moji
  6
CONTINUOUS
 62
    7
 10
1253.6238367738586
 20
1139.2012763496002
 11
1214.3531740452315
 21
1139.2012763496002
  0
TEXT
  8
_2-a_moji
 62
    7
 10
1263.6238367738586
 20
1131.7012763496002
 40
15
 41
1
 50
0
  1
ラジアルシートＬ６００
  0
TEXT
  8
_2-a_moji
 62
    7
 10
1263.6238367738586
 20
1156.7012763496002
 40
15
 41
1
 50
0
  1
塩ビシート 機械的固定工法
  0
LINE
  8
_2-a_moji
  6
CONTINUOUS
 62
    7
 10
1253.6238367738586
 20
1164.2012763496002
 11
1228.7869307749722
 21
1164.2012763496002
  0
LINE
  8
_2-a_moji
  6
CONTINUOUS
 62
    7
 10
1241.7554415783977
 20
1239.2012763496002
 11
1187.9441269589458
 21
1239.2012763496002
  0
LINE
  8
_2-a_moji
  6
CONTINUOUS
 62
    7
 10
1241.7554415783977
 20
1264.2012763496002
 11
1188.6811377178808
 21
1264.2012763496002
  0
TEXT
  8
_2-a_moji
 62
    7
 10
1251.7554415783977
 20
1306.7012763496
 40
15
 41
1
 50
0
  1
通気シート
  0
TEXT
  8
_2-a_moji
 62
    7
 10
1251.7554415783977
 20
1281.7012763496
 40
15
 41
1
 50
0
  1
脱気盤３０Ｌ
  0
LINE
  8
_2-a_moji
  6
CONTINUOUS
 62
    7
 10
1241.7554415783977
 20
1289.2012763496
 11
1176.5386992095225
 21
1289.2012763496
  0
LINE
  8
_2-a_moji
  6
CONTINUOUS
 62
    7
 10
1241.7554415783977
 20
1314.2012763496
 11
1166.325333503132
 21
1314.2012763496
  0
TEXT
  8
_2-a_moji
 62
    7
 10
1251.7554415783977
 20
1256.7012763496002
 40
15
 41
1
 50
0
  1
ブチルゴム系シール材
  0
TEXT
  8
_2-a_moji
 62
    7
 10
1251.7554415783977
 20
1231.7012763496002
 40
15
 41
1
 50
0
  1
ロンシーラントＬ
  0
LINE
  8
_2-a_moji
  6
CONTINUOUS
 62
    7
 10
1130.9189657005434
 20
1065.617060411467
 11
1202.2703460400132
 21
1189.2012763496002
  0
TEXT
  8
_2-a_moji
 62
    7
 10
1263.6238367738586
 20
1181.7012763496002
 40
15
 41
1
 50
0
  1
プルーフシーラー
  0
LINE
  8
_2-a_moji
  6
CONTINUOUS
 62
    7
 10
1253.6238367738586
 20
1189.2012763496002
 11
1202.2703460400132
 21
1189.2012763496002
  0
LINE
  8
_2-a_moji
  6
CONTINUOUS
 62
    7
 10
1166.5549926879291
 20
1056.4123977293623
 11
1228.7869307749722
 21
1164.2012763496002
  0
LINE
  8
_2-a_moji
  6
CONTINUOUS
 62
    7
 10
1084.8261147387482
 20
1060.5956400087127
 11
1187.9441269589458
 21
1239.2012763496002
  0
LINE
  8
_2-a_moji
  6
CONTINUOUS
 62
    7
 10
1072.1536702602768
 20
1062.3697822356992
 11
1188.6811377178808
 21
1264.2012763496002
  0
LINE
  8
_2-a_moji
  6
CONTINUOUS
 62
    7
 10
1049.4988239344864
 20
1069.1617577860241
 11
1176.5386992095225
 21
1289.2012763496
  0
LINE
  8
_2-a_moji
  6
CONTINUOUS
 62
    7
 10
1030.5880523708809
 20
1079.097408947285
 11
1166.325333503132
 21
1314.2012763496
  0
LINE
  8
_2-a_moji
  6
CONTINUOUS
 62
    7
 10
1253.6238367738586
 20
1089.2012763496002
 11
1185.4856605857501
 21
1089.2012763496002
  0
TEXT
  8
_2-a_moji
 62
    7
 10
1263.6238367738586
 20
1081.7012763496002
 40
15
 41
1
 50
0
  1
断熱材
  0
LINE
  8
_2-2_in_line
  6
CONTINUOUS
 62
    7
 10
1095.324680093581
 20
420.29682710992188
 11
1106.2496377264004
 21
416.41239772936228
  0
TEXT
  8
_2-b_dim
 62
    7
 10
1108.2620802913787
 20
330.92033564475582
 40
15
 41
1
 50
0
  1
40以上
  0
LINE
  8
_2-7_ビス
  6
CONTINUOUS
 62
    7
 10
1079.624637726399
 20
372.31691255645001
 11
1079.624637726399
 21
376.41239772936228
  0
LINE
  8
_2-7_ビス
  6
CONTINUOUS
 62
    7
 10
1079.624637726399
 20
376.41239772936228
 11
1076.6246377263994
 21
376.41239772936228
  0
LINE
  8
_2-7_ビス
  6
CONTINUOUS
 62
    7
 10
1079.624637726399
 20
372.31691255645001
 11
1080.3746377263994
 21
371.49235163624621
  0
LINE
  8
_2-7_ビス
  6
CONTINUOUS
 62
    7
 10
1080.3746377263994
 20
371.49235163624621
 11
1080.3746377263994
 21
369.39374590913144
  0
LINE
  8
_2-7_ビス
  6
CONTINUOUS
 62
    7
 10
1080.3746377263994
 20
369.39374590913144
 11
1079.8264184763977
 21
365.27615259588242
  0
LINE
  8
_2-7_ビス
  6
CONTINUOUS
 62
    7
 10
1079.8264184763977
 20
365.27615259588242
 11
1079.5844947263979
 21
364.86853808736169
  0
LINE
  8
_2-7_ビス
  6
CONTINUOUS
 62
    7
 10
1079.5844947263979
 20
364.86853808736169
 11
1079.624637726399
 21
364.86853808736169
  0
LINE
  8
_2-7_ビス
  6
CONTINUOUS
 62
    7
 10
1079.624637726399
 20
364.86853808736169
 11
1079.624637726399
 21
363.054503000762
  0
LINE
  8
_2-7_ビス
  6
CONTINUOUS
 62
    7
 10
1079.624637726399
 20
363.054503000762
 11
1079.1916251658311
 21
362.22994159776204
  0
LINE
  8
_2-7_ビス
  6
CONTINUOUS
 62
    7
 10
1079.3215289763973
 20
361.98257317686125
 11
1080.2996377263978
 21
361.98257317686125
  0
LINE
  8
_2-7_ビス
  6
CONTINUOUS
 62
    7
 10
1080.2996377263978
 20
361.98257317686125
 11
1080.2996377263978
 21
357.74918258298226
  0
LINE
  8
_2-7_ビス
  6
CONTINUOUS
 62
    7
 10
1080.2996377263978
 20
357.74918258298226
 11
1079.7981682263978
 21
356.78783633796183
  0
LINE
  8
_2-7_ビス
  6
CONTINUOUS
 62
    7
 10
1079.7981682263978
 20
356.78783633796183
 11
1079.7933877263993
 21
356.78783633796183
  0
LINE
  8
_2-7_ビス
  6
CONTINUOUS
 62
    7
 10
1079.7933835531146
 20
356.78783669174391
 11
1079.7933877263993
 21
356.78783633796183
  0
LINE
  8
_2-7_ビス
  6
CONTINUOUS
 62
    7
 10
1079.7933835531146
 20
356.78783669174391
 11
1079.7933877263993
 21
356.78783633796183
  0
LINE
  8
_2-7_ビス
  6
CONTINUOUS
 62
    7
 10
1079.7607964763981
 20
355.71590651406223
 11
1080.2996377263978
 21
355.71590651406223
  0
LINE
  8
_2-7_ビス
  6
CONTINUOUS
 62
    7
 10
1080.2996377263978
 20
355.71590651406223
 11
1080.2996377263978
 21
349.91867337728831
  0
LINE
  8
_2-7_ビス
  6
CONTINUOUS
 62
    7
 10
1080.2996377263978
 20
349.91867337728831
 11
1079.793390539339
 21
348.95452200752356
  0
LINE
  8
_2-7_ビス
  6
CONTINUOUS
 62
    7
 10
1079.7933877263993
 20
348.95450300946163
 11
1079.7897960960424
 21
349.43195440670206
  0
LINE
  8
_2-7_ビス
  6
CONTINUOUS
 62
    7
 10
1079.7897960960424
 20
349.43195440670206
 11
1079.4691160884188
 21
349.44923985126206
  0
LINE
  8
_2-7_ビス
  6
CONTINUOUS
 62
    7
 10
1079.3104540482498
 20
349.69660827216171
 11
1079.7607964763981
 21
350.52116967516167
  0
LINE
  8
_2-7_ビス
  6
CONTINUOUS
 62
    7
 10
1079.7607964763981
 20
350.52116967516167
 11
1079.7607966285202
 21
350.99862114415669
  0
LINE
  8
_2-7_ビス
  6
CONTINUOUS
 62
    7
 10
1079.7607966285202
 20
350.99862114415669
 11
1079.4127642263991
 21
351.0159065169621
  0
LINE
  8
_2-7_ビス
  6
CONTINUOUS
 62
    7
 10
1079.2531744766777
 20
351.26327493786175
 11
1079.7607964763981
 21
352.08783634086171
  0
LINE
  8
_2-7_ビス
  6
CONTINUOUS
 62
    7
 10
1079.7607964763981
 20
352.08783634086171
 11
1079.7607964763981
 21
352.56528790197035
  0
LINE
  8
_2-7_ビス
  6
CONTINUOUS
 62
    7
 10
1079.7607964763981
 20
352.56528790197035
 11
1079.4127642263991
 21
352.58257318266214
  0
LINE
  8
_2-7_ビス
  6
CONTINUOUS
 62
    7
 10
1079.2531744766777
 20
352.82994160356179
 11
1079.7607964763981
 21
353.65450300656175
  0
LINE
  8
_2-7_ビス
  6
CONTINUOUS
 62
    7
 10
1079.7607964763981
 20
353.65450300656175
 11
1079.7607964763981
 21
354.13195456767039
  0
LINE
  8
_2-7_ビス
  6
CONTINUOUS
 62
    7
 10
1079.7607964763981
 20
354.13195456767039
 11
1079.4127642263991
 21
354.14923984836219
  0
LINE
  8
_2-7_ビス
  6
CONTINUOUS
 62
    7
 10
1079.2531744766777
 20
354.39660826926183
 11
1079.7607966285202
 21
355.22116967226179
  0
LINE
  8
_2-7_ビス
  6
CONTINUOUS
 62
    7
 10
1079.7607966285202
 20
355.22116967226179
 11
1079.7607964763981
 21
355.71590651406223
  0
LINE
  8
_2-7_ビス
  6
CONTINUOUS
 62
    7
 10
1079.7933835531146
 20
356.78783669174391
 11
1079.7896983518692
 21
357.26528816073778
  0
LINE
  8
_2-7_ビス
  6
CONTINUOUS
 62
    7
 10
1079.7896983518692
 20
357.26528816073778
 11
1079.4722534763989
 21
357.28257317976227
  0
LINE
  8
_2-7_ビス
  6
CONTINUOUS
 62
    7
 10
1079.3101613360793
 20
357.52994160066191
 11
1079.7607966285202
 21
358.35450300366188
  0
LINE
  8
_2-7_ビス
  6
CONTINUOUS
 62
    7
 10
1079.7607966285202
 20
358.35450300366188
 11
1079.7607966285202
 21
358.83195447265575
  0
LINE
  8
_2-7_ビス
  6
CONTINUOUS
 62
    7
 10
1079.7607966285202
 20
358.83195447265575
 11
1079.4127642263991
 21
358.84923984546231
  0
LINE
  8
_2-7_ビス
  6
CONTINUOUS
 62
    7
 10
1079.2531744766777
 20
359.09660826636195
 11
1079.7607964763981
 21
359.92116966936192
  0
LINE
  8
_2-7_ビス
  6
CONTINUOUS
 62
    7
 10
1079.7607964763981
 20
359.92116966936192
 11
1079.7607966285202
 21
360.39862113835579
  0
LINE
  8
_2-7_ビス
  6
CONTINUOUS
 62
    7
 10
1079.7607966285202
 20
360.39862113835579
 11
1079.41187813391
 21
360.41613809232172
  0
LINE
  8
_2-7_ビス
  6
CONTINUOUS
 62
    7
 10
1079.2531744766777
 20
360.663274932062
 11
1079.7607966285202
 21
361.48783633506196
  0
LINE
  8
_2-7_ビス
  6
CONTINUOUS
 62
    7
 10
1079.7607966285202
 20
361.48783633506196
 11
1079.7607964708911
 21
361.98257317686125
  0
LINE
  8
_2-7_ビス
  6
CONTINUOUS
 62
    7
 10
1079.7607964763981
 20
347.88257318556202
 11
1080.2996377263978
 21
347.88257318556202
  0
LINE
  8
_2-7_ビス
  6
CONTINUOUS
 62
    7
 10
1080.2996377263978
 20
347.88257318556202
 11
1080.2996377263978
 21
344.6343314507244
  0
LINE
  8
_2-7_ビス
  6
CONTINUOUS
 62
    7
 10
1080.2996377263978
 20
344.6343314507244
 11
1079.7938519763986
 21
341.12116968096143
  0
LINE
  8
_2-7_ビス
  6
CONTINUOUS
 62
    7
 10
1079.7938519763986
 20
341.12116968096143
 11
1079.7931174587345
 21
341.59862076510262
  0
LINE
  8
_2-7_ビス
  6
CONTINUOUS
 62
    7
 10
1079.7931174587345
 20
341.59862076510262
 11
1079.4844289763976
 21
341.61590652276186
  0
LINE
  8
_2-7_ビス
  6
CONTINUOUS
 62
    7
 10
1079.7938519763986
 20
341.12116968096143
 11
1079.3603751658313
 21
340.29660827796147
  0
LINE
  8
_2-7_ビス
  6
CONTINUOUS
 62
    7
 10
1079.3398724116103
 20
341.86327494366151
 11
1079.7904747450705
 21
342.68783634666147
  0
LINE
  8
_2-7_ビス
  6
CONTINUOUS
 62
    7
 10
1079.7904747450705
 20
342.68783634666147
 11
1079.7883898408097
 21
343.16528743080153
  0
LINE
  8
_2-7_ビス
  6
CONTINUOUS
 62
    7
 10
1079.7883898408097
 20
343.16528743080153
 11
1079.4660629763982
 21
343.1825731884619
  0
LINE
  8
_2-7_ビス
  6
CONTINUOUS
 62
    7
 10
1079.3175574805807
 20
343.42994160936155
 11
1079.781425339904
 21
344.25450262750769
  0
LINE
  8
_2-7_ビス
  6
CONTINUOUS
 62
    7
 10
1079.781425339904
 20
344.25450262750769
 11
1079.7773624992076
 21
344.7319540965027
  0
LINE
  8
_2-7_ビス
  6
CONTINUOUS
 62
    7
 10
1079.7773624992076
 20
344.7319540965027
 11
1079.4427091439409
 21
344.74923985416194
  0
LINE
  8
_2-7_ビス
  6
CONTINUOUS
 62
    7
 10
1079.2854545277712
 20
344.99660827506159
 11
1079.7656571519767
 21
345.82116929320773
  0
LINE
  8
_2-7_ビス
  6
CONTINUOUS
 62
    7
 10
1079.7656571519767
 20
345.82116929320773
 11
1079.7607964763981
 21
346.29862123917019
  0
LINE
  8
_2-7_ビス
  6
CONTINUOUS
 62
    7
 10
1079.7607964763981
 20
346.29862123917019
 11
1079.4127642263991
 21
346.31590651986198
  0
LINE
  8
_2-7_ビス
  6
CONTINUOUS
 62
    7
 10
1079.2531744766777
 20
346.56327494076163
 11
1079.7607966285202
 21
347.38783634376159
  0
LINE
  8
_2-7_ビス
  6
CONTINUOUS
 62
    7
 10
1079.7607966285202
 20
347.38783634376159
 11
1079.7607964763981
 21
347.88257318556202
  0
LINE
  8
_2-7_ビス
  6
CONTINUOUS
 62
    7
 10
1079.4902789763976
 20
340.04923985706182
 11
1079.624637726399
 21
340.04923985706182
  0
LINE
  8
_2-7_ビス
  6
CONTINUOUS
 62
    7
 10
1079.624637726399
 20
340.04923985706182
 11
1079.624637726399
 21
339.26590652421123
  0
LINE
  8
_2-7_ビス
  6
CONTINUOUS
 62
    7
 10
1079.624637726399
 20
339.26590652421123
 11
1079.474637726398
 21
339.26590652421123
  0
LINE
  8
_2-7_ビス
  6
CONTINUOUS
 62
    7
 10
1079.474637726398
 20
339.26590652421123
 11
1079.474637726398
 21
337.65801178836182
  0
LINE
  8
_2-7_ビス
  6
CONTINUOUS
 62
    7
 10
1079.474637726398
 20
337.65801178836182
 11
1079.4681709155973
 21
337.65801178836182
  0
LINE
  8
_2-7_ビス
  6
CONTINUOUS
 62
    7
 10
1079.4178957263987
 20
337.32818722716229
 11
1079.4178955798586
 21
331.37774563434232
  0
LINE
  8
_2-7_ビス
  6
CONTINUOUS
 62
    7
 10
1079.4178955798586
 20
331.37774563434232
 11
1078.9774582263997
 21
330.72632481018286
  0
LINE
  8
_2-7_ビス
  6
CONTINUOUS
 62
    7
 10
1078.9774582263997
 20
330.72632481018286
 11
1077.9746377263971
 21
329.4123977583622
  0
LINE
  8
_2-7_ビス
  6
CONTINUOUS
 62
    7
 10
1077.9746377263971
 20
329.4123977583622
 11
1077.8252592469037
 21
329.4123977583622
  0
LINE
  8
_2-7_ビス
  6
CONTINUOUS
 62
    7
 10
1077.8252592469037
 20
329.4123977583622
 11
1078.9103533562181
 21
331.37774563434232
  0
LINE
  8
_2-7_ビス
  6
CONTINUOUS
 62
    7
 10
1078.9103533562181
 20
331.37774563434232
 11
1078.9103534763988
 21
335.3492398599617
  0
LINE
  8
_2-7_ビス
  6
CONTINUOUS
 62
    7
 10
1078.3269899763989
 20
335.3492398599617
 11
1078.3269902498294
 21
331.37774578704079
  0
LINE
  8
_2-7_ビス
  6
CONTINUOUS
 62
    7
 10
1078.3269902498294
 20
331.37774578704079
 11
1077.241895884599
 21
329.4123977583622
  0
LINE
  8
_2-7_ビス
  6
CONTINUOUS
 62
    7
 10
1077.241895884599
 20
329.4123977583622
 11
1076.6246377263994
 21
329.4123977583622
  0
LINE
  8
_2-7_ビス
  6
CONTINUOUS
 62
    7
 10
1079.2023378314805
 20
362.25034101042741
 11
1079.2023378314805
 21
362.25034101042741
  0
LINE
  8
_2-7_ビス
  6
CONTINUOUS
 62
    7
 10
1079.2023378314805
 20
362.25034101042741
 11
1079.1891397061254
 21
362.22408165505078
  0
LINE
  8
_2-7_ビス
  6
CONTINUOUS
 62
    7
 10
1079.1891397061254
 20
362.22408165505078
 11
1079.1802896487541
 21
362.19570156508189
  0
LINE
  8
_2-7_ビス
  6
CONTINUOUS
 62
    7
 10
1079.1802896487541
 20
362.19570156508189
 11
1079.176056563881
 21
362.16606305519343
  0
LINE
  8
_2-7_ビス
  6
CONTINUOUS
 62
    7
 10
1079.176056563881
 20
362.16606305519343
 11
1079.1765690716481
 21
362.13606667651055
  0
LINE
  8
_2-7_ビス
  6
CONTINUOUS
 62
    7
 10
1079.1765690716481
 20
362.13606667651055
 11
1079.1818115997664
 21
362.10662385382062
  0
LINE
  8
_2-7_ビス
  6
CONTINUOUS
 62
    7
 10
1079.1818115997664
 20
362.10662385382062
 11
1079.1916248566715
 21
362.07862919239227
  0
LINE
  8
_2-7_ビス
  6
CONTINUOUS
 62
    7
 10
1079.1916248566715
 20
362.07862919239227
 11
1079.2057106715185
 21
362.05293329584703
  0
LINE
  8
_2-7_ビス
  6
CONTINUOUS
 62
    7
 10
1079.2057106715185
 20
362.05293329584703
 11
1079.2236410539506
 21
362.03031692099864
  0
LINE
  8
_2-7_ビス
  6
CONTINUOUS
 62
    7
 10
1079.2236410539506
 20
362.03031692099864
 11
1079.2448711983714
 21
362.01146725495255
  0
LINE
  8
_2-7_ビス
  6
CONTINUOUS
 62
    7
 10
1079.2448711983714
 20
362.01146725495255
 11
1079.268756037585
 21
361.99695703527306
  0
LINE
  8
_2-7_ビス
  6
CONTINUOUS
 62
    7
 10
1079.268756037585
 20
361.99695703527306
 11
1079.2945698428387
 21
361.98722714764267
  0
LINE
  8
_2-7_ビス
  6
CONTINUOUS
 62
    7
 10
1079.2945698428387
 20
361.98722714764267
 11
1079.3215282747219
 21
361.98257322977338
  0
LINE
  8
_2-7_ビス
  6
CONTINUOUS
 62
    7
 10
1079.3215282747219
 20
361.98257322977338
 11
1079.3215289763973
 21
361.98257317686125
  0
LINE
  8
_2-7_ビス
  6
CONTINUOUS
 62
    7
 10
1079.253174476677
 20
360.66327493206171
 11
1079.253174476677
 21
360.66327493206171
  0
LINE
  8
_2-7_ビス
  6
CONTINUOUS
 62
    7
 10
1079.253174476677
 20
360.66327493206171
 11
1079.2525033710899
 21
360.62331677807339
  0
LINE
  8
_2-7_ビス
  6
CONTINUOUS
 62
    7
 10
1079.2525033710899
 20
360.62331677807339
 11
1079.2581536896539
 21
360.58383755649112
  0
LINE
  8
_2-7_ビス
  6
CONTINUOUS
 62
    7
 10
1079.2581536896539
 20
360.58383755649112
 11
1079.2699537502988
 21
360.54603682348522
  0
LINE
  8
_2-7_ビス
  6
CONTINUOUS
 62
    7
 10
1079.2699537502988
 20
360.54603682348522
 11
1079.2875450141528
 21
360.5110631352
  0
LINE
  8
_2-7_ビス
  6
CONTINUOUS
 62
    7
 10
1079.2875450141528
 20
360.5110631352
 11
1079.3103929795652
 21
360.47997914945654
  0
LINE
  8
_2-7_ビス
  6
CONTINUOUS
 62
    7
 10
1079.3103929795652
 20
360.47997914945654
 11
1079.3378034226689
 21
360.45372933743226
  0
LINE
  8
_2-7_ビス
  6
CONTINUOUS
 62
    7
 10
1079.3378034226689
 20
360.45372933743226
 11
1079.3689434910204
 21
360.43311128638254
  0
LINE
  8
_2-7_ビス
  6
CONTINUOUS
 62
    7
 10
1079.3689434910204
 20
360.43311128638254
 11
1079.4028670094006
 21
360.41875146535529
  0
LINE
  8
_2-7_ビス
  6
CONTINUOUS
 62
    7
 10
1079.4028670094006
 20
360.41875146535529
 11
1079.4127642263977
 21
360.41590651116172
  0
LINE
  8
_2-7_ビス
  6
CONTINUOUS
 62
    7
 10
1079.253174476677
 20
359.09660826636167
 11
1079.253174476677
 21
359.09660826636167
  0
LINE
  8
_2-7_ビス
  6
CONTINUOUS
 62
    7
 10
1079.253174476677
 20
359.09660826636167
 11
1079.2525033710899
 21
359.05665011237335
  0
LINE
  8
_2-7_ビス
  6
CONTINUOUS
 62
    7
 10
1079.2525033710899
 20
359.05665011237335
 11
1079.2581536896539
 21
359.01717089079108
  0
LINE
  8
_2-7_ビス
  6
CONTINUOUS
 62
    7
 10
1079.2581536896539
 20
359.01717089079108
 11
1079.2699537502988
 21
358.97937015778518
  0
LINE
  8
_2-7_ビス
  6
CONTINUOUS
 62
    7
 10
1079.2699537502988
 20
358.97937015778518
 11
1079.2875450141528
 21
358.94439646949996
  0
LINE
  8
_2-7_ビス
  6
CONTINUOUS
 62
    7
 10
1079.2875450141528
 20
358.94439646949996
 11
1079.3103929795652
 21
358.9133124837565
  0
LINE
  8
_2-7_ビス
  6
CONTINUOUS
 62
    7
 10
1079.3103929795652
 20
358.9133124837565
 11
1079.3378034226689
 21
358.88706267173222
  0
LINE
  8
_2-7_ビス
  6
CONTINUOUS
 62
    7
 10
1079.3378034226689
 20
358.88706267173222
 11
1079.3689434910204
 21
358.8664446206825
  0
LINE
  8
_2-7_ビス
  6
CONTINUOUS
 62
    7
 10
1079.3689434910204
 20
358.8664446206825
 11
1079.4028670094006
 21
358.85208479965524
  0
LINE
  8
_2-7_ビス
  6
CONTINUOUS
 62
    7
 10
1079.4028670094006
 20
358.85208479965524
 11
1079.4127642263977
 21
358.84923984546168
  0
LINE
  8
_2-7_ビス
  6
CONTINUOUS
 62
    7
 10
1079.3101613360786
 20
357.52994160066163
 11
1079.3101613360786
 21
357.52994160066163
  0
LINE
  8
_2-7_ビス
  6
CONTINUOUS
 62
    7
 10
1079.3101613360786
 20
357.52994160066163
 11
1079.3094902304915
 21
357.48998344667331
  0
LINE
  8
_2-7_ビス
  6
CONTINUOUS
 62
    7
 10
1079.3094902304915
 20
357.48998344667331
 11
1079.3151405490555
 21
357.45050422509104
  0
LINE
  8
_2-7_ビス
  6
CONTINUOUS
 62
    7
 10
1079.3151405490555
 20
357.45050422509104
 11
1079.3269406097004
 21
357.41270349208514
  0
LINE
  8
_2-7_ビス
  6
CONTINUOUS
 62
    7
 10
1079.3269406097004
 20
357.41270349208514
 11
1079.3445318735544
 21
357.37772980379992
  0
LINE
  8
_2-7_ビス
  6
CONTINUOUS
 62
    7
 10
1079.3445318735544
 20
357.37772980379992
 11
1079.3673798389668
 21
357.34664581805646
  0
LINE
  8
_2-7_ビス
  6
CONTINUOUS
 62
    7
 10
1079.3673798389668
 20
357.34664581805646
 11
1079.3947902820705
 21
357.32039600603218
  0
LINE
  8
_2-7_ビス
  6
CONTINUOUS
 62
    7
 10
1079.3947902820705
 20
357.32039600603218
 11
1079.425930350422
 21
357.29977795498246
  0
LINE
  8
_2-7_ビス
  6
CONTINUOUS
 62
    7
 10
1079.425930350422
 20
357.29977795498246
 11
1079.4598538688022
 21
357.2854181339552
  0
LINE
  8
_2-7_ビス
  6
CONTINUOUS
 62
    7
 10
1079.4598538688022
 20
357.2854181339552
 11
1079.4697510857993
 21
357.28257317976164
  0
LINE
  8
_2-7_ビス
  6
CONTINUOUS
 62
    7
 10
1079.253174476677
 20
354.39660826926155
 11
1079.253174476677
 21
354.39660826926155
  0
LINE
  8
_2-7_ビス
  6
CONTINUOUS
 62
    7
 10
1079.253174476677
 20
354.39660826926155
 11
1079.2525033710899
 21
354.35665011527323
  0
LINE
  8
_2-7_ビス
  6
CONTINUOUS
 62
    7
 10
1079.2525033710899
 20
354.35665011527323
 11
1079.2581536896539
 21
354.31717089369096
  0
LINE
  8
_2-7_ビス
  6
CONTINUOUS
 62
    7
 10
1079.2581536896539
 20
354.31717089369096
 11
1079.2699537502988
 21
354.27937016068506
  0
LINE
  8
_2-7_ビス
  6
CONTINUOUS
 62
    7
 10
1079.2699537502988
 20
354.27937016068506
 11
1079.2875450141528
 21
354.24439647239984
  0
LINE
  8
_2-7_ビス
  6
CONTINUOUS
 62
    7
 10
1079.2875450141528
 20
354.24439647239984
 11
1079.3103929795652
 21
354.21331248665638
  0
LINE
  8
_2-7_ビス
  6
CONTINUOUS
 62
    7
 10
1079.3103929795652
 20
354.21331248665638
 11
1079.3378034226689
 21
354.1870626746321
  0
LINE
  8
_2-7_ビス
  6
CONTINUOUS
 62
    7
 10
1079.3378034226689
 20
354.1870626746321
 11
1079.3689434910204
 21
354.16644462358238
  0
LINE
  8
_2-7_ビス
  6
CONTINUOUS
 62
    7
 10
1079.3689434910204
 20
354.16644462358238
 11
1079.4028670094006
 21
354.15208480255512
  0
LINE
  8
_2-7_ビス
  6
CONTINUOUS
 62
    7
 10
1079.4028670094006
 20
354.15208480255512
 11
1079.4127642263977
 21
354.14923984836156
  0
LINE
  8
_2-7_ビス
  6
CONTINUOUS
 62
    7
 10
1079.253174476677
 20
352.82994160356151
 11
1079.253174476677
 21
352.82994160356151
  0
LINE
  8
_2-7_ビス
  6
CONTINUOUS
 62
    7
 10
1079.253174476677
 20
352.82994160356151
 11
1079.2525033710899
 21
352.78998344957319
  0
LINE
  8
_2-7_ビス
  6
CONTINUOUS
 62
    7
 10
1079.2525033710899
 20
352.78998344957319
 11
1079.2581536896539
 21
352.75050422799092
  0
LINE
  8
_2-7_ビス
  6
CONTINUOUS
 62
    7
 10
1079.2581536896539
 20
352.75050422799092
 11
1079.2699537502988
 21
352.71270349498502
  0
LINE
  8
_2-7_ビス
  6
CONTINUOUS
 62
    7
 10
1079.2699537502988
 20
352.71270349498502
 11
1079.2875450141528
 21
352.6777298066998
  0
LINE
  8
_2-7_ビス
  6
CONTINUOUS
 62
    7
 10
1079.2875450141528
 20
352.6777298066998
 11
1079.3103929795652
 21
352.64664582095634
  0
LINE
  8
_2-7_ビス
  6
CONTINUOUS
 62
    7
 10
1079.3103929795652
 20
352.64664582095634
 11
1079.3378034226689
 21
352.62039600893206
  0
LINE
  8
_2-7_ビス
  6
CONTINUOUS
 62
    7
 10
1079.3378034226689
 20
352.62039600893206
 11
1079.3689434910204
 21
352.59977795788234
  0
LINE
  8
_2-7_ビス
  6
CONTINUOUS
 62
    7
 10
1079.3689434910204
 20
352.59977795788234
 11
1079.4028670094006
 21
352.58541813685508
  0
LINE
  8
_2-7_ビス
  6
CONTINUOUS
 62
    7
 10
1079.4028670094006
 20
352.58541813685508
 11
1079.4127642263977
 21
352.58257318266152
  0
LINE
  8
_2-7_ビス
  6
CONTINUOUS
 62
    7
 10
1079.253174476677
 20
351.26327493786147
 11
1079.253174476677
 21
351.26327493786147
  0
LINE
  8
_2-7_ビス
  6
CONTINUOUS
 62
    7
 10
1079.253174476677
 20
351.26327493786147
 11
1079.2525033710899
 21
351.22331678387314
  0
LINE
  8
_2-7_ビス
  6
CONTINUOUS
 62
    7
 10
1079.2525033710899
 20
351.22331678387314
 11
1079.2581536896539
 21
351.18383756229088
  0
LINE
  8
_2-7_ビス
  6
CONTINUOUS
 62
    7
 10
1079.2581536896539
 20
351.18383756229088
 11
1079.2699537502988
 21
351.14603682928498
  0
LINE
  8
_2-7_ビス
  6
CONTINUOUS
 62
    7
 10
1079.2699537502988
 20
351.14603682928498
 11
1079.2875450141528
 21
351.11106314099976
  0
LINE
  8
_2-7_ビス
  6
CONTINUOUS
 62
    7
 10
1079.2875450141528
 20
351.11106314099976
 11
1079.3103929795652
 21
351.0799791552563
  0
LINE
  8
_2-7_ビス
  6
CONTINUOUS
 62
    7
 10
1079.3103929795652
 20
351.0799791552563
 11
1079.3378034226689
 21
351.05372934323202
  0
LINE
  8
_2-7_ビス
  6
CONTINUOUS
 62
    7
 10
1079.3378034226689
 20
351.05372934323202
 11
1079.3689434910204
 21
351.0331112921823
  0
LINE
  8
_2-7_ビス
  6
CONTINUOUS
 62
    7
 10
1079.3689434910204
 20
351.0331112921823
 11
1079.4028670094006
 21
351.01875147115504
  0
LINE
  8
_2-7_ビス
  6
CONTINUOUS
 62
    7
 10
1079.4028670094006
 20
351.01875147115504
 11
1079.4127642263977
 21
351.01590651696148
  0
LINE
  8
_2-7_ビス
  6
CONTINUOUS
 62
    7
 10
1079.3104540482514
 20
349.69660827216143
 11
1079.3104540482514
 21
349.69660827216143
  0
LINE
  8
_2-7_ビス
  6
CONTINUOUS
 62
    7
 10
1079.3104540482514
 20
349.69660827216143
 11
1079.3097829426642
 21
349.6566501181731
  0
LINE
  8
_2-7_ビス
  6
CONTINUOUS
 62
    7
 10
1079.3097829426642
 20
349.6566501181731
 11
1079.3154332612282
 21
349.61717089659084
  0
LINE
  8
_2-7_ビス
  6
CONTINUOUS
 62
    7
 10
1079.3154332612282
 20
349.61717089659084
 11
1079.3272333218731
 21
349.57937016358494
  0
LINE
  8
_2-7_ビス
  6
CONTINUOUS
 62
    7
 10
1079.3272333218731
 20
349.57937016358494
 11
1079.3448245857271
 21
349.54439647529972
  0
LINE
  8
_2-7_ビス
  6
CONTINUOUS
 62
    7
 10
1079.3448245857271
 20
349.54439647529972
 11
1079.3676725511395
 21
349.51331248955626
  0
LINE
  8
_2-7_ビス
  6
CONTINUOUS
 62
    7
 10
1079.3676725511395
 20
349.51331248955626
 11
1079.3950829942432
 21
349.48706267753198
  0
LINE
  8
_2-7_ビス
  6
CONTINUOUS
 62
    7
 10
1079.3950829942432
 20
349.48706267753198
 11
1079.4262230625948
 21
349.46644462648226
  0
LINE
  8
_2-7_ビス
  6
CONTINUOUS
 62
    7
 10
1079.4262230625948
 20
349.46644462648226
 11
1079.4601465809749
 21
349.452084805455
  0
LINE
  8
_2-7_ビス
  6
CONTINUOUS
 62
    7
 10
1079.4601465809749
 20
349.452084805455
 11
1079.470043797972
 21
349.44923985126144
  0
LINE
  8
_2-7_ビス
  6
CONTINUOUS
 62
    7
 10
1079.253174476677
 20
346.56327494076135
 11
1079.253174476677
 21
346.56327494076135
  0
LINE
  8
_2-7_ビス
  6
CONTINUOUS
 62
    7
 10
1079.253174476677
 20
346.56327494076135
 11
1079.2525033710899
 21
346.52331678677302
  0
LINE
  8
_2-7_ビス
  6
CONTINUOUS
 62
    7
 10
1079.2525033710899
 20
346.52331678677302
 11
1079.2581536896539
 21
346.48383756519075
  0
LINE
  8
_2-7_ビス
  6
CONTINUOUS
 62
    7
 10
1079.2581536896539
 20
346.48383756519075
 11
1079.2699537502988
 21
346.44603683218486
  0
LINE
  8
_2-7_ビス
  6
CONTINUOUS
 62
    7
 10
1079.2699537502988
 20
346.44603683218486
 11
1079.2875450141528
 21
346.41106314389964
  0
LINE
  8
_2-7_ビス
  6
CONTINUOUS
 62
    7
 10
1079.2875450141528
 20
346.41106314389964
 11
1079.3103929795652
 21
346.37997915815617
  0
LINE
  8
_2-7_ビス
  6
CONTINUOUS
 62
    7
 10
1079.3103929795652
 20
346.37997915815617
 11
1079.3378034226689
 21
346.3537293461319
  0
LINE
  8
_2-7_ビス
  6
CONTINUOUS
 62
    7
 10
1079.3378034226689
 20
346.3537293461319
 11
1079.3689434910204
 21
346.33311129508218
  0
LINE
  8
_2-7_ビス
  6
CONTINUOUS
 62
    7
 10
1079.3689434910204
 20
346.33311129508218
 11
1079.4028670094006
 21
346.31875147405492
  0
LINE
  8
_2-7_ビス
  6
CONTINUOUS
 62
    7
 10
1079.4028670094006
 20
346.31875147405492
 11
1079.4127642263977
 21
346.31590651986136
  0
LINE
  8
_2-7_ビス
  6
CONTINUOUS
 62
    7
 10
1079.2854545277705
 20
344.99660827506131
 11
1079.2854545277705
 21
344.99660827506131
  0
LINE
  8
_2-7_ビス
  6
CONTINUOUS
 62
    7
 10
1079.2854545277705
 20
344.99660827506131
 11
1079.2847834221834
 21
344.95665012107298
  0
LINE
  8
_2-7_ビス
  6
CONTINUOUS
 62
    7
 10
1079.2847834221834
 20
344.95665012107298
 11
1079.2904337407474
 21
344.91717089949071
  0
LINE
  8
_2-7_ビス
  6
CONTINUOUS
 62
    7
 10
1079.2904337407474
 20
344.91717089949071
 11
1079.3022338013923
 21
344.87937016648482
  0
LINE
  8
_2-7_ビス
  6
CONTINUOUS
 62
    7
 10
1079.3022338013923
 20
344.87937016648482
 11
1079.3198250652463
 21
344.8443964781996
  0
LINE
  8
_2-7_ビス
  6
CONTINUOUS
 62
    7
 10
1079.3198250652463
 20
344.8443964781996
 11
1079.3426730306587
 21
344.81331249245613
  0
LINE
  8
_2-7_ビス
  6
CONTINUOUS
 62
    7
 10
1079.3426730306587
 20
344.81331249245613
 11
1079.3700834737624
 21
344.78706268043186
  0
LINE
  8
_2-7_ビス
  6
CONTINUOUS
 62
    7
 10
1079.3700834737624
 20
344.78706268043186
 11
1079.4012235421139
 21
344.76644462938214
  0
LINE
  8
_2-7_ビス
  6
CONTINUOUS
 62
    7
 10
1079.4012235421139
 20
344.76644462938214
 11
1079.435147060494
 21
344.75208480835488
  0
LINE
  8
_2-7_ビス
  6
CONTINUOUS
 62
    7
 10
1079.435147060494
 20
344.75208480835488
 11
1079.4450442774912
 21
344.74923985416132
  0
LINE
  8
_2-7_ビス
  6
CONTINUOUS
 62
    7
 10
1079.31755748058
 20
343.42994160936126
 11
1079.31755748058
 21
343.42994160936126
  0
LINE
  8
_2-7_ビス
  6
CONTINUOUS
 62
    7
 10
1079.31755748058
 20
343.42994160936126
 11
1079.3168863749929
 21
343.38998345537294
  0
LINE
  8
_2-7_ビス
  6
CONTINUOUS
 62
    7
 10
1079.3168863749929
 20
343.38998345537294
 11
1079.3225366935569
 21
343.35050423379067
  0
LINE
  8
_2-7_ビス
  6
CONTINUOUS
 62
    7
 10
1079.3225366935569
 20
343.35050423379067
 11
1079.3343367542018
 21
343.31270350078478
  0
LINE
  8
_2-7_ビス
  6
CONTINUOUS
 62
    7
 10
1079.3343367542018
 20
343.31270350078478
 11
1079.3519280180558
 21
343.27772981249956
  0
LINE
  8
_2-7_ビス
  6
CONTINUOUS
 62
    7
 10
1079.3519280180558
 20
343.27772981249956
 11
1079.3747759834682
 21
343.24664582675609
  0
LINE
  8
_2-7_ビス
  6
CONTINUOUS
 62
    7
 10
1079.3747759834682
 20
343.24664582675609
 11
1079.4021864265719
 21
343.22039601473182
  0
LINE
  8
_2-7_ビス
  6
CONTINUOUS
 62
    7
 10
1079.4021864265719
 20
343.22039601473182
 11
1079.4333264949234
 21
343.1997779636821
  0
LINE
  8
_2-7_ビス
  6
CONTINUOUS
 62
    7
 10
1079.4333264949234
 20
343.1997779636821
 11
1079.4672500133036
 21
343.18541814265484
  0
LINE
  8
_2-7_ビス
  6
CONTINUOUS
 62
    7
 10
1079.4672500133036
 20
343.18541814265484
 11
1079.4771472303007
 21
343.18257318846128
  0
LINE
  8
_2-7_ビス
  6
CONTINUOUS
 62
    7
 10
1079.3398724116096
 20
341.86327494366236
 11
1079.3398724116096
 21
341.86327494366236
  0
LINE
  8
_2-7_ビス
  6
CONTINUOUS
 62
    7
 10
1079.3398724116096
 20
341.86327494366236
 11
1079.3392013060225
 21
341.82331678967404
  0
LINE
  8
_2-7_ビス
  6
CONTINUOUS
 62
    7
 10
1079.3392013060225
 20
341.82331678967404
 11
1079.3448516245865
 21
341.78383756809177
  0
LINE
  8
_2-7_ビス
  6
CONTINUOUS
 62
    7
 10
1079.3448516245865
 20
341.78383756809177
 11
1079.3566516852313
 21
341.74603683508587
  0
LINE
  8
_2-7_ビス
  6
CONTINUOUS
 62
    7
 10
1079.3566516852313
 20
341.74603683508587
 11
1079.3742429490853
 21
341.71106314680065
  0
LINE
  8
_2-7_ビス
  6
CONTINUOUS
 62
    7
 10
1079.3742429490853
 20
341.71106314680065
 11
1079.3970909144978
 21
341.67997916105719
  0
LINE
  8
_2-7_ビス
  6
CONTINUOUS
 62
    7
 10
1079.3970909144978
 20
341.67997916105719
 11
1079.4245013576015
 21
341.65372934903291
  0
LINE
  8
_2-7_ビス
  6
CONTINUOUS
 62
    7
 10
1079.4245013576015
 20
341.65372934903291
 11
1079.455641425953
 21
341.63311129798319
  0
LINE
  8
_2-7_ビス
  6
CONTINUOUS
 62
    7
 10
1079.455641425953
 20
341.63311129798319
 11
1079.4895649443331
 21
341.61875147695594
  0
LINE
  8
_2-7_ビス
  6
CONTINUOUS
 62
    7
 10
1079.4895649443331
 20
341.61875147695594
 11
1079.4994621613303
 21
341.61590652276237
  0
LINE
  8
_2-7_ビス
  6
CONTINUOUS
 62
    7
 10
1079.3733749905452
 20
340.32133659893162
 11
1079.3733749905452
 21
340.32133659893162
  0
LINE
  8
_2-7_ビス
  6
CONTINUOUS
 62
    7
 10
1079.3733749905452
 20
340.32133659893162
 11
1079.3597128387953
 21
340.29504859695442
  0
LINE
  8
_2-7_ビス
  6
CONTINUOUS
 62
    7
 10
1079.3597128387953
 20
340.29504859695442
 11
1079.3504103292469
 21
340.26655170764087
  0
LINE
  8
_2-7_ビス
  6
CONTINUOUS
 62
    7
 10
1079.3504103292469
 20
340.26655170764087
 11
1079.3457501139453
 21
340.23671179455255
  0
LINE
  8
_2-7_ビス
  6
CONTINUOUS
 62
    7
 10
1079.3457501139453
 20
340.23671179455255
 11
1079.3458737911744
 21
340.20643552834889
  0
LINE
  8
_2-7_ビス
  6
CONTINUOUS
 62
    7
 10
1079.3458737911744
 20
340.20643552834889
 11
1079.3507776030644
 21
340.17664283805806
  0
LINE
  8
_2-7_ビス
  6
CONTINUOUS
 62
    7
 10
1079.3507776030644
 20
340.17664283805806
 11
1079.3603125497721
 21
340.14823895949866
  0
LINE
  8
_2-7_ビス
  6
CONTINUOUS
 62
    7
 10
1079.3603125497721
 20
340.14823895949866
 11
1079.3741889167668
 21
340.12208693014765
  0
LINE
  8
_2-7_ビス
  6
CONTINUOUS
 62
    7
 10
1079.3741889167668
 20
340.12208693014765
 11
1079.3919850776592
 21
340.09898136618335
  0
LINE
  8
_2-7_ビス
  6
CONTINUOUS
 62
    7
 10
1079.3919850776592
 20
340.09898136618335
 11
1079.4131603051057
 21
340.07962431847477
  0
LINE
  8
_2-7_ビス
  6
CONTINUOUS
 62
    7
 10
1079.4131603051057
 20
340.07962431847477
 11
1079.4370712005359
 21
340.06460394112139
  0
LINE
  8
_2-7_ビス
  6
CONTINUOUS
 62
    7
 10
1079.4370712005359
 20
340.06460394112139
 11
1079.4629912434914
 21
340.05437662068852
  0
LINE
  8
_2-7_ビス
  6
CONTINUOUS
 62
    7
 10
1079.4629912434914
 20
340.05437662068852
 11
1079.4901328665833
 21
340.04925310913211
  0
LINE
  8
_2-7_ビス
  6
CONTINUOUS
 62
    7
 10
1079.4901328665833
 20
340.04925310913211
 11
1079.4902789763994
 21
340.04923985706216
  0
LINE
  8
_2-7_ビス
  6
CONTINUOUS
 62
    7
 10
1079.793387726399
 20
348.9545030094618
 11
1079.793387726399
 21
348.9545030094618
  0
LINE
  8
_2-7_ビス
  6
CONTINUOUS
 62
    7
 10
1079.793387726399
 20
348.9545030094618
 11
1079.7090618956054
 21
348.94224305281409
  0
LINE
  8
_2-7_ビス
  6
CONTINUOUS
 62
    7
 10
1079.7090618956054
 20
348.94224305281409
 11
1079.6279535741471
 21
348.91407058610702
  0
LINE
  8
_2-7_ビス
  6
CONTINUOUS
 62
    7
 10
1079.6279535741471
 20
348.91407058610702
 11
1079.552527197329
 21
348.87084161548546
  0
LINE
  8
_2-7_ビス
  6
CONTINUOUS
 62
    7
 10
1079.552527197329
 20
348.87084161548546
 11
1079.4850745574431
 21
348.81386963134696
  0
LINE
  8
_2-7_ビス
  6
CONTINUOUS
 62
    7
 10
1079.4850745574431
 20
348.81386963134696
 11
1079.4276451688197
 21
348.74488569860029
  0
LINE
  8
_2-7_ビス
  6
CONTINUOUS
 62
    7
 10
1079.4276451688197
 20
348.74488569860029
 11
1079.3819839943712
 21
348.66598585913437
  0
LINE
  8
_2-7_ビス
  6
CONTINUOUS
 62
    7
 10
1079.3819839943712
 20
348.66598585913437
 11
1079.349478425778
 21
348.57956744464616
  0
LINE
  8
_2-7_ビス
  6
CONTINUOUS
 62
    7
 10
1079.349478425778
 20
348.57956744464616
 11
1079.3311161282929
 21
348.48825623493008
  0
LINE
  8
_2-7_ビス
  6
CONTINUOUS
 62
    7
 10
1079.3311161282929
 20
348.48825623493008
 11
1079.3274550310334
 21
348.39482667488755
  0
LINE
  8
_2-7_ビス
  6
CONTINUOUS
 62
    7
 10
1079.3274550310334
 20
348.39482667488755
 11
1079.3386063745868
 21
348.30211757442299
  0
LINE
  8
_2-7_ビス
  6
CONTINUOUS
 62
    7
 10
1079.3386063745868
 20
348.30211757442299
 11
1079.3642313310224
 21
348.21294585264081
  0
LINE
  8
_2-7_ビス
  6
CONTINUOUS
 62
    7
 10
1079.3642313310224
 20
348.21294585264081
 11
1079.4035512990056
 21
348.13002094718433
  0
LINE
  8
_2-7_ビス
  6
CONTINUOUS
 62
    7
 10
1079.4035512990056
 20
348.13002094718433
 11
1079.4553715612062
 21
348.05586248934389
  0
LINE
  8
_2-7_ビス
  6
CONTINUOUS
 62
    7
 10
1079.4553715612062
 20
348.05586248934389
 11
1079.5181175851794
 21
347.99272374633489
  0
LINE
  8
_2-7_ビス
  6
CONTINUOUS
 62
    7
 10
1079.5181175851794
 20
347.99272374633489
 11
1079.5898828647378
 21
347.94252315691392
  0
LINE
  8
_2-7_ビス
  6
CONTINUOUS
 62
    7
 10
1079.5898828647378
 20
347.94252315691392
 11
1079.6684868481773
 21
347.90678604058786
  0
LINE
  8
_2-7_ビス
  6
CONTINUOUS
 62
    7
 10
1079.6684868481773
 20
347.90678604058786
 11
1079.7515411932361
 21
347.88659825155236
  0
LINE
  8
_2-7_ビス
  6
CONTINUOUS
 62
    7
 10
1079.7515411932361
 20
347.88659825155236
 11
1079.793387726399
 21
347.88257318556185
  0
LINE
  8
_2-7_ビス
  6
CONTINUOUS
 62
    7
 10
1079.793387726399
 20
356.78783633796201
 11
1079.793387726399
 21
356.78783633796201
  0
LINE
  8
_2-7_ビス
  6
CONTINUOUS
 62
    7
 10
1079.793387726399
 20
356.78783633796201
 11
1079.7090618956054
 21
356.77557638131429
  0
LINE
  8
_2-7_ビス
  6
CONTINUOUS
 62
    7
 10
1079.7090618956054
 20
356.77557638131429
 11
1079.6279535741471
 21
356.74740391460722
  0
LINE
  8
_2-7_ビス
  6
CONTINUOUS
 62
    7
 10
1079.6279535741471
 20
356.74740391460722
 11
1079.552527197329
 21
356.70417494398566
  0
LINE
  8
_2-7_ビス
  6
CONTINUOUS
 62
    7
 10
1079.552527197329
 20
356.70417494398566
 11
1079.4850745574431
 21
356.64720295984716
  0
LINE
  8
_2-7_ビス
  6
CONTINUOUS
 62
    7
 10
1079.4850745574431
 20
356.64720295984716
 11
1079.4276451688197
 21
356.57821902710049
  0
LINE
  8
_2-7_ビス
  6
CONTINUOUS
 62
    7
 10
1079.4276451688197
 20
356.57821902710049
 11
1079.3819839943712
 21
356.49931918763457
  0
LINE
  8
_2-7_ビス
  6
CONTINUOUS
 62
    7
 10
1079.3819839943712
 20
356.49931918763457
 11
1079.349478425778
 21
356.41290077314636
  0
LINE
  8
_2-7_ビス
  6
CONTINUOUS
 62
    7
 10
1079.349478425778
 20
356.41290077314636
 11
1079.3311161282929
 21
356.32158956343028
  0
LINE
  8
_2-7_ビス
  6
CONTINUOUS
 62
    7
 10
1079.3311161282929
 20
356.32158956343028
 11
1079.3274550310334
 21
356.22816000338776
  0
LINE
  8
_2-7_ビス
  6
CONTINUOUS
 62
    7
 10
1079.3274550310334
 20
356.22816000338776
 11
1079.3386063745868
 21
356.1354509029232
  0
LINE
  8
_2-7_ビス
  6
CONTINUOUS
 62
    7
 10
1079.3386063745868
 20
356.1354509029232
 11
1079.3642313310224
 21
356.04627918114102
  0
LINE
  8
_2-7_ビス
  6
CONTINUOUS
 62
    7
 10
1079.3642313310224
 20
356.04627918114102
 11
1079.4035512990056
 21
355.96335427568454
  0
LINE
  8
_2-7_ビス
  6
CONTINUOUS
 62
    7
 10
1079.4035512990056
 20
355.96335427568454
 11
1079.4553715612062
 21
355.8891958178441
  0
LINE
  8
_2-7_ビス
  6
CONTINUOUS
 62
    7
 10
1079.4553715612062
 20
355.8891958178441
 11
1079.5181175851794
 21
355.82605707483509
  0
LINE
  8
_2-7_ビス
  6
CONTINUOUS
 62
    7
 10
1079.5181175851794
 20
355.82605707483509
 11
1079.5898828647378
 21
355.77585648541412
  0
LINE
  8
_2-7_ビス
  6
CONTINUOUS
 62
    7
 10
1079.5898828647378
 20
355.77585648541412
 11
1079.6684868481773
 21
355.74011936908806
  0
LINE
  8
_2-7_ビス
  6
CONTINUOUS
 62
    7
 10
1079.6684868481773
 20
355.74011936908806
 11
1079.7515411932361
 21
355.71993158005256
  0
LINE
  8
_2-7_ビス
  6
CONTINUOUS
 62
    7
 10
1079.7515411932361
 20
355.71993158005256
 11
1079.793387726399
 21
355.71590651406206
  0
LINE
  8
_2-7_ビス
  6
CONTINUOUS
 62
    7
 10
1079.4681709155966
 20
337.65801178836148
 11
1079.4681709155966
 21
337.65801178836148
  0
LINE
  8
_2-7_ビス
  6
CONTINUOUS
 62
    7
 10
1079.4681709155966
 20
337.65801178836148
 11
1079.4319857016947
 21
337.52442746159431
  0
LINE
  8
_2-7_ビス
  6
CONTINUOUS
 62
    7
 10
1079.4319857016947
 20
337.52442746159431
 11
1079.4174493257535
 21
337.38596440937886
  0
LINE
  8
_2-7_ビス
  6
CONTINUOUS
 62
    7
 10
1079.4174493257535
 20
337.38596440937886
 11
1079.4178955825084
 21
337.32818722716149
  0
LINE
  8
_2-7_ビス
  6
CONTINUOUS
 62
    7
 10
1078.9103534763988
 20
335.34923985996187
 11
1078.9103534763988
 21
335.34923985996187
  0
LINE
  8
_2-7_ビス
  6
CONTINUOUS
 62
    7
 10
1078.9103534763988
 20
335.34923985996187
 11
1078.9043126988558
 21
335.4047704351396
  0
LINE
  8
_2-7_ビス
  6
CONTINUOUS
 62
    7
 10
1078.9043126988558
 20
335.4047704351396
 11
1078.8895928649063
 21
335.45830412252411
  0
LINE
  8
_2-7_ビス
  6
CONTINUOUS
 62
    7
 10
1078.8895928649063
 20
335.45830412252411
 11
1078.8666412292557
 21
335.50821432811364
  0
LINE
  8
_2-7_ビス
  6
CONTINUOUS
 62
    7
 10
1078.8666412292557
 20
335.50821432811364
 11
1078.8361551657395
 21
335.55298455556698
  0
LINE
  8
_2-7_ビス
  6
CONTINUOUS
 62
    7
 10
1078.8361551657395
 20
335.55298455556698
 11
1078.7990609779708
 21
335.59125448417791
  0
LINE
  8
_2-7_ビス
  6
CONTINUOUS
 62
    7
 10
1078.7990609779708
 20
335.59125448417791
 11
1078.7564857540747
 21
335.62186130153111
  0
LINE
  8
_2-7_ビス
  6
CONTINUOUS
 62
    7
 10
1078.7564857540747
 20
335.62186130153111
 11
1078.7097231206847
 21
335.64387503496903
  0
LINE
  8
_2-7_ビス
  6
CONTINUOUS
 62
    7
 10
1078.7097231206847
 20
335.64387503496903
 11
1078.6601939367536
 21
335.65662680834066
  0
LINE
  8
_2-7_ビス
  6
CONTINUOUS
 62
    7
 10
1078.6601939367536
 20
335.65662680834066
 11
1078.609403121472
 21
335.65972916546485
  0
LINE
  8
_2-7_ビス
  6
CONTINUOUS
 62
    7
 10
1078.609403121472
 20
335.65972916546485
 11
1078.5588939280613
 21
335.65308784279023
  0
LINE
  8
_2-7_ビス
  6
CONTINUOUS
 62
    7
 10
1078.5588939280613
 20
335.65308784279023
 11
1078.5102010528037
 21
335.63690463354561
  0
LINE
  8
_2-7_ビス
  6
CONTINUOUS
 62
    7
 10
1078.5102010528037
 20
335.63690463354561
 11
1078.4648040040747
 21
335.61167125635478
  0
LINE
  8
_2-7_ビス
  6
CONTINUOUS
 62
    7
 10
1078.4648040040747
 20
335.61167125635478
 11
1078.4240821482276
 21
335.57815441461497
  0
LINE
  8
_2-7_ビス
  6
CONTINUOUS
 62
    7
 10
1078.4240821482276
 20
335.57815441461497
 11
1078.3892727982461
 21
335.53737250060209
  0
LINE
  8
_2-7_ビス
  6
CONTINUOUS
 62
    7
 10
1078.3892727982461
 20
335.53737250060209
 11
1078.3614336186151
 21
335.49056465213681
  0
LINE
  8
_2-7_ビス
  6
CONTINUOUS
 62
    7
 10
1078.3614336186151
 20
335.49056465213681
 11
1078.3414104887204
 21
335.43915310200879
  0
LINE
  8
_2-7_ビス
  6
CONTINUOUS
 62
    7
 10
1078.3414104887204
 20
335.43915310200879
 11
1078.3298118012317
 21
335.38469996415324
  0
LINE
  8
_2-7_ビス
  6
CONTINUOUS
 62
    7
 10
1078.3298118012317
 20
335.38469996415324
 11
1078.3269899763989
 21
335.32885976960921
  0
LINE
  8
_2-7_ビス
  6
CONTINUOUS
 62
    7
 10
1078.3269899763989
 20
335.32885976960921
 11
1078.3269899763989
 21
335.32885976960915
  0
LINE
  8
_2-7_ビス
  6
CONTINUOUS
 62
    7
 10
1073.6246377263976
 20
372.31691255645001
 11
1073.6246377263976
 21
376.41239772936228
  0
LINE
  8
_2-7_ビス
  6
CONTINUOUS
 62
    7
 10
1073.6246377263976
 20
376.41239772936228
 11
1076.6246377263994
 21
376.41239772936228
  0
LINE
  8
_2-7_ビス
  6
CONTINUOUS
 62
    7
 10
1073.6246377263976
 20
372.31691255645001
 11
1072.8746377263994
 21
371.49235163624621
  0
LINE
  8
_2-7_ビス
  6
CONTINUOUS
 62
    7
 10
1072.8746377263994
 20
371.49235163624621
 11
1072.8746377263994
 21
369.39374590913144
  0
LINE
  8
_2-7_ビス
  6
CONTINUOUS
 62
    7
 10
1072.8746377263994
 20
369.39374590913144
 11
1073.4228569763989
 21
365.27615259588242
  0
LINE
  8
_2-7_ビス
  6
CONTINUOUS
 62
    7
 10
1073.4228569763989
 20
365.27615259588242
 11
1073.6647807263987
 21
364.86853808736169
  0
LINE
  8
_2-7_ビス
  6
CONTINUOUS
 62
    7
 10
1073.6647807263987
 20
364.86853808736169
 11
1073.6246377263976
 21
364.86853808736169
  0
LINE
  8
_2-7_ビス
  6
CONTINUOUS
 62
    7
 10
1073.6246377263976
 20
364.86853808736169
 11
1073.6246377263976
 21
363.054503000762
  0
LINE
  8
_2-7_ビス
  6
CONTINUOUS
 62
    7
 10
1073.6246377263976
 20
363.054503000762
 11
1074.0576502869656
 21
362.22994159776204
  0
LINE
  8
_2-7_ビス
  6
CONTINUOUS
 62
    7
 10
1073.927746476397
 20
361.98257317686125
 11
1072.9496377263988
 21
361.98257317686125
  0
LINE
  8
_2-7_ビス
  6
CONTINUOUS
 62
    7
 10
1072.9496377263988
 20
361.98257317686125
 11
1072.9496377263988
 21
357.74918258298226
  0
LINE
  8
_2-7_ビス
  6
CONTINUOUS
 62
    7
 10
1072.9496377263988
 20
357.74918258298226
 11
1073.4511072263988
 21
356.78783633796183
  0
LINE
  8
_2-7_ビス
  6
CONTINUOUS
 62
    7
 10
1073.4511072263988
 20
356.78783633796183
 11
1073.4558877263996
 21
356.78783633796183
  0
LINE
  8
_2-7_ビス
  6
CONTINUOUS
 62
    7
 10
1073.4558918996843
 20
356.78783669174391
 11
1073.4558877263996
 21
356.78783633796183
  0
LINE
  8
_2-7_ビス
  6
CONTINUOUS
 62
    7
 10
1073.4558918996843
 20
356.78783669174391
 11
1073.4558877263996
 21
356.78783633796183
  0
LINE
  8
_2-7_ビス
  6
CONTINUOUS
 62
    7
 10
1073.4884789763985
 20
355.71590651406223
 11
1072.9496377263988
 21
355.71590651406223
  0
LINE
  8
_2-7_ビス
  6
CONTINUOUS
 62
    7
 10
1072.9496377263988
 20
355.71590651406223
 11
1072.9496377263988
 21
349.91867337728831
  0
LINE
  8
_2-7_ビス
  6
CONTINUOUS
 62
    7
 10
1072.9496377263988
 20
349.91867337728831
 11
1073.4558849134598
 21
348.95452200752356
  0
LINE
  8
_2-7_ビス
  6
CONTINUOUS
 62
    7
 10
1073.4558877263996
 20
348.95450300946163
 11
1073.4594793567542
 21
349.43195440670206
  0
LINE
  8
_2-7_ビス
  6
CONTINUOUS
 62
    7
 10
1073.4594793567542
 20
349.43195440670206
 11
1073.7801593643778
 21
349.44923985126206
  0
LINE
  8
_2-7_ビス
  6
CONTINUOUS
 62
    7
 10
1073.9388214045446
 20
349.69660827216171
 11
1073.4884789763985
 21
350.52116967516167
  0
LINE
  8
_2-7_ビス
  6
CONTINUOUS
 62
    7
 10
1073.4884789763985
 20
350.52116967516167
 11
1073.4884788242741
 21
350.99862114415669
  0
LINE
  8
_2-7_ビス
  6
CONTINUOUS
 62
    7
 10
1073.4884788242741
 20
350.99862114415669
 11
1073.8365112263998
 21
351.0159065169621
  0
LINE
  8
_2-7_ビス
  6
CONTINUOUS
 62
    7
 10
1073.9961009761189
 20
351.26327493786175
 11
1073.4884789763985
 21
352.08783634086171
  0
LINE
  8
_2-7_ビス
  6
CONTINUOUS
 62
    7
 10
1073.4884789763985
 20
352.08783634086171
 11
1073.4884789763985
 21
352.56528790197035
  0
LINE
  8
_2-7_ビス
  6
CONTINUOUS
 62
    7
 10
1073.4884789763985
 20
352.56528790197035
 11
1073.8365112263998
 21
352.58257318266214
  0
LINE
  8
_2-7_ビス
  6
CONTINUOUS
 62
    7
 10
1073.9961009761189
 20
352.82994160356179
 11
1073.4884789763985
 21
353.65450300656175
  0
LINE
  8
_2-7_ビス
  6
CONTINUOUS
 62
    7
 10
1073.4884789763985
 20
353.65450300656175
 11
1073.4884789763985
 21
354.13195456767039
  0
LINE
  8
_2-7_ビス
  6
CONTINUOUS
 62
    7
 10
1073.4884789763985
 20
354.13195456767039
 11
1073.8365112263998
 21
354.14923984836219
  0
LINE
  8
_2-7_ビス
  6
CONTINUOUS
 62
    7
 10
1073.9961009761189
 20
354.39660826926183
 11
1073.4884788242741
 21
355.22116967226179
  0
LINE
  8
_2-7_ビス
  6
CONTINUOUS
 62
    7
 10
1073.4884788242741
 20
355.22116967226179
 11
1073.4884789763985
 21
355.71590651406223
  0
LINE
  8
_2-7_ビス
  6
CONTINUOUS
 62
    7
 10
1073.4558918996843
 20
356.78783669174391
 11
1073.4595771009297
 21
357.26528816073778
  0
LINE
  8
_2-7_ビス
  6
CONTINUOUS
 62
    7
 10
1073.4595771009297
 20
357.26528816073778
 11
1073.7770219763977
 21
357.28257317976227
  0
LINE
  8
_2-7_ビス
  6
CONTINUOUS
 62
    7
 10
1073.9391141167196
 20
357.52994160066191
 11
1073.4884788242741
 21
358.35450300366188
  0
LINE
  8
_2-7_ビス
  6
CONTINUOUS
 62
    7
 10
1073.4884788242741
 20
358.35450300366188
 11
1073.4884788242741
 21
358.83195447265575
  0
LINE
  8
_2-7_ビス
  6
CONTINUOUS
 62
    7
 10
1073.4884788242741
 20
358.83195447265575
 11
1073.8365112263998
 21
358.84923984546231
  0
LINE
  8
_2-7_ビス
  6
CONTINUOUS
 62
    7
 10
1073.9961009761189
 20
359.09660826636195
 11
1073.4884789763985
 21
359.92116966936192
  0
LINE
  8
_2-7_ビス
  6
CONTINUOUS
 62
    7
 10
1073.4884789763985
 20
359.92116966936192
 11
1073.4884788242741
 21
360.39862113835579
  0
LINE
  8
_2-7_ビス
  6
CONTINUOUS
 62
    7
 10
1073.4884788242741
 20
360.39862113835579
 11
1073.8373973188866
 21
360.41613809232172
  0
LINE
  8
_2-7_ビス
  6
CONTINUOUS
 62
    7
 10
1073.9961009761189
 20
360.663274932062
 11
1073.4884788242741
 21
361.48783633506196
  0
LINE
  8
_2-7_ビス
  6
CONTINUOUS
 62
    7
 10
1073.4884788242741
 20
361.48783633506196
 11
1073.4884789819055
 21
361.98257317686125
  0
LINE
  8
_2-7_ビス
  6
CONTINUOUS
 62
    7
 10
1073.4884789763985
 20
347.88257318556202
 11
1072.9496377263988
 21
347.88257318556202
  0
LINE
  8
_2-7_ビス
  6
CONTINUOUS
 62
    7
 10
1072.9496377263988
 20
347.88257318556202
 11
1072.9496377263988
 21
344.6343314507244
  0
LINE
  8
_2-7_ビス
  6
CONTINUOUS
 62
    7
 10
1072.9496377263988
 20
344.6343314507244
 11
1073.455423476398
 21
341.12116968096143
  0
LINE
  8
_2-7_ビス
  6
CONTINUOUS
 62
    7
 10
1073.455423476398
 20
341.12116968096143
 11
1073.4561579940621
 21
341.59862076510262
  0
LINE
  8
_2-7_ビス
  6
CONTINUOUS
 62
    7
 10
1073.4561579940621
 20
341.59862076510262
 11
1073.764846476399
 21
341.61590652276186
  0
LINE
  8
_2-7_ビス
  6
CONTINUOUS
 62
    7
 10
1073.455423476398
 20
341.12116968096143
 11
1073.8889002869653
 21
340.29660827796147
  0
LINE
  8
_2-7_ビス
  6
CONTINUOUS
 62
    7
 10
1073.9094030411864
 20
341.86327494366151
 11
1073.4588007077261
 21
342.68783634666147
  0
LINE
  8
_2-7_ビス
  6
CONTINUOUS
 62
    7
 10
1073.4588007077261
 20
342.68783634666147
 11
1073.4608856119892
 21
343.16528743080153
  0
LINE
  8
_2-7_ビス
  6
CONTINUOUS
 62
    7
 10
1073.4608856119892
 20
343.16528743080153
 11
1073.7832124763984
 21
343.1825731884619
  0
LINE
  8
_2-7_ビス
  6
CONTINUOUS
 62
    7
 10
1073.9317179722182
 20
343.42994160936155
 11
1073.4678501128926
 21
344.25450262750769
  0
LINE
  8
_2-7_ビス
  6
CONTINUOUS
 62
    7
 10
1073.4678501128926
 20
344.25450262750769
 11
1073.471912953589
 21
344.7319540965027
  0
LINE
  8
_2-7_ビス
  6
CONTINUOUS
 62
    7
 10
1073.471912953589
 20
344.7319540965027
 11
1073.806566308858
 21
344.74923985416194
  0
LINE
  8
_2-7_ビス
  6
CONTINUOUS
 62
    7
 10
1073.9638209250254
 20
344.99660827506159
 11
1073.4836183008199
 21
345.82116929320773
  0
LINE
  8
_2-7_ビス
  6
CONTINUOUS
 62
    7
 10
1073.4836183008199
 20
345.82116929320773
 11
1073.4884789763985
 21
346.29862123917019
  0
LINE
  8
_2-7_ビス
  6
CONTINUOUS
 62
    7
 10
1073.4884789763985
 20
346.29862123917019
 11
1073.8365112263998
 21
346.31590651986198
  0
LINE
  8
_2-7_ビス
  6
CONTINUOUS
 62
    7
 10
1073.9961009761189
 20
346.56327494076163
 11
1073.4884788242741
 21
347.38783634376159
  0
LINE
  8
_2-7_ビス
  6
CONTINUOUS
 62
    7
 10
1073.4884788242741
 20
347.38783634376159
 11
1073.4884789763985
 21
347.88257318556202
  0
LINE
  8
_2-7_ビス
  6
CONTINUOUS
 62
    7
 10
1073.758996476399
 20
340.04923985706182
 11
1073.6246377263976
 21
340.04923985706182
  0
LINE
  8
_2-7_ビス
  6
CONTINUOUS
 62
    7
 10
1073.6246377263976
 20
340.04923985706182
 11
1073.6246377263976
 21
339.26590652421123
  0
LINE
  8
_2-7_ビス
  6
CONTINUOUS
 62
    7
 10
1073.6246377263976
 20
339.26590652421123
 11
1073.7746377263986
 21
339.26590652421123
  0
LINE
  8
_2-7_ビス
  6
CONTINUOUS
 62
    7
 10
1073.7746377263986
 20
339.26590652421123
 11
1073.7746377263986
 21
337.65801178836182
  0
LINE
  8
_2-7_ビス
  6
CONTINUOUS
 62
    7
 10
1073.7746377263986
 20
337.65801178836182
 11
1073.7811045371993
 21
337.65801178836182
  0
LINE
  8
_2-7_ビス
  6
CONTINUOUS
 62
    7
 10
1073.8313797263979
 20
337.32818722716229
 11
1073.8313798729357
 21
331.37774563434232
  0
LINE
  8
_2-7_ビス
  6
CONTINUOUS
 62
    7
 10
1073.8313798729357
 20
331.37774563434232
 11
1074.2718172263992
 21
330.72632481018286
  0
LINE
  8
_2-7_ビス
  6
CONTINUOUS
 62
    7
 10
1074.2718172263992
 20
330.72632481018286
 11
1075.2746377263973
 21
329.4123977583622
  0
LINE
  8
_2-7_ビス
  6
CONTINUOUS
 62
    7
 10
1075.2746377263973
 20
329.4123977583622
 11
1075.4240162058929
 21
329.4123977583622
  0
LINE
  8
_2-7_ビス
  6
CONTINUOUS
 62
    7
 10
1075.4240162058929
 20
329.4123977583622
 11
1074.3389220965785
 21
331.37774563434232
  0
LINE
  8
_2-7_ビス
  6
CONTINUOUS
 62
    7
 10
1074.3389220965785
 20
331.37774563434232
 11
1074.3389219763978
 21
335.3492398599617
  0
LINE
  8
_2-7_ビス
  6
CONTINUOUS
 62
    7
 10
1074.9222854763977
 20
335.3492398599617
 11
1074.922285202965
 21
331.37774578704079
  0
LINE
  8
_2-7_ビス
  6
CONTINUOUS
 62
    7
 10
1074.922285202965
 20
331.37774578704079
 11
1076.0073795681999
 21
329.4123977583622
  0
LINE
  8
_2-7_ビス
  6
CONTINUOUS
 62
    7
 10
1076.0073795681999
 20
329.4123977583622
 11
1076.6246377263994
 21
329.4123977583622
  0
LINE
  8
_2-7_ビス
  6
CONTINUOUS
 62
    7
 10
1073.927746476397
 20
361.98257317686125
 11
1073.927746476397
 21
361.98257317686125
  0
LINE
  8
_2-7_ビス
  6
CONTINUOUS
 62
    7
 10
1073.927746476397
 20
361.98257317686125
 11
1073.9547049272976
 21
361.98722696157648
  0
LINE
  8
_2-7_ビス
  6
CONTINUOUS
 62
    7
 10
1073.9547049272976
 20
361.98722696157648
 11
1073.9805187723107
 21
361.9969567217064
  0
LINE
  8
_2-7_ビス
  6
CONTINUOUS
 62
    7
 10
1073.9805187723107
 20
361.9969567217064
 11
1074.004403670818
 21
362.01146682341295
  0
LINE
  8
_2-7_ビス
  6
CONTINUOUS
 62
    7
 10
1074.004403670818
 20
362.01146682341295
 11
1074.0256338922648
 21
362.03031638459828
  0
LINE
  8
_2-7_ビス
  6
CONTINUOUS
 62
    7
 10
1074.0256338922648
 20
362.03031638459828
 11
1074.0435643671153
 21
362.05293267088405
  0
LINE
  8
_2-7_ビス
  6
CONTINUOUS
 62
    7
 10
1074.0435643671153
 20
362.05293267088405
 11
1074.0576502869646
 21
362.0786284978559
  0
LINE
  8
_2-7_ビス
  6
CONTINUOUS
 62
    7
 10
1074.0576502869646
 20
362.0786284978559
 11
1074.067463658266
 21
362.10662311081398
  0
LINE
  8
_2-7_ビス
  6
CONTINUOUS
 62
    7
 10
1074.067463658266
 20
362.10662311081398
 11
1074.0727063066979
 21
362.13606590760958
  0
LINE
  8
_2-7_ビス
  6
CONTINUOUS
 62
    7
 10
1074.0727063066979
 20
362.13606590760958
 11
1074.0732189370408
 21
362.16606228376077
  0
LINE
  8
_2-7_ビス
  6
CONTINUOUS
 62
    7
 10
1074.0732189370408
 20
362.16606228376077
 11
1074.0689859732813
 21
362.19570081455714
  0
LINE
  8
_2-7_ビス
  6
CONTINUOUS
 62
    7
 10
1074.0689859732813
 20
362.19570081455714
 11
1074.060136031881
 21
362.22408094823822
  0
LINE
  8
_2-7_ビス
  6
CONTINUOUS
 62
    7
 10
1074.060136031881
 20
362.22408094823822
 11
1074.0469380138313
 21
362.25034036880322
  0
LINE
  8
_2-7_ビス
  6
CONTINUOUS
 62
    7
 10
1074.0469380138313
 20
362.25034036880322
 11
1074.0469376213139
 21
362.25034101042741
  0
LINE
  8
_2-7_ビス
  6
CONTINUOUS
 62
    7
 10
1073.8365112263989
 20
360.41590651116172
 11
1073.8365112263989
 21
360.41590651116172
  0
LINE
  8
_2-7_ビス
  6
CONTINUOUS
 62
    7
 10
1073.8365112263989
 20
360.41590651116172
 11
1073.8710344547339
 21
360.42842006142075
  0
LINE
  8
_2-7_ビス
  6
CONTINUOUS
 62
    7
 10
1073.8710344547339
 20
360.42842006142075
 11
1073.9030567330869
 21
360.4473343821989
  0
LINE
  8
_2-7_ビス
  6
CONTINUOUS
 62
    7
 10
1073.9030567330869
 20
360.4473343821989
 11
1073.9316050807345
 21
360.4720747714303
  0
LINE
  8
_2-7_ビス
  6
CONTINUOUS
 62
    7
 10
1073.9316050807345
 20
360.4720747714303
 11
1073.9558120705794
 21
360.50188950490752
  0
LINE
  8
_2-7_ビス
  6
CONTINUOUS
 62
    7
 10
1073.9558120705794
 20
360.50188950490752
 11
1073.9749421854845
 21
360.53587267704074
  0
LINE
  8
_2-7_ビス
  6
CONTINUOUS
 62
    7
 10
1073.9749421854845
 20
360.53587267704074
 11
1073.9884141665887
 21
360.57299172634106
  0
LINE
  8
_2-7_ビス
  6
CONTINUOUS
 62
    7
 10
1073.9884141665887
 20
360.57299172634106
 11
1073.9958186745632
 21
360.61211880927863
  0
LINE
  8
_2-7_ビス
  6
CONTINUOUS
 62
    7
 10
1073.9958186745632
 20
360.61211880927863
 11
1073.9969307271804
 21
360.65206506923766
  0
LINE
  8
_2-7_ビス
  6
CONTINUOUS
 62
    7
 10
1073.9969307271804
 20
360.65206506923766
 11
1073.9961009761196
 21
360.66327493206171
  0
LINE
  8
_2-7_ビス
  6
CONTINUOUS
 62
    7
 10
1073.8365112263989
 20
358.84923984546168
 11
1073.8365112263989
 21
358.84923984546168
  0
LINE
  8
_2-7_ビス
  6
CONTINUOUS
 62
    7
 10
1073.8365112263989
 20
358.84923984546168
 11
1073.8710344547339
 21
358.86175339572071
  0
LINE
  8
_2-7_ビス
  6
CONTINUOUS
 62
    7
 10
1073.8710344547339
 20
358.86175339572071
 11
1073.9030567330869
 21
358.88066771649886
  0
LINE
  8
_2-7_ビス
  6
CONTINUOUS
 62
    7
 10
1073.9030567330869
 20
358.88066771649886
 11
1073.9316050807345
 21
358.90540810573026
  0
LINE
  8
_2-7_ビス
  6
CONTINUOUS
 62
    7
 10
1073.9316050807345
 20
358.90540810573026
 11
1073.9558120705794
 21
358.93522283920748
  0
LINE
  8
_2-7_ビス
  6
CONTINUOUS
 62
    7
 10
1073.9558120705794
 20
358.93522283920748
 11
1073.9749421854845
 21
358.9692060113407
  0
LINE
  8
_2-7_ビス
  6
CONTINUOUS
 62
    7
 10
1073.9749421854845
 20
358.9692060113407
 11
1073.9884141665887
 21
359.00632506064102
  0
LINE
  8
_2-7_ビス
  6
CONTINUOUS
 62
    7
 10
1073.9884141665887
 20
359.00632506064102
 11
1073.9958186745632
 21
359.04545214357859
  0
LINE
  8
_2-7_ビス
  6
CONTINUOUS
 62
    7
 10
1073.9958186745632
 20
359.04545214357859
 11
1073.9969307271804
 21
359.08539840353762
  0
LINE
  8
_2-7_ビス
  6
CONTINUOUS
 62
    7
 10
1073.9969307271804
 20
359.08539840353762
 11
1073.9961009761196
 21
359.09660826636167
  0
LINE
  8
_2-7_ビス
  6
CONTINUOUS
 62
    7
 10
1073.7795243669973
 20
357.28257317976164
 11
1073.7795243669973
 21
357.28257317976164
  0
LINE
  8
_2-7_ビス
  6
CONTINUOUS
 62
    7
 10
1073.7795243669973
 20
357.28257317976164
 11
1073.8140475953323
 21
357.29508673002067
  0
LINE
  8
_2-7_ビス
  6
CONTINUOUS
 62
    7
 10
1073.8140475953323
 20
357.29508673002067
 11
1073.8460698736853
 21
357.31400105079882
  0
LINE
  8
_2-7_ビス
  6
CONTINUOUS
 62
    7
 10
1073.8460698736853
 20
357.31400105079882
 11
1073.8746182213329
 21
357.33874144003022
  0
LINE
  8
_2-7_ビス
  6
CONTINUOUS
 62
    7
 10
1073.8746182213329
 20
357.33874144003022
 11
1073.8988252111778
 21
357.36855617350744
  0
LINE
  8
_2-7_ビス
  6
CONTINUOUS
 62
    7
 10
1073.8988252111778
 20
357.36855617350744
 11
1073.9179553260828
 21
357.40253934564066
  0
LINE
  8
_2-7_ビス
  6
CONTINUOUS
 62
    7
 10
1073.9179553260828
 20
357.40253934564066
 11
1073.9314273071871
 21
357.43965839494098
  0
LINE
  8
_2-7_ビス
  6
CONTINUOUS
 62
    7
 10
1073.9314273071871
 20
357.43965839494098
 11
1073.9388318151616
 21
357.47878547787855
  0
LINE
  8
_2-7_ビス
  6
CONTINUOUS
 62
    7
 10
1073.9388318151616
 20
357.47878547787855
 11
1073.9399438677788
 21
357.51873173783758
  0
LINE
  8
_2-7_ビス
  6
CONTINUOUS
 62
    7
 10
1073.9399438677788
 20
357.51873173783758
 11
1073.939114116718
 21
357.52994160066163
  0
LINE
  8
_2-7_ビス
  6
CONTINUOUS
 62
    7
 10
1073.8365112263989
 20
354.14923984836156
 11
1073.8365112263989
 21
354.14923984836156
  0
LINE
  8
_2-7_ビス
  6
CONTINUOUS
 62
    7
 10
1073.8365112263989
 20
354.14923984836156
 11
1073.8710344547339
 21
354.16175339862059
  0
LINE
  8
_2-7_ビス
  6
CONTINUOUS
 62
    7
 10
1073.8710344547339
 20
354.16175339862059
 11
1073.9030567330869
 21
354.18066771939874
  0
LINE
  8
_2-7_ビス
  6
CONTINUOUS
 62
    7
 10
1073.9030567330869
 20
354.18066771939874
 11
1073.9316050807345
 21
354.20540810863014
  0
LINE
  8
_2-7_ビス
  6
CONTINUOUS
 62
    7
 10
1073.9316050807345
 20
354.20540810863014
 11
1073.9558120705794
 21
354.23522284210736
  0
LINE
  8
_2-7_ビス
  6
CONTINUOUS
 62
    7
 10
1073.9558120705794
 20
354.23522284210736
 11
1073.9749421854845
 21
354.26920601424058
  0
LINE
  8
_2-7_ビス
  6
CONTINUOUS
 62
    7
 10
1073.9749421854845
 20
354.26920601424058
 11
1073.9884141665887
 21
354.3063250635409
  0
LINE
  8
_2-7_ビス
  6
CONTINUOUS
 62
    7
 10
1073.9884141665887
 20
354.3063250635409
 11
1073.9958186745632
 21
354.34545214647846
  0
LINE
  8
_2-7_ビス
  6
CONTINUOUS
 62
    7
 10
1073.9958186745632
 20
354.34545214647846
 11
1073.9969307271804
 21
354.3853984064375
  0
LINE
  8
_2-7_ビス
  6
CONTINUOUS
 62
    7
 10
1073.9969307271804
 20
354.3853984064375
 11
1073.9961009761196
 21
354.39660826926155
  0
LINE
  8
_2-7_ビス
  6
CONTINUOUS
 62
    7
 10
1073.8365112263989
 20
352.58257318266152
 11
1073.8365112263989
 21
352.58257318266152
  0
LINE
  8
_2-7_ビス
  6
CONTINUOUS
 62
    7
 10
1073.8365112263989
 20
352.58257318266152
 11
1073.8710344547339
 21
352.59508673292055
  0
LINE
  8
_2-7_ビス
  6
CONTINUOUS
 62
    7
 10
1073.8710344547339
 20
352.59508673292055
 11
1073.9030567330869
 21
352.6140010536987
  0
LINE
  8
_2-7_ビス
  6
CONTINUOUS
 62
    7
 10
1073.9030567330869
 20
352.6140010536987
 11
1073.9316050807345
 21
352.6387414429301
  0
LINE
  8
_2-7_ビス
  6
CONTINUOUS
 62
    7
 10
1073.9316050807345
 20
352.6387414429301
 11
1073.9558120705794
 21
352.66855617640732
  0
LINE
  8
_2-7_ビス
  6
CONTINUOUS
 62
    7
 10
1073.9558120705794
 20
352.66855617640732
 11
1073.9749421854845
 21
352.70253934854054
  0
LINE
  8
_2-7_ビス
  6
CONTINUOUS
 62
    7
 10
1073.9749421854845
 20
352.70253934854054
 11
1073.9884141665887
 21
352.73965839784086
  0
LINE
  8
_2-7_ビス
  6
CONTINUOUS
 62
    7
 10
1073.9884141665887
 20
352.73965839784086
 11
1073.9958186745632
 21
352.77878548077842
  0
LINE
  8
_2-7_ビス
  6
CONTINUOUS
 62
    7
 10
1073.9958186745632
 20
352.77878548077842
 11
1073.9969307271804
 21
352.81873174073746
  0
LINE
  8
_2-7_ビス
  6
CONTINUOUS
 62
    7
 10
1073.9969307271804
 20
352.81873174073746
 11
1073.9961009761196
 21
352.82994160356151
  0
LINE
  8
_2-7_ビス
  6
CONTINUOUS
 62
    7
 10
1073.8365112263989
 20
351.01590651696148
 11
1073.8365112263989
 21
351.01590651696148
  0
LINE
  8
_2-7_ビス
  6
CONTINUOUS
 62
    7
 10
1073.8365112263989
 20
351.01590651696148
 11
1073.8710344547339
 21
351.02842006722051
  0
LINE
  8
_2-7_ビス
  6
CONTINUOUS
 62
    7
 10
1073.8710344547339
 20
351.02842006722051
 11
1073.9030567330869
 21
351.04733438799866
  0
LINE
  8
_2-7_ビス
  6
CONTINUOUS
 62
    7
 10
1073.9030567330869
 20
351.04733438799866
 11
1073.9316050807345
 21
351.07207477723006
  0
LINE
  8
_2-7_ビス
  6
CONTINUOUS
 62
    7
 10
1073.9316050807345
 20
351.07207477723006
 11
1073.9558120705794
 21
351.10188951070728
  0
LINE
  8
_2-7_ビス
  6
CONTINUOUS
 62
    7
 10
1073.9558120705794
 20
351.10188951070728
 11
1073.9749421854845
 21
351.1358726828405
  0
LINE
  8
_2-7_ビス
  6
CONTINUOUS
 62
    7
 10
1073.9749421854845
 20
351.1358726828405
 11
1073.9884141665887
 21
351.17299173214082
  0
LINE
  8
_2-7_ビス
  6
CONTINUOUS
 62
    7
 10
1073.9884141665887
 20
351.17299173214082
 11
1073.9958186745632
 21
351.21211881507838
  0
LINE
  8
_2-7_ビス
  6
CONTINUOUS
 62
    7
 10
1073.9958186745632
 20
351.21211881507838
 11
1073.9969307271804
 21
351.25206507503742
  0
LINE
  8
_2-7_ビス
  6
CONTINUOUS
 62
    7
 10
1073.9969307271804
 20
351.25206507503742
 11
1073.9961009761196
 21
351.26327493786147
  0
LINE
  8
_2-7_ビス
  6
CONTINUOUS
 62
    7
 10
1073.7792316548246
 20
349.44923985126144
 11
1073.7792316548246
 21
349.44923985126144
  0
LINE
  8
_2-7_ビス
  6
CONTINUOUS
 62
    7
 10
1073.7792316548246
 20
349.44923985126144
 11
1073.8137548831596
 21
349.46175340152047
  0
LINE
  8
_2-7_ビス
  6
CONTINUOUS
 62
    7
 10
1073.8137548831596
 20
349.46175340152047
 11
1073.8457771615126
 21
349.48066772229862
  0
LINE
  8
_2-7_ビス
  6
CONTINUOUS
 62
    7
 10
1073.8457771615126
 20
349.48066772229862
 11
1073.8743255091601
 21
349.50540811153002
  0
LINE
  8
_2-7_ビス
  6
CONTINUOUS
 62
    7
 10
1073.8743255091601
 20
349.50540811153002
 11
1073.8985324990051
 21
349.53522284500724
  0
LINE
  8
_2-7_ビス
  6
CONTINUOUS
 62
    7
 10
1073.8985324990051
 20
349.53522284500724
 11
1073.9176626139101
 21
349.56920601714046
  0
LINE
  8
_2-7_ビス
  6
CONTINUOUS
 62
    7
 10
1073.9176626139101
 20
349.56920601714046
 11
1073.9311345950143
 21
349.60632506644077
  0
LINE
  8
_2-7_ビス
  6
CONTINUOUS
 62
    7
 10
1073.9311345950143
 20
349.60632506644077
 11
1073.9385391029889
 21
349.64545214937834
  0
LINE
  8
_2-7_ビス
  6
CONTINUOUS
 62
    7
 10
1073.9385391029889
 20
349.64545214937834
 11
1073.939651155606
 21
349.68539840933738
  0
LINE
  8
_2-7_ビス
  6
CONTINUOUS
 62
    7
 10
1073.939651155606
 20
349.68539840933738
 11
1073.9388214045453
 21
349.69660827216143
  0
LINE
  8
_2-7_ビス
  6
CONTINUOUS
 62
    7
 10
1073.8365112263989
 20
346.31590651986136
 11
1073.8365112263989
 21
346.31590651986136
  0
LINE
  8
_2-7_ビス
  6
CONTINUOUS
 62
    7
 10
1073.8365112263989
 20
346.31590651986136
 11
1073.8710344547339
 21
346.32842007012039
  0
LINE
  8
_2-7_ビス
  6
CONTINUOUS
 62
    7
 10
1073.8710344547339
 20
346.32842007012039
 11
1073.9030567330869
 21
346.34733439089854
  0
LINE
  8
_2-7_ビス
  6
CONTINUOUS
 62
    7
 10
1073.9030567330869
 20
346.34733439089854
 11
1073.9316050807345
 21
346.37207478012994
  0
LINE
  8
_2-7_ビス
  6
CONTINUOUS
 62
    7
 10
1073.9316050807345
 20
346.37207478012994
 11
1073.9558120705794
 21
346.40188951360716
  0
LINE
  8
_2-7_ビス
  6
CONTINUOUS
 62
    7
 10
1073.9558120705794
 20
346.40188951360716
 11
1073.9749421854845
 21
346.43587268574038
  0
LINE
  8
_2-7_ビス
  6
CONTINUOUS
 62
    7
 10
1073.9749421854845
 20
346.43587268574038
 11
1073.9884141665887
 21
346.47299173504069
  0
LINE
  8
_2-7_ビス
  6
CONTINUOUS
 62
    7
 10
1073.9884141665887
 20
346.47299173504069
 11
1073.9958186745632
 21
346.51211881797826
  0
LINE
  8
_2-7_ビス
  6
CONTINUOUS
 62
    7
 10
1073.9958186745632
 20
346.51211881797826
 11
1073.9969307271804
 21
346.5520650779373
  0
LINE
  8
_2-7_ビス
  6
CONTINUOUS
 62
    7
 10
1073.9969307271804
 20
346.5520650779373
 11
1073.9961009761196
 21
346.56327494076135
  0
LINE
  8
_2-7_ビス
  6
CONTINUOUS
 62
    7
 10
1073.8042311753031
 20
344.74923985416132
 11
1073.8042311753031
 21
344.74923985416132
  0
LINE
  8
_2-7_ビス
  6
CONTINUOUS
 62
    7
 10
1073.8042311753031
 20
344.74923985416132
 11
1073.8387544036382
 21
344.76175340442035
  0
LINE
  8
_2-7_ビス
  6
CONTINUOUS
 62
    7
 10
1073.8387544036382
 20
344.76175340442035
 11
1073.8707766819912
 21
344.7806677251985
  0
LINE
  8
_2-7_ビス
  6
CONTINUOUS
 62
    7
 10
1073.8707766819912
 20
344.7806677251985
 11
1073.8993250296387
 21
344.80540811442989
  0
LINE
  8
_2-7_ビス
  6
CONTINUOUS
 62
    7
 10
1073.8993250296387
 20
344.80540811442989
 11
1073.9235320194837
 21
344.83522284790712
  0
LINE
  8
_2-7_ビス
  6
CONTINUOUS
 62
    7
 10
1073.9235320194837
 20
344.83522284790712
 11
1073.9426621343887
 21
344.86920602004034
  0
LINE
  8
_2-7_ビス
  6
CONTINUOUS
 62
    7
 10
1073.9426621343887
 20
344.86920602004034
 11
1073.9561341154929
 21
344.90632506934065
  0
LINE
  8
_2-7_ビス
  6
CONTINUOUS
 62
    7
 10
1073.9561341154929
 20
344.90632506934065
 11
1073.9635386234675
 21
344.94545215227822
  0
LINE
  8
_2-7_ビス
  6
CONTINUOUS
 62
    7
 10
1073.9635386234675
 20
344.94545215227822
 11
1073.9646506760846
 21
344.98539841223726
  0
LINE
  8
_2-7_ビス
  6
CONTINUOUS
 62
    7
 10
1073.9646506760846
 20
344.98539841223726
 11
1073.9638209250238
 21
344.99660827506131
  0
LINE
  8
_2-7_ビス
  6
CONTINUOUS
 62
    7
 10
1073.7721282224959
 20
343.18257318846128
 11
1073.7721282224959
 21
343.18257318846128
  0
LINE
  8
_2-7_ビス
  6
CONTINUOUS
 62
    7
 10
1073.7721282224959
 20
343.18257318846128
 11
1073.8066514508309
 21
343.19508673872031
  0
LINE
  8
_2-7_ビス
  6
CONTINUOUS
 62
    7
 10
1073.8066514508309
 20
343.19508673872031
 11
1073.8386737291839
 21
343.21400105949846
  0
LINE
  8
_2-7_ビス
  6
CONTINUOUS
 62
    7
 10
1073.8386737291839
 20
343.21400105949846
 11
1073.8672220768315
 21
343.23874144872985
  0
LINE
  8
_2-7_ビス
  6
CONTINUOUS
 62
    7
 10
1073.8672220768315
 20
343.23874144872985
 11
1073.8914290666764
 21
343.26855618220708
  0
LINE
  8
_2-7_ビス
  6
CONTINUOUS
 62
    7
 10
1073.8914290666764
 20
343.26855618220708
 11
1073.9105591815814
 21
343.3025393543403
  0
LINE
  8
_2-7_ビス
  6
CONTINUOUS
 62
    7
 10
1073.9105591815814
 20
343.3025393543403
 11
1073.9240311626857
 21
343.33965840364061
  0
LINE
  8
_2-7_ビス
  6
CONTINUOUS
 62
    7
 10
1073.9240311626857
 20
343.33965840364061
 11
1073.9314356706602
 21
343.37878548657818
  0
LINE
  8
_2-7_ビス
  6
CONTINUOUS
 62
    7
 10
1073.9314356706602
 20
343.37878548657818
 11
1073.9325477232774
 21
343.41873174653722
  0
LINE
  8
_2-7_ビス
  6
CONTINUOUS
 62
    7
 10
1073.9325477232774
 20
343.41873174653722
 11
1073.9317179722166
 21
343.42994160936126
  0
LINE
  8
_2-7_ビス
  6
CONTINUOUS
 62
    7
 10
1073.7498132914664
 20
341.61590652276237
 11
1073.7498132914664
 21
341.61590652276237
  0
LINE
  8
_2-7_ビス
  6
CONTINUOUS
 62
    7
 10
1073.7498132914664
 20
341.61590652276237
 11
1073.7843365198014
 21
341.6284200730214
  0
LINE
  8
_2-7_ビス
  6
CONTINUOUS
 62
    7
 10
1073.7843365198014
 20
341.6284200730214
 11
1073.8163587981544
 21
341.64733439379955
  0
LINE
  8
_2-7_ビス
  6
CONTINUOUS
 62
    7
 10
1073.8163587981544
 20
341.64733439379955
 11
1073.8449071458019
 21
341.67207478303095
  0
LINE
  8
_2-7_ビス
  6
CONTINUOUS
 62
    7
 10
1073.8449071458019
 20
341.67207478303095
 11
1073.8691141356469
 21
341.70188951650817
  0
LINE
  8
_2-7_ビス
  6
CONTINUOUS
 62
    7
 10
1073.8691141356469
 20
341.70188951650817
 11
1073.8882442505519
 21
341.73587268864139
  0
LINE
  8
_2-7_ビス
  6
CONTINUOUS
 62
    7
 10
1073.8882442505519
 20
341.73587268864139
 11
1073.9017162316561
 21
341.77299173794171
  0
LINE
  8
_2-7_ビス
  6
CONTINUOUS
 62
    7
 10
1073.9017162316561
 20
341.77299173794171
 11
1073.9091207396307
 21
341.81211882087928
  0
LINE
  8
_2-7_ビス
  6
CONTINUOUS
 62
    7
 10
1073.9091207396307
 20
341.81211882087928
 11
1073.9102327922478
 21
341.85206508083832
  0
LINE
  8
_2-7_ビス
  6
CONTINUOUS
 62
    7
 10
1073.9102327922478
 20
341.85206508083832
 11
1073.909403041187
 21
341.86327494366236
  0
LINE
  8
_2-7_ビス
  6
CONTINUOUS
 62
    7
 10
1073.7589964763995
 20
340.04923985706216
 11
1073.7589964763995
 21
340.04923985706216
  0
LINE
  8
_2-7_ビス
  6
CONTINUOUS
 62
    7
 10
1073.7589964763995
 20
340.04923985706216
 11
1073.7861424123384
 21
340.05433567591086
  0
LINE
  8
_2-7_ビス
  6
CONTINUOUS
 62
    7
 10
1073.7861424123384
 20
340.05433567591086
 11
1073.8120710765702
 21
340.06453654772247
  0
LINE
  8
_2-7_ビス
  6
CONTINUOUS
 62
    7
 10
1073.8120710765702
 20
340.06453654772247
 11
1073.8359946397527
 21
340.07953252416883
  0
LINE
  8
_2-7_ビス
  6
CONTINUOUS
 62
    7
 10
1073.8359946397527
 20
340.07953252416883
 11
1073.8571861965245
 21
340.09886796009391
  0
LINE
  8
_2-7_ビス
  6
CONTINUOUS
 62
    7
 10
1073.8571861965245
 20
340.09886796009391
 11
1073.8750018521566
 21
340.12195535806143
  0
LINE
  8
_2-7_ビス
  6
CONTINUOUS
 62
    7
 10
1073.8750018521566
 20
340.12195535806143
 11
1073.8889002869678
 21
340.14809321916687
  0
LINE
  8
_2-7_ビス
  6
CONTINUOUS
 62
    7
 10
1073.8889002869678
 20
340.14809321916687
 11
1073.898459204049
 21
340.17648735772696
  0
LINE
  8
_2-7_ビス
  6
CONTINUOUS
 62
    7
 10
1073.898459204049
 20
340.17648735772696
 11
1073.9033881605421
 21
340.2062750322097
  0
LINE
  8
_2-7_ビス
  6
CONTINUOUS
 62
    7
 10
1073.9033881605421
 20
340.2062750322097
 11
1073.9035373925981
 21
340.23655115919917
  0
LINE
  8
_2-7_ビス
  6
CONTINUOUS
 62
    7
 10
1073.9035373925981
 20
340.23655115919917
 11
1073.8989023658764
 21
340.26639581389725
  0
LINE
  8
_2-7_ビス
  6
CONTINUOUS
 62
    7
 10
1073.8989023658764
 20
340.26639581389725
 11
1073.8896239133187
 21
340.29490218157309
  0
LINE
  8
_2-7_ビス
  6
CONTINUOUS
 62
    7
 10
1073.8896239133187
 20
340.29490218157309
 11
1073.8759839560107
 21
340.32120411066978
  0
LINE
  8
_2-7_ビス
  6
CONTINUOUS
 62
    7
 10
1073.8759839560107
 20
340.32120411066978
 11
1073.8759004622536
 21
340.32133659893162
  0
LINE
  8
_2-7_ビス
  6
CONTINUOUS
 62
    7
 10
1073.4558877263999
 20
347.88257318556185
 11
1073.4558877263999
 21
347.88257318556185
  0
LINE
  8
_2-7_ビス
  6
CONTINUOUS
 62
    7
 10
1073.4558877263999
 20
347.88257318556185
 11
1073.5402135571935
 21
347.89483314220956
  0
LINE
  8
_2-7_ビス
  6
CONTINUOUS
 62
    7
 10
1073.5402135571935
 20
347.89483314220956
 11
1073.6213218786518
 21
347.92300560891664
  0
LINE
  8
_2-7_ビス
  6
CONTINUOUS
 62
    7
 10
1073.6213218786518
 20
347.92300560891664
 11
1073.6967482554699
 21
347.9662345795382
  0
LINE
  8
_2-7_ビス
  6
CONTINUOUS
 62
    7
 10
1073.6967482554699
 20
347.9662345795382
 11
1073.7642008953558
 21
348.02320656367669
  0
LINE
  8
_2-7_ビス
  6
CONTINUOUS
 62
    7
 10
1073.7642008953558
 20
348.02320656367669
 11
1073.8216302839792
 21
348.09219049642337
  0
LINE
  8
_2-7_ビス
  6
CONTINUOUS
 62
    7
 10
1073.8216302839792
 20
348.09219049642337
 11
1073.8672914584276
 21
348.17109033588929
  0
LINE
  8
_2-7_ビス
  6
CONTINUOUS
 62
    7
 10
1073.8672914584276
 20
348.17109033588929
 11
1073.8997970270209
 21
348.2575087503775
  0
LINE
  8
_2-7_ビス
  6
CONTINUOUS
 62
    7
 10
1073.8997970270209
 20
348.2575087503775
 11
1073.918159324506
 21
348.34881996009358
  0
LINE
  8
_2-7_ビス
  6
CONTINUOUS
 62
    7
 10
1073.918159324506
 20
348.34881996009358
 11
1073.9218204217655
 21
348.4422495201361
  0
LINE
  8
_2-7_ビス
  6
CONTINUOUS
 62
    7
 10
1073.9218204217655
 20
348.4422495201361
 11
1073.9106690782121
 21
348.53495862060066
  0
LINE
  8
_2-7_ビス
  6
CONTINUOUS
 62
    7
 10
1073.9106690782121
 20
348.53495862060066
 11
1073.8850441217764
 21
348.62413034238284
  0
LINE
  8
_2-7_ビス
  6
CONTINUOUS
 62
    7
 10
1073.8850441217764
 20
348.62413034238284
 11
1073.8457241537933
 21
348.70705524783926
  0
LINE
  8
_2-7_ビス
  6
CONTINUOUS
 62
    7
 10
1073.8457241537933
 20
348.70705524783926
 11
1073.7939038915927
 21
348.78121370567976
  0
LINE
  8
_2-7_ビス
  6
CONTINUOUS
 62
    7
 10
1073.7939038915927
 20
348.78121370567976
 11
1073.7311578676195
 21
348.84435244868877
  0
LINE
  8
_2-7_ビス
  6
CONTINUOUS
 62
    7
 10
1073.7311578676195
 20
348.84435244868877
 11
1073.6593925880611
 21
348.89455303810973
  0
LINE
  8
_2-7_ビス
  6
CONTINUOUS
 62
    7
 10
1073.6593925880611
 20
348.89455303810973
 11
1073.5807886046216
 21
348.9302901544358
  0
LINE
  8
_2-7_ビス
  6
CONTINUOUS
 62
    7
 10
1073.5807886046216
 20
348.9302901544358
 11
1073.4977342595628
 21
348.9504779434713
  0
LINE
  8
_2-7_ビス
  6
CONTINUOUS
 62
    7
 10
1073.4977342595628
 20
348.9504779434713
 11
1073.4558877263999
 21
348.9545030094618
  0
LINE
  8
_2-7_ビス
  6
CONTINUOUS
 62
    7
 10
1073.4558877263999
 20
355.71590651406206
 11
1073.4558877263999
 21
355.71590651406206
  0
LINE
  8
_2-7_ビス
  6
CONTINUOUS
 62
    7
 10
1073.4558877263999
 20
355.71590651406206
 11
1073.5402135571935
 21
355.72816647070977
  0
LINE
  8
_2-7_ビス
  6
CONTINUOUS
 62
    7
 10
1073.5402135571935
 20
355.72816647070977
 11
1073.6213218786518
 21
355.75633893741684
  0
LINE
  8
_2-7_ビス
  6
CONTINUOUS
 62
    7
 10
1073.6213218786518
 20
355.75633893741684
 11
1073.6967482554699
 21
355.7995679080384
  0
LINE
  8
_2-7_ビス
  6
CONTINUOUS
 62
    7
 10
1073.6967482554699
 20
355.7995679080384
 11
1073.7642008953558
 21
355.8565398921769
  0
LINE
  8
_2-7_ビス
  6
CONTINUOUS
 62
    7
 10
1073.7642008953558
 20
355.8565398921769
 11
1073.8216302839792
 21
355.92552382492357
  0
LINE
  8
_2-7_ビス
  6
CONTINUOUS
 62
    7
 10
1073.8216302839792
 20
355.92552382492357
 11
1073.8672914584276
 21
356.00442366438949
  0
LINE
  8
_2-7_ビス
  6
CONTINUOUS
 62
    7
 10
1073.8672914584276
 20
356.00442366438949
 11
1073.8997970270209
 21
356.0908420788777
  0
LINE
  8
_2-7_ビス
  6
CONTINUOUS
 62
    7
 10
1073.8997970270209
 20
356.0908420788777
 11
1073.918159324506
 21
356.18215328859378
  0
LINE
  8
_2-7_ビス
  6
CONTINUOUS
 62
    7
 10
1073.918159324506
 20
356.18215328859378
 11
1073.9218204217655
 21
356.2755828486363
  0
LINE
  8
_2-7_ビス
  6
CONTINUOUS
 62
    7
 10
1073.9218204217655
 20
356.2755828486363
 11
1073.9106690782121
 21
356.36829194910086
  0
LINE
  8
_2-7_ビス
  6
CONTINUOUS
 62
    7
 10
1073.9106690782121
 20
356.36829194910086
 11
1073.8850441217764
 21
356.45746367088304
  0
LINE
  8
_2-7_ビス
  6
CONTINUOUS
 62
    7
 10
1073.8850441217764
 20
356.45746367088304
 11
1073.8457241537933
 21
356.54038857633947
  0
LINE
  8
_2-7_ビス
  6
CONTINUOUS
 62
    7
 10
1073.8457241537933
 20
356.54038857633947
 11
1073.7939038915927
 21
356.61454703417996
  0
LINE
  8
_2-7_ビス
  6
CONTINUOUS
 62
    7
 10
1073.7939038915927
 20
356.61454703417996
 11
1073.7311578676195
 21
356.67768577718897
  0
LINE
  8
_2-7_ビス
  6
CONTINUOUS
 62
    7
 10
1073.7311578676195
 20
356.67768577718897
 11
1073.6593925880611
 21
356.72788636660994
  0
LINE
  8
_2-7_ビス
  6
CONTINUOUS
 62
    7
 10
1073.6593925880611
 20
356.72788636660994
 11
1073.5807886046216
 21
356.763623482936
  0
LINE
  8
_2-7_ビス
  6
CONTINUOUS
 62
    7
 10
1073.5807886046216
 20
356.763623482936
 11
1073.4977342595628
 21
356.7838112719715
  0
LINE
  8
_2-7_ビス
  6
CONTINUOUS
 62
    7
 10
1073.4977342595628
 20
356.7838112719715
 11
1073.4558877263999
 21
356.78783633796201
  0
LINE
  8
_2-7_ビス
  6
CONTINUOUS
 62
    7
 10
1073.8313798702882
 20
337.32818722716149
 11
1073.8313798702882
 21
337.32818722716149
  0
LINE
  8
_2-7_ビス
  6
CONTINUOUS
 62
    7
 10
1073.8313798702882
 20
337.32818722716149
 11
1073.825975945862
 21
337.46744284907675
  0
LINE
  8
_2-7_ビス
  6
CONTINUOUS
 62
    7
 10
1073.825975945862
 20
337.46744284907675
 11
1073.7986592578425
 21
337.60355119415954
  0
LINE
  8
_2-7_ビス
  6
CONTINUOUS
 62
    7
 10
1073.7986592578425
 20
337.60355119415954
 11
1073.7811045372
 21
337.65801178836148
  0
LINE
  8
_2-7_ビス
  6
CONTINUOUS
 62
    7
 10
1074.9222854763977
 20
335.32885976960915
 11
1074.9222854763977
 21
335.32885976960915
  0
LINE
  8
_2-7_ビス
  6
CONTINUOUS
 62
    7
 10
1074.9222854763977
 20
335.32885976960915
 11
1074.9194636515649
 21
335.38469996415313
  0
LINE
  8
_2-7_ビス
  6
CONTINUOUS
 62
    7
 10
1074.9194636515649
 20
335.38469996415313
 11
1074.9078649640762
 21
335.43915310200873
  0
LINE
  8
_2-7_ビス
  6
CONTINUOUS
 62
    7
 10
1074.9078649640762
 20
335.43915310200873
 11
1074.8878418341815
 21
335.4905646521367
  0
LINE
  8
_2-7_ビス
  6
CONTINUOUS
 62
    7
 10
1074.8878418341815
 20
335.4905646521367
 11
1074.8600026545505
 21
335.53737250060203
  0
LINE
  8
_2-7_ビス
  6
CONTINUOUS
 62
    7
 10
1074.8600026545505
 20
335.53737250060203
 11
1074.8251933045692
 21
335.57815441461491
  0
LINE
  8
_2-7_ビス
  6
CONTINUOUS
 62
    7
 10
1074.8251933045692
 20
335.57815441461491
 11
1074.7844714487221
 21
335.61167125635473
  0
LINE
  8
_2-7_ビス
  6
CONTINUOUS
 62
    7
 10
1074.7844714487221
 20
335.61167125635473
 11
1074.7390743999929
 21
335.63690463354561
  0
LINE
  8
_2-7_ビス
  6
CONTINUOUS
 62
    7
 10
1074.7390743999929
 20
335.63690463354561
 11
1074.6903815247356
 21
335.65308784279023
  0
LINE
  8
_2-7_ビス
  6
CONTINUOUS
 62
    7
 10
1074.6903815247356
 20
335.65308784279023
 11
1074.6398723313246
 21
335.65972916546485
  0
LINE
  8
_2-7_ビス
  6
CONTINUOUS
 62
    7
 10
1074.6398723313246
 20
335.65972916546485
 11
1074.5890815160431
 21
335.65662680834066
  0
LINE
  8
_2-7_ビス
  6
CONTINUOUS
 62
    7
 10
1074.5890815160431
 20
335.65662680834066
 11
1074.539552332112
 21
335.64387503496903
  0
LINE
  8
_2-7_ビス
  6
CONTINUOUS
 62
    7
 10
1074.539552332112
 20
335.64387503496903
 11
1074.4927896987222
 21
335.62186130153111
  0
LINE
  8
_2-7_ビス
  6
CONTINUOUS
 62
    7
 10
1074.4927896987222
 20
335.62186130153111
 11
1074.4502144748258
 21
335.59125448417797
  0
LINE
  8
_2-7_ビス
  6
CONTINUOUS
 62
    7
 10
1074.4502144748258
 20
335.59125448417797
 11
1074.4131202870572
 21
335.55298455556704
  0
LINE
  8
_2-7_ビス
  6
CONTINUOUS
 62
    7
 10
1074.4131202870572
 20
335.55298455556704
 11
1074.3826342235409
 21
335.5082143281137
  0
LINE
  8
_2-7_ビス
  6
CONTINUOUS
 62
    7
 10
1074.3826342235409
 20
335.5082143281137
 11
1074.3596825878903
 21
335.45830412252423
  0
LINE
  8
_2-7_ビス
  6
CONTINUOUS
 62
    7
 10
1074.3596825878903
 20
335.45830412252423
 11
1074.3449627539408
 21
335.40477043513971
  0
LINE
  8
_2-7_ビス
  6
CONTINUOUS
 62
    7
 10
1074.3449627539408
 20
335.40477043513971
 11
1074.3389219763978
 21
335.34923985996193
  0
LINE
  8
_2-7_ビス
  6
CONTINUOUS
 62
    7
 10
1074.3389219763978
 20
335.34923985996193
 11
1074.3389219763978
 21
335.34923985996187
  0
LINE
  8
_2-3_
  6
CONTINUOUS
 62
    3
 10
996.82463772639926
 20
576.09682710992286
 11
996.82463772639926
 21
436.6123977293621
  0
ARC
  8
_2-3_
  6
CONTINUOUS
 62
    3
 10
995.82463772640017
 20
576.09682710992286
 40
1
 50
0
 51
90
  0
LINE
  8
_2-1_
  6
CONTINUOUS
 62
    4
 10
1040.6246377264004
 20
426.41239772936228
 11
1020.6246377264004
 21
426.41239772936228
  0
LINE
  8
_2-1_
  6
CONTINUOUS
 62
    4
 10
1037.7962106016546
 20
428.41239772936274
 11
1020.6246377264004
 21
428.41239772936274
  0
ARC
  8
_2-3_
  6
CONTINUOUS
 62
    3
 10
1085.6246377264004
 20
420.56174334635966
 40
3.0000000000000004
 50
70.42687416958988
 51
179.99999999999994
  0
ARC
  8
_2-3_
  6
CONTINUOUS
 62
    3
 10
1067.6246377263985
 20
425.41239772936319
 40
3.0000000000000004
 50
0
 51
90
  0
ARC
  8
_2-3_
  6
CONTINUOUS
 62
    3
 10
1071.6246377263994
 20
419.41239772936183
 40
3.0000000000000004
 50
180
 51
270
  0
ARC
  8
_2-3_
  6
CONTINUOUS
 62
    3
 10
1081.6246377263994
 20
419.41239772936183
 40
3.0000000000000004
 50
270
 51
0
  0
LINE
  8
_2-3_
  6
CONTINUOUS
 62
    3
 10
1084.6246377264013
 20
420.56174334635966
 11
1084.6246377264013
 21
419.41239772936183
  0
ARC
  8
_2-3_
  6
CONTINUOUS
 62
    3
 10
1085.6246377264004
 20
420.56174334635966
 40
1
 50
70.42687416959059
 51
180
  0
LINE
  8
_2-3_
  6
CONTINUOUS
 62
    3
 10
1082.6246377263985
 20
419.41239772936183
 11
1082.6246377263985
 21
420.56174334635966
  0
ARC
  8
_2-3_
  6
CONTINUOUS
 62
    3
 10
1081.6246377263994
 20
419.41239772936183
 40
1
 50
270
 51
0
  0
LINE
  8
_2-3_
  6
CONTINUOUS
 62
    3
 10
1071.6246377263994
 20
418.41239772936274
 11
1081.6246377263994
 21
418.41239772936274
  0
LINE
  8
_2-3_
  6
CONTINUOUS
 62
    3
 10
1070.6246377264004
 20
419.41239772936183
 11
1070.6246377264004
 21
425.41239772936319
  0
ARC
  8
_2-3_
  6
CONTINUOUS
 62
    3
 10
1071.6246377263994
 20
419.41239772936183
 40
1
 50
180
 51
270
  0
LINE
  8
_2-3_
  6
CONTINUOUS
 62
    3
 10
1068.6246377263999
 20
425.41239772936319
 11
1068.6246377263999
 21
419.41239772936183
  0
ARC
  8
_2-3_
  6
CONTINUOUS
 62
    3
 10
1067.6246377263985
 20
425.41239772936319
 40
1
 50
0
 51
90
  0
LINE
  8
_2-3_
  6
CONTINUOUS
 62
    3
 10
1040.6246377264004
 20
426.41239772936228
 11
1067.6246377263985
 21
426.41239772936228
  0
ARC
  8
_2-3_
  6
CONTINUOUS
 62
    3
 10
1040.6246377264004
 20
429.41239772936183
 40
3.0000000000000004
 50
180
 51
270
  0
ARC
  8
_2-3_
  6
CONTINUOUS
 62
    3
 10
1040.6246377264004
 20
429.41239772936183
 40
1
 50
180
 51
270
  0
LINE
  8
_2-3_
  6
CONTINUOUS
 62
    3
 10
1039.6246377264013
 20
429.41239772936183
 11
1039.6246377264013
 21
528.41239772936274
  0
LINE
  8
_2-3_
  6
CONTINUOUS
 62
    3
 10
1037.6246377263985
 20
429.41239772936183
 11
1037.6246377263985
 21
528.41239772936274
  0
LINE
  8
_2-3_
  6
CONTINUOUS
 62
    3
 10
1094.6546607582693
 20
418.41239772936274
 11
1095.324680093581
 21
420.29682710992188
  0
LINE
  8
_2-3_
  6
CONTINUOUS
 62
    3
 10
1085.9596473940539
 20
421.50395803664037
 11
1094.6546607582693
 21
418.41239772936274
  0
LINE
  8
_2-3_
  6
CONTINUOUS
 62
    3
 10
1040.6246377264004
 20
428.41239772936274
 11
1067.6246377263985
 21
428.41239772936274
  0
LINE
  8
_2-3_
  6
CONTINUOUS
 62
    3
 10
1086.6296667293634
 20
423.38838741719724
 11
1095.324680093581
 21
420.29682710992188
  0
LINE
  8
_2-3_
  6
CONTINUOUS
 62
    3
 10
1047.6246377263985
 20
434.66239772936274
 11
1072.6246377263985
 21
434.66239772936274
  0
ARC
  8
_2-3_
  6
CONTINUOUS
 62
    3
 10
1047.6246377263985
 20
436.66239772936092
 40
2
 50
180
 51
270
  0
LINE
  8
_2-3_
  6
CONTINUOUS
 62
    3
 10
1047.6246377263985
 20
433.41239772936274
 11
1072.5582765455213
 21
433.41239772936274
  0
ARC
  8
_2-3_
  6
CONTINUOUS
 62
    3
 10
1047.6246377263985
 20
436.6123977293621
 40
3.2000000000000006
 50
180
 51
270
  0
LINE
  8
_2-3_
  6
CONTINUOUS
 62
    3
 10
1118.6246377263999
 20
421.41239772936228
 11
1118.6246377263999
 21
422.61239772936119
  0
LINE
  8
_2-3_
  6
CONTINUOUS
 62
    3
 10
1106.5152627263976
 20
422.61239772936119
 11
1118.6246377263999
 21
422.61239772936119
  0
LINE
  8
_2-3_
  6
CONTINUOUS
 62
    3
 10
1072.6246377263985
 20
434.66239772936274
 11
1106.5152627263976
 21
422.61239772936119
  0
LINE
  8
_2-3_
  6
CONTINUOUS
 62
    3
 10
1106.308276545519
 20
421.41239772936228
 11
1118.6246377263999
 21
421.41239772936228
  0
LINE
  8
_2-3_
  6
CONTINUOUS
 62
    3
 10
1072.5582765455213
 20
433.41239772936274
 11
1106.308276545519
 21
421.41239772936228
  0
LINE
  8
_2-1_
  6
CONTINUOUS
 62
    4
 10
1024.6246377264013
 20
433.41239772936274
 11
1024.6246377264013
 21
574.46239772936065
  0
LINE
  8
_2-1_
  6
CONTINUOUS
 62
    4
 10
1000.6246377264004
 20
426.41239772936228
 11
1020.6246377264004
 21
426.41239772936228
  0
LINE
  8
_2-1_
  6
CONTINUOUS
 62
    4
 10
1003.4530648511461
 20
428.41239772936274
 11
1020.6246377264004
 21
428.41239772936274
  0
ARC
  8
_2-3_
  6
CONTINUOUS
 62
    3
 10
1000.6246377264004
 20
429.41239772936183
 40
3.0000000000000004
 50
270
 51
0
  0
ARC
  8
_2-3_
  6
CONTINUOUS
 62
    3
 10
1000.6246377264004
 20
429.41239772936183
 40
1
 50
270
 51
0
  0
LINE
  8
_2-3_
  6
CONTINUOUS
 62
    3
 10
1001.6246377263994
 20
429.41239772936183
 11
1001.6246377263994
 21
528.41239772936274
  0
LINE
  8
_2-3_
  6
CONTINUOUS
 62
    3
 10
1003.6246377264022
 20
429.41239772936183
 11
1003.6246377264022
 21
528.41239772936274
  0
LINE
  8
_2-3_
  6
CONTINUOUS
 62
    3
 10
993.62463772640217
 20
434.66239772936274
 11
968.62463772640217
 21
434.66239772936274
  0
ARC
  8
_2-3_
  6
CONTINUOUS
 62
    3
 10
993.62463772640217
 20
436.66239772936092
 40
2
 50
270
 51
0
  0
LINE
  8
_2-3_
  6
CONTINUOUS
 62
    3
 10
993.62463772640217
 20
433.41239772936274
 11
968.69099890727944
 21
433.41239772936274
  0
ARC
  8
_2-3_
  6
CONTINUOUS
 62
    3
 10
993.62463772640217
 20
436.6123977293621
 40
3.2000000000000006
 50
270
 51
0
  0
LINE
  8
_2-3_
  6
CONTINUOUS
 62
    3
 10
922.62463772640081
 20
421.41239772936228
 11
922.62463772640081
 21
422.61239772936119
  0
LINE
  8
_2-3_
  6
CONTINUOUS
 62
    3
 10
934.73401272640308
 20
422.61239772936119
 11
922.62463772640081
 21
422.61239772936119
  0
LINE
  8
_2-3_
  6
CONTINUOUS
 62
    3
 10
968.62463772640217
 20
434.66239772936274
 11
934.73401272640308
 21
422.61239772936119
  0
LINE
  8
_2-3_
  6
CONTINUOUS
 62
    3
 10
934.94099890728171
 20
421.41239772936228
 11
922.62463772640081
 21
421.41239772936228
  0
LINE
  8
_2-3_
  6
CONTINUOUS
 62
    3
 10
968.69099890727944
 20
433.41239772936274
 11
934.94099890728171
 21
421.41239772936228
  0
LINE
  8
_2-1_
  6
CONTINUOUS
 62
    4
 10
1016.6246377263994
 20
433.41239772936274
 11
1016.6246377263994
 21
574.46239772936065
  0
LINE
  8
_2-3_
  6
CONTINUOUS
 62
    3
 10
1000.6246377264004
 20
426.41239772936228
 11
969.09461469452458
 21
426.41239772936228
  0
LINE
  8
_2-3_
  6
CONTINUOUS
 62
    3
 10
1000.6246377264004
 20
428.41239772936274
 11
968.74963772640717
 21
428.41239772936274
  0
LINE
  8
_2-3_
  6
CONTINUOUS
 62
    3
 10
969.09461469452458
 20
426.41239772936228
 11
940.9696146945314
 21
416.41239772936228
  0
LINE
  8
_2-3_
  6
CONTINUOUS
 62
    3
 10
1081.6246377263994
 20
416.41239772936228
 11
1078.6246377263976
 21
416.41239772936228
  0
LINE
  8
_2-3_
  6
CONTINUOUS
 62
    3
 10
1074.6246377263967
 20
416.41239772936228
 11
1071.6246377263994
 21
416.41239772936228
  0
LINE
  8
_2-3_
  6
CONTINUOUS
 62
    3
 10
940.9696146945314
 20
416.41239772936228
 11
940.29959535921967
 21
418.29682710992142
  0
LINE
  8
_2-3_
  6
CONTINUOUS
 62
    3
 10
968.74963772640717
 20
428.41239772936274
 11
940.29959535921967
 21
418.29682710992142
  0
LINE
  8
_2-3_
  6
CONTINUOUS
 62
    3
 10
1049.7058298269301
 20
577.29682710992176
 11
1049.7058298269301
 21
575.29682710992131
  0
LINE
  8
_2-3_
  6
CONTINUOUS
 62
    3
 10
1043.2246377264003
 20
559.49682710992204
 11
1044.4246377264014
 21
559.49682710992204
  0
LINE
  8
_2-3_
  6
CONTINUOUS
 62
    3
 10
1043.2246377264003
 20
577.29682710992176
 11
1043.2246377264003
 21
559.49682710992204
  0
ARC
  8
_2-3_
  6
CONTINUOUS
 62
    3
 10
1044.2246377263994
 20
577.29682710992176
 40
1
 50
90
 51
180
  0
ARC
  8
_2-3_
  6
CONTINUOUS
 62
    3
 10
1045.4246377264005
 20
576.09682710992286
 40
1
 50
90
 51
180
  0
LINE
  8
_2-3_
  6
CONTINUOUS
 62
    3
 10
1049.7058298269301
 20
575.29682710992131
 11
1048.5058298269312
 21
575.29682710992131
  0
ARC
  8
_2-3_
  6
CONTINUOUS
 62
    3
 10
1048.705829826931
 20
577.29682710992176
 40
1
 50
0
 51
90.000000000000014
  0
LINE
  8
_2-3_
  6
CONTINUOUS
 62
    3
 10
1048.5058298269312
 20
576.09682710992286
 11
1048.5058298269312
 21
575.29682710992131
  0
ARC
  8
_2-3_
  6
CONTINUOUS
 62
    3
 10
1047.5058298269321
 20
576.09682710992286
 40
1
 50
0
 51
90
  0
LINE
  8
_2-3_
  6
CONTINUOUS
 62
    3
 10
1045.4246377264005
 20
577.09682710992195
 11
1047.5058298269321
 21
577.09682710992195
  0
LINE
  8
_2-3_
  6
CONTINUOUS
 62
    3
 10
1056.6246377263994
 20
579.49682710992204
 11
1020.6246377264004
 21
579.49682710992204
  0
LINE
  8
_2-3_
  6
CONTINUOUS
 62
    3
 10
1056.6246377263994
 20
578.29682710992086
 11
1020.6246377264004
 21
578.29682710992086
  0
LINE
  8
_2-3_
  6
CONTINUOUS
 62
    3
 10
1056.6246377263994
 20
499.49682710992204
 11
1055.4246377264005
 21
499.49682710992204
  0
LINE
  8
_2-3_
  6
CONTINUOUS
 62
    3
 10
1055.4246377264005
 20
578.29682710992086
 11
1055.4246377264005
 21
499.49682710992204
  0
LINE
  8
_2-3_
  6
CONTINUOUS
 62
    3
 10
1056.6246377263994
 20
579.49682710992204
 11
1056.6246377263994
 21
499.49682710992204
  0
LINE
  8
_2-3_
  6
CONTINUOUS
 62
    3
 10
1044.4246377264014
 20
568.29682710992086
 11
1045.6246377264004
 21
568.29682710992086
  0
ARC
  8
_2-1_
  6
CONTINUOUS
 62
    4
 10
1026.6246377263994
 20
575.79682710992142
 40
2.4999999999997784
 50
36.869897645841725
 51
143.13010235415825
  0
ARC
  8
_2-1_
  6
CONTINUOUS
 62
    4
 10
1026.6246377263994
 20
560.79682710992086
 40
2.4999999999997784
 50
216.86989764584175
 51
323.13010235415828
  0
LINE
  8
_2-1_
  6
CONTINUOUS
 62
    4
 10
1026.6246377263994
 20
558.29682710992086
 11
1020.6246377264004
 21
558.29682710992086
  0
LINE
  8
_2-1_
  6
CONTINUOUS
 62
    4
 10
1028.6246377263999
 20
559.29682710992108
 11
1028.6246377263999
 21
577.2968271099212
  0
LINE
  8
_2-1_
  6
CONTINUOUS
 62
    4
 10
1024.6246377264013
 20
559.29682710992108
 11
1024.6246377264013
 21
577.2968271099212
  0
ARC
  8
_2-1_
  6
CONTINUOUS
 62
    4
 10
1020.6246377264004
 20
569.79682710992176
 40
8.4999999999991189
 50
61.927513064145636
 51
90
  0
ARC
  8
_2-1_
  6
CONTINUOUS
 62
    4
 10
1020.6246377264004
 20
566.79682710991995
 40
8.4999999999991189
 50
270
 51
298.07248693585439
  0
LINE
  8
_2-1_
  6
CONTINUOUS
 62
    4
 10
1025.6246377264004
 20
428.41239772936217
 11
1025.6246377264004
 21
433.41239772936217
  0
LINE
  8
_2-1_
  6
CONTINUOUS
 62
    4
 10
1028.6246377263999
 20
428.41239772936217
 11
1028.6246377263999
 21
433.41239772936217
  0
LINE
  8
_2-1_
  6
CONTINUOUS
 62
    4
 10
1028.6246377263999
 20
433.41239772936217
 11
1020.6246377264004
 21
433.41239772936217
  0
LINE
  8
_2-1_
  6
CONTINUOUS
 62
    4
 10
1023.6246377263999
 20
433.41239772936217
 11
1023.6246377263999
 21
438.41239772936217
  0
LINE
  8
_2-1_
  6
CONTINUOUS
 62
    4
 10
1023.6246377263999
 20
438.41239772936217
 11
1024.6246377264013
 21
438.98974799855193
  0
LINE
  8
_2-1_
  6
CONTINUOUS
 62
    4
 10
1023.6246377263999
 20
438.41239772936217
 11
1020.6246377264004
 21
438.41239772936217
  0
LINE
  8
_2-1_
  6
CONTINUOUS
 62
    4
 10
1037.6246377263985
 20
528.41239772936217
 11
1024.6246377264013
 21
528.41239772936217
  0
LINE
  8
_2-3_
  6
CONTINUOUS
 62
    3
 10
1039.6246377264013
 20
528.41239772936217
 11
1037.6246377263985
 21
528.41239772936217
  0
LINE
  8
_2-3_
  6
CONTINUOUS
 62
    3
 10
991.54344562587062
 20
577.29682710992176
 11
991.54344562587062
 21
575.29682710992131
  0
LINE
  8
_2-3_
  6
CONTINUOUS
 62
    3
 10
998.02463772640044
 20
559.49682710992204
 11
996.82463772639926
 21
559.49682710992204
  0
LINE
  8
_2-3_
  6
CONTINUOUS
 62
    3
 10
998.02463772640044
 20
577.29682710992176
 11
998.02463772640044
 21
559.49682710992204
  0
ARC
  8
_2-3_
  6
CONTINUOUS
 62
    3
 10
997.02463772640135
 20
577.29682710992176
 40
1
 50
0
 51
90
  0
LINE
  8
_2-3_
  6
CONTINUOUS
 62
    3
 10
991.54344562587062
 20
575.29682710992131
 11
992.74344562586953
 21
575.29682710992131
  0
ARC
  8
_2-3_
  6
CONTINUOUS
 62
    3
 10
992.54344562586971
 20
577.29682710992176
 40
1
 50
89.999999999999986
 51
180
  0
LINE
  8
_2-3_
  6
CONTINUOUS
 62
    3
 10
992.74344562586953
 20
576.09682710992286
 11
992.74344562586953
 21
575.29682710992131
  0
ARC
  8
_2-3_
  6
CONTINUOUS
 62
    3
 10
993.74344562586862
 20
576.09682710992286
 40
1
 50
90
 51
180
  0
LINE
  8
_2-3_
  6
CONTINUOUS
 62
    3
 10
995.82463772640017
 20
577.09682710992195
 11
993.74344562586862
 21
577.09682710992195
  0
LINE
  8
_2-3_
  6
CONTINUOUS
 62
    3
 10
984.62463772640126
 20
579.49682710992204
 11
1020.6246377264004
 21
579.49682710992204
  0
LINE
  8
_2-3_
  6
CONTINUOUS
 62
    3
 10
984.62463772640126
 20
578.29682710992086
 11
1020.6246377264004
 21
578.29682710992086
  0
LINE
  8
_2-3_
  6
CONTINUOUS
 62
    3
 10
984.62463772640126
 20
499.49682710992204
 11
985.82463772640017
 21
499.49682710992204
  0
LINE
  8
_2-3_
  6
CONTINUOUS
 62
    3
 10
985.82463772640017
 20
578.29682710992086
 11
985.82463772640017
 21
499.49682710992204
  0
LINE
  8
_2-3_
  6
CONTINUOUS
 62
    3
 10
984.62463772640126
 20
579.49682710992204
 11
984.62463772640126
 21
499.49682710992204
  0
LINE
  8
_2-3_
  6
CONTINUOUS
 62
    3
 10
996.82463772639926
 20
568.29682710992086
 11
995.62463772640035
 21
568.29682710992086
  0
ARC
  8
_2-1_
  6
CONTINUOUS
 62
    4
 10
1014.6246377264013
 20
575.79682710992142
 40
2.4999999999997784
 50
36.869897645841753
 51
143.13010235415828
  0
ARC
  8
_2-1_
  6
CONTINUOUS
 62
    4
 10
1014.6246377264013
 20
560.79682710992086
 40
2.4999999999997784
 50
216.86989764584172
 51
323.13010235415823
  0
LINE
  8
_2-1_
  6
CONTINUOUS
 62
    4
 10
1014.6246377264013
 20
558.29682710992086
 11
1020.6246377264004
 21
558.29682710992086
  0
LINE
  8
_2-1_
  6
CONTINUOUS
 62
    4
 10
1012.6246377264008
 20
559.29682710992108
 11
1012.6246377264008
 21
577.2968271099212
  0
LINE
  8
_2-1_
  6
CONTINUOUS
 62
    4
 10
1016.6246377263994
 20
559.29682710992108
 11
1016.6246377263994
 21
577.2968271099212
  0
ARC
  8
_2-1_
  6
CONTINUOUS
 62
    4
 10
1020.6246377264004
 20
569.79682710992176
 40
8.4999999999991189
 50
90
 51
118.07248693585437
  0
ARC
  8
_2-1_
  6
CONTINUOUS
 62
    4
 10
1020.6246377264004
 20
566.79682710991995
 40
8.4999999999991189
 50
241.92751306414561
 51
270
  0
LINE
  8
_2-1_
  6
CONTINUOUS
 62
    4
 10
1015.6246377264004
 20
428.41239772936217
 11
1015.6246377264004
 21
433.41239772936217
  0
LINE
  8
_2-1_
  6
CONTINUOUS
 62
    4
 10
1012.6246377264008
 20
428.41239772936217
 11
1012.6246377264008
 21
433.41239772936217
  0
LINE
  8
_2-1_
  6
CONTINUOUS
 62
    4
 10
1012.6246377264008
 20
433.41239772936217
 11
1020.6246377264004
 21
433.41239772936217
  0
LINE
  8
_2-1_
  6
CONTINUOUS
 62
    4
 10
1017.6246377264008
 20
433.41239772936217
 11
1017.6246377264008
 21
438.41239772936217
  0
LINE
  8
_2-1_
  6
CONTINUOUS
 62
    4
 10
1017.6246377264008
 20
438.41239772936217
 11
1016.6246377263994
 21
438.98974799855193
  0
LINE
  8
_2-1_
  6
CONTINUOUS
 62
    4
 10
1017.6246377264008
 20
438.41239772936217
 11
1020.6246377264004
 21
438.41239772936217
  0
LINE
  8
_2-1_
  6
CONTINUOUS
 62
    4
 10
1003.6246377264022
 20
528.41239772936217
 11
1016.6246377263994
 21
528.41239772936217
  0
LINE
  8
_2-3_
  6
CONTINUOUS
 62
    3
 10
1001.6246377263994
 20
528.41239772936217
 11
1003.6246377264022
 21
528.41239772936217
  0
LINE
  8
_2-3_
  6
CONTINUOUS
 62
    3
 10
1044.4246377264014
 20
576.09682710992286
 11
1044.4246377264014
 21
436.6123977293621
  0
LINE
  8
_2-3_
  6
CONTINUOUS
 62
    3
 10
1045.6246377264004
 20
436.66239772936092
 11
1045.6246377264004
 21
568.29682710992086
  0
LINE
  8
_2-3_
  6
CONTINUOUS
 62
    3
 10
995.62463772640035
 20
436.66239772936092
 11
995.62463772640035
 21
568.29682710992086
  0
LINE
  8
ADD_LINE
  6
DOT
 62
  136
 10
1079.1624609291191
 20
816.41239772936228
 11
1079.1624609291191
 21
776.41239772936228
  0
LINE
  8
ADD_LINE
  6
DOT
 62
  136
 10
719.16246092911911
 20
816.41239772936228
 11
719.16246092911911
 21
776.41239772936228
  0
TEXT
  8
_f-a_
 62
    7
 10
934.16246092911911
 20
786.41239772936228
 40
17.5
 41
1
 50
0
  1
下地：ＲＣ
  0
LINE
  8
_f-5_
  6
CONTINUOUS
 62
    6
 10
916.66246092911911
 20
816.41239772936228
 11
916.66246092911911
 21
776.41239772936228
  0
LINE
  8
_f-5_
  6
CONTINUOUS
 62
    6
 10
919.16246092911911
 20
816.41239772936228
 11
919.16246092911911
 21
776.41239772936228
  0
LINE
  8
ADD_LINE
  6
DOT
 62
  136
 10
934.16246092911911
 20
816.41239772936228
 11
934.16246092911911
 21
776.41239772936228
  0
TEXT
  8
_f-a_
 62
    7
 10
719.16246092911911
 20
786.41239772936228
 40
20
 41
1
 50
0
  1
２２５・２２７仕様
  0
LINE
  8
_f-2_
  6
CONTINUOUS
 62
    7
 10
1064.1624609291191
 20
816.41239772936228
 11
1064.1624609291191
 21
776.41239772936228
  0
LINE
  8
ADD_LINE
  6
DOT
 62
  136
 10
719.16246092911911
 20
176.41239772936231
 11
719.16246092911911
 21
136.41239772936231
  0
TEXT
  8
_f-a_
 62
    7
 10
934.16246092911911
 20
146.41239772936231
 40
17.5
 41
1
 50
0
  1
下地：ＲＣ
  0
LINE
  8
_f-5_
  6
CONTINUOUS
 62
    6
 10
916.66246092911911
 20
176.41239772936231
 11
916.66246092911911
 21
136.41239772936231
  0
LINE
  8
_f-5_
  6
CONTINUOUS
 62
    6
 10
919.16246092911911
 20
176.41239772936231
 11
919.16246092911911
 21
136.41239772936231
  0
LINE
  8
ADD_LINE
  6
DOT
 62
  136
 10
934.16246092911911
 20
176.41239772936231
 11
934.16246092911911
 21
136.41239772936231
  0
TEXT
  8
_f-a_
 62
    7
 10
719.16246092911911
 20
146.41239772936231
 40
20
 41
1
 50
0
  1
２２５・２２７仕様
  0
TEXT
  8
_2-a_moji
 62
    7
 10
1293.9323011845861
 20
496.64076159552747
 40
15
 41
1
 50
0
  1
(２２５仕様の場合使用)
  0
TEXT
  8
_2-a_moji
 62
    7
 10
1263.6238367738586
 20
1111.6407615955275
 40
15
 41
1
 50
0
  1
(２２５仕様の場合使用)
  0
ENDSEC
  0
EOF
