  0
SECTION
  2
HEADER
  9
$ACADVER
  1
AC1009
  9
$INSBASE
 10
0
 20
0
 30
0
  9
$EXTMIN
 10
0
 20
0
  9
$EXTMAX
 10
2100
 20
1485
  9
$LIMMIN
 10
0
 20
0
  9
$LIMMAX
 10
2100
 20
1485
  9
$LTSCALE
 40
5
  0
ENDSEC
  0
SECTION
  2
TABLES
  0
TABLE
  2
LTYPE
 70
     9
  0
LTYPE
  2
CONTINUOUS
 70
    64
  3
実線
 72
    65
 73
     0
 40
0.0
  0
LTYPE
  2
DASHED1
 70
    64
  3
--  --  --  --  --  --  --  --  
 72
    65
 73
     2
 40
2.5
 49
1.25
 49
-1.25
  0
LTYPE
  2
DASHED2
 70
    64
  3
----    ----    ----    ----    
 72
    65
 73
     2
 40
5.0
 49
2.5
 49
-2.5
  0
LTYPE
  2
DASHED3
 70
    64
  3
------  ------  ------  ------  
 72
    65
 73
     2
 40
5.0
 49
3.75
 49
-1.25
  0
LTYPE
  2
CENTER1
 70
    64
  3
----- - ----- - ----- - ----- - 
 72
    65
 73
     4
 40
10.0
 49
6.25
 49
-1.25
 49
1.25
 49
-1.25
  0
LTYPE
  2
CENTER2
 70
    64
  3
----------  --  ----------  --  
 72
    65
 73
     4
 40
20.0
 49
12.5
 49
-2.5
 49
2.5
 49
-2.5
  0
LTYPE
  2
PHANTOM1
 70
    64
  3
--- - - --- - - --- - - --- - - 
 72
    65
 73
     6
 40
10.0
 49
3.25
 49
-1.25
 49
1.25
 49
-1.25
 49
1.25
 49
-1.25
  0
LTYPE
  2
PHANTOM2
 70
    64
  3
--------  -  -  --------  -  -  
 72
    65
 73
     6
 40
20.0
 49
10.0
 49
-2.5
 49
1.25
 49
-2.5
 49
1.25
 49
-2.5
  0
LTYPE
  2
DOT
 70
    64
  3
-   -   -   -   -   -   -   -   
 72
    65
 73
     2
 40
2.5
 49
0.625
 49
-1.875
  0
LTYPE
  2
DUMMY
 70
    64
  3
ダミー
 72
    65
 73
     0
 40
0.0
  0
LTYPE
  2
RAND1
 70
    64
  3
ランダム線1
 72
    65
 73
     4
 40
10.0
 49
1.0
 49
-2.0
 49
3.0
 49
-4.0
  0
LTYPE
  2
RAND2
 70
    64
  3
ランダム線2
 72
    65
 73
     4
 40
14.0
 49
2.0
 49
-3.0
 49
4.0
 49
-5.0
  0
LTYPE
  2
RAND3
 70
    64
  3
ランダム線3
 72
    65
 73
     4
 40
18.0
 49
3.0
 49
-4.0
 49
5.0
 49
-6.0
  0
LTYPE
  2
RAND4
 70
    64
  3
ランダム線4
 72
    65
 73
     4
 40
22.0
 49
4.0
 49
-5.0
 49
6.0
 49
-7.0
  0
LTYPE
  2
RAND5
 70
    64
  3
ランダム線5
 72
    65
 73
     4
 40
26.0
 49
5.0
 49
-6.0
 49
7.0
 49
-8.0
  0
LTYPE
  2
LONG1
 70
    64
  3
----------  --  ----------  --  
 72
    65
 73
     4
 40
40.0
 49
32.5
 49
-2.5
 49
2.5
 49
-2.5
  0
LTYPE
  2
LONG2
 70
    64
  3
--------  -  -  --------  -  -  
 72
    65
 73
     6
 40
40.0
 49
30.0
 49
-2.5
 49
1.25
 49
-2.5
 49
1.25
 49
-2.5
  0
LTYPE
  2
LONG3
 70
    64
  3
+++++++++++++++..+++++++++++++++
 72
    65
 73
     2
 40
40.0
 49
37.5
 49
-2.5
  0
LTYPE
  2
LONG4
 70
    64
  3
+++++++++++++++..+++++++++++++++
 72
    65
 73
     2
 40
80.0
 49
75.0
 49
-5.0
  0
LTYPE
  2
LONG5
 70
    64
  3
----------  --  ----------  --  
 72
    65
 73
     4
 40
60.0
 49
37.5
 49
-7.5
 49
7.5
 49
-7.5
  0
LTYPE
  2
dashed
 70
   64
  3
-------   -------------   ------
 72
   65
 73
    2
 40
7.5
 49
6
 49
-1.5
  0
LTYPE
  2
dashed_spaced
 70
   64
  3
----        --------        ----
 72
   65
 73
    2
 40
12
 49
6
 49
-6
  0
LTYPE
  2
long_dashed_dotted
 70
   64
  3
------------- --- --------------
 72
   65
 73
    4
 40
15.25
 49
12
 49
-1.5
 49
0.25
 49
-1.5
  0
LTYPE
  2
long_dashed_double-dotted
 70
   64
  3
----------- --- --- ------------
 72
   65
 73
    6
 40
17
 49
12
 49
-1.5
 49
0.25
 49
-1.5
 49
0.25
 49
-1.5
  0
LTYPE
  2
long_dashed_triplicate-dotted
 70
   64
  3
--------- --- --- --- ----------
 72
   65
 73
    8
 40
18.75
 49
12
 49
-1.5
 49
0.25
 49
-1.5
 49
0.25
 49
-1.5
 49
0.25
 49
-1.5
  0
LTYPE
  2
dotted
 70
   64
  3
   -       -       -       -    
 72
   65
 73
    2
 40
1.75
 49
0.25
 49
-1.5
  0
LTYPE
  2
chain
 70
   64
  3
-------------- -- --------------
 72
   65
 73
    4
 40
18.5
 49
12
 49
-1.5
 49
3.5
 49
-1.5
  0
LTYPE
  2
chain_double_dash
 70
   64
  3
------------ -- -- -------------
 72
   65
 73
    6
 40
23.5
 49
12
 49
-1.5
 49
3.5
 49
-1.5
 49
3.5
 49
-1.5
  0
LTYPE
  2
dashed_dotted
 70
   64
  3
-----------     -     ----------
 72
   65
 73
    4
 40
9.25
 49
6
 49
-1.5
 49
0.25
 49
-1.5
  0
LTYPE
  2
double-dashed_dotted
 70
   64
  3
------   -----------   -   -----
 72
   65
 73
    6
 40
16.75
 49
6
 49
-1.5
 49
6
 49
-1.5
 49
0.25
 49
-1.5
  0
LTYPE
  2
dashed_double-dotted
 70
   64
  3
---------    -    -    ---------
 72
   65
 73
    6
 40
11
 49
6
 49
-1.5
 49
0.25
 49
-1.5
 49
0.25
 49
-1.5
  0
LTYPE
  2
double-dashed_double-dotted
 70
   64
  3
-----   ---------   -   -   ----
 72
   65
 73
    8
 40
18.5
 49
6
 49
-1.5
 49
6
 49
-1.5
 49
0.25
 49
-1.5
 49
0.25
 49
-1.5
  0
LTYPE
  2
dashed_triplicate-dotted
 70
   64
  3
-------    -    -    -    ------
 72
   65
 73
    8
 40
12.75
 49
6
 49
-1.5
 49
0.25
 49
-1.5
 49
0.25
 49
-1.5
 49
0.25
 49
-1.5
  0
LTYPE
  2
double-dashed_triplicate-dotted
 70
   64
  3
-----  ---------  -  -  -  -----
 72
   65
 73
   10
 40
20.25
 49
6
 49
-1.5
 49
6
 49
-1.5
 49
0.25
 49
-1.5
 49
0.25
 49
-1.5
 49
0.25
 49
-1.5
  0
LTYPE
  2
undefined
 70
   64
  3
--------------------------------
 72
   65
 73
    0
 40
0
  0
ENDTAB
  0
TABLE
  2
STYLE
  5
3
100
AcDbSymbolTable
 70
     1
  0
STYLE
  5
10
100
AcDbSymbolTableRecord
100
AcDbTextStyleTableRecord
  2
STANDARD
 70
     0
 40
0.0
 41
1.0
 50
0.0
 71
     0
 42
0.2
  3
txt
  4
bigfont.shx
  0
STYLE
  5
26
100
AcDbSymbolTableRecord
100
AcDbTextStyleTableRecord
  2
TATEGAKI
 70
    68
 40
0.0
 41
1.0
 50
0.0
 71
     0
 42
1.0
  3
txt
  4
bigfont.shx
  0
ENDTAB
  0
TABLE
  2
LAYER
 70
   14
  0
LAYER
  2
_0-1_線色１__水色__
 70
   64
 62
    7
  6
CONTINUOUS
  0
LAYER
  2
_0-2_線色２__白__
 70
   64
 62
    7
  6
CONTINUOUS
  0
LAYER
  2
_0-3_線色３__緑__
 70
   64
 62
    7
  6
CONTINUOUS
  0
LAYER
  2
_0-4_線色４__黄__
 70
   64
 62
    7
  6
CONTINUOUS
  0
LAYER
  2
_0-5_金属
 70
   64
 62
    7
  6
CONTINUOUS
  0
LAYER
  2
_0-6_鋼板__アングル
 70
   64
 62
    7
  6
CONTINUOUS
  0
LAYER
  2
_0-7_ビス
 70
   64
 62
    7
  6
CONTINUOUS
  0
LAYER
  2
_0-8_笠木他
 70
   64
 62
    7
  6
CONTINUOUS
  0
LAYER
  2
_0-9_他
 70
   64
 62
    7
  6
CONTINUOUS
  0
LAYER
  2
_0-a_文字
 70
   64
 62
    7
  6
CONTINUOUS
  0
LAYER
  2
_0-d_断熱__ハッチ
 70
   64
 62
    7
  6
CONTINUOUS
  0
LAYER
  2
_f-0_
 70
   64
 62
    7
  6
CONTINUOUS
  0
LAYER
  2
_f-f_
 70
   64
 62
    7
  6
CONTINUOUS
  0
LAYER
  2
ADD_LINE
 70
   64
 62
    7
  6
CONTINUOUS
  0
ENDTAB
  0
ENDSEC
  0
SECTION
  2
BLOCKS
  0
ENDSEC
  0
SECTION
  2
ENTITIES
  0
LINE
  8
_f-0_
  6
CONTINUOUS
 62
  136
 10
1714.9999999999989
 20
1192.5
 11
385
 21
1192.5
  0
LINE
  8
_f-0_
  6
CONTINUOUS
 62
  136
 10
385
 20
277.50000000000341
 11
1714.9999999999989
 21
277.50000000000341
  0
LINE
  8
_f-0_
  6
CONTINUOUS
 62
  136
 10
385
 20
1192.5
 11
385
 21
277.50000000000341
  0
LINE
  8
_f-0_
  6
CONTINUOUS
 62
  136
 10
1714.9999999999989
 20
1192.5
 11
1714.9999999999989
 21
277.50000000000341
  0
LINE
  8
_f-0_
  6
CONTINUOUS
 62
    6
 10
1714.9999999999989
 20
1152.5
 11
385
 21
1152.5
  0
LINE
  8
_f-f_
  6
CONTINUOUS
 62
    9
 10
310
 20
217.5
 11
310
 21
1267.5
  0
LINE
  8
_f-f_
  6
CONTINUOUS
 62
    9
 10
1790
 20
217.5
 11
310
 21
217.5
  0
LINE
  8
_f-f_
  6
CONTINUOUS
 62
    9
 10
1790
 20
1267.5
 11
310
 21
1267.5
  0
LINE
  8
_f-f_
  6
CONTINUOUS
 62
    9
 10
1790
 20
1267.5
 11
1790
 21
217.5
  0
LINE
  8
ADD_LINE
  6
DOT
 62
  136
 10
1764.9999999999989
 20
1242.5
 11
335
 21
1242.5
  0
LINE
  8
ADD_LINE
  6
DOT
 62
  136
 10
335
 20
242.50000000000227
 11
335
 21
1242.5
  0
LINE
  8
ADD_LINE
  6
DOT
 62
  136
 10
1765
 20
1242.5
 11
1765
 21
242.5
  0
LINE
  8
ADD_LINE
  6
DOT
 62
  136
 10
1765
 20
242.5
 11
335.00000000000114
 21
242.5
  0
TEXT
  8
_f-0_
 62
    7
 10
405.30228976001922
 20
1163.75
 40
17.5
 41
1
 50
0
  1
ドレイン 横型
  0
TEXT
  8
_0-a_文字
 62
    7
 10
1067.4999999999952
 20
327.50000000000341
 40
15.000000000000213
 41
0.9999999999999907
 50
0
  1
※ 断熱材の種類が硬質ウレタンフォームの場合、ラジアルシートＬ６００の敷設は不要
  0
TEXT
  8
_0-a_文字
 62
    7
 10
1067.4999999999952
 20
287.50000000000341
 40
15.000000000000213
 41
0.9999999999999905
 50
0
  1
※ 本図面は防水納まりの参考図であり、下地等の構造を保証するものではありません
  0
TEXT
  8
_0-a_文字
 62
    7
 10
1067.4999999999952
 20
307.50000000000341
 40
15.000000000000213
 41
0.9999999999999905
 50
0
  1
※ デッキ端部などの開口部には、必要に応じ遮炎性を満たす処理をお願いします（別途工事）
  0
LINE
  8
_0-a_文字
  6
CONTINUOUS
 62
    7
 10
1137.304710045255
 20
642.55281521629115
 11
1192.8458059412935
 21
738.7528152162912
  0
TEXT
  8
_0-a_文字
 62
    7
 10
1217.8458059412937
 20
731.25281521629131
 40
14.999999999999503
 41
1.0000000000000311
 50
0
  1
ＢＰ－Ｈ２Ｎ
  0
LINE
  8
_0-a_文字
  6
CONTINUOUS
 62
    7
 10
1192.8458059412935
 20
738.7528152162912
 11
1212.8458059412935
 21
738.7528152162912
  0
LINE
  8
_0-4_線色４__黄__
  6
CONTINUOUS
 62
    2
 10
973.15128363316489
 20
833.08650379112521
 11
965.69562829969072
 21
846.00007763242445
  0
LINE
  8
_0-4_線色４__黄__
  6
CONTINUOUS
 62
    2
 10
965.69562829969072
 20
846.00007763242445
 11
965.69562829969072
 21
934.84752096441923
  0
LINE
  8
_0-4_線色４__黄__
  6
CONTINUOUS
 62
    2
 10
965.69562829969072
 20
749.1071205130828
 11
965.69562829969072
 21
765.91276066020043
  0
LINE
  8
_0-4_線色４__黄__
  6
CONTINUOUS
 62
    2
 10
969.49562829968954
 20
780.09455372895388
 11
965.69562829969072
 21
765.91276066020043
  0
LINE
  8
_0-4_線色４__黄__
  6
CONTINUOUS
 62
    2
 10
969.49562829968954
 20
780.09455372895388
 11
969.49562829968954
 21
790.84242959156825
  0
LINE
  8
_0-4_線色４__黄__
  6
CONTINUOUS
 62
    2
 10
974.49562829968954
 20
790.84242959156825
 11
969.49562829968954
 21
790.84242959156825
  0
LINE
  8
_0-2_線色２__白__
  6
CONTINUOUS
 62
    7
 10
969.49562829968954
 20
790.84242959156825
 11
969.49562829968954
 21
827.41107870483063
  0
LINE
  8
_0-2_線色２__白__
  6
CONTINUOUS
 62
    7
 10
968.49202537027395
 20
831.15657582803749
 11
963.66239623882848
 21
829.86248060252535
  0
LINE
  8
_0-2_線色２__白__
  6
CONTINUOUS
 62
    7
 10
969.49562829968954
 20
827.41107870483063
 11
968.49202537027395
 21
831.15657582803749
  0
LINE
  8
_0-4_線色４__黄__
  6
CONTINUOUS
 62
    2
 10
974.49562829968954
 20
828.06934119276946
 11
973.15128363316489
 21
833.08650379112521
  0
LINE
  8
_0-2_線色２__白__
  6
CONTINUOUS
 62
    7
 10
968.49202537027395
 20
831.15657582803749
 11
960.69562829969072
 21
844.66033167026751
  0
LINE
  8
_0-4_線色４__黄__
  6
CONTINUOUS
 62
    2
 10
974.49562829968954
 20
828.06934119276946
 11
974.49562829968954
 21
790.84242959156825
  0
LINE
  8
_0-2_線色２__白__
  6
CONTINUOUS
 62
    7
 10
969.60593193134855
 20
780.12045227842407
 11
969.49562829968954
 21
780.09455372895388
  0
LINE
  8
_0-2_線色２__白__
  6
CONTINUOUS
 62
    7
 10
969.79560687845378
 20
780.1662891741006
 11
969.60593193134855
 21
780.12045227842407
  0
LINE
  8
_0-2_線色２__白__
  6
CONTINUOUS
 62
    7
 10
969.9838825806296
 20
780.21541558138722
 11
969.79560687845378
 21
780.1662891741006
  0
LINE
  8
_0-2_線色２__白__
  6
CONTINUOUS
 62
    7
 10
970.16987343982009
 20
780.26991346965758
 11
969.9838825806296
 21
780.21541558138722
  0
LINE
  8
_0-2_線色２__白__
  6
CONTINUOUS
 62
    7
 10
970.35269385796482
 20
780.33186480828078
 11
970.16987343982009
 21
780.26991346965758
  0
LINE
  8
_0-2_線色２__白__
  6
CONTINUOUS
 62
    7
 10
970.53145823701698
 20
780.40335156663048
 11
970.35269385796482
 21
780.33186480828078
  0
LINE
  8
_0-2_線色２__白__
  6
CONTINUOUS
 62
    7
 10
970.63293412806843
 20
780.450003419989
 11
970.53145823701698
 21
780.40335156663048
  0
LINE
  8
_0-2_線色２__白__
  6
CONTINUOUS
 62
    7
 10
970.70458578590888
 20
780.48604333107676
 11
970.63293412806843
 21
780.450003419989
  0
LINE
  8
_0-2_線色２__白__
  6
CONTINUOUS
 62
    7
 10
970.82587953961365
 20
780.55306382940387
 11
970.70458578590888
 21
780.48604333107676
  0
LINE
  8
_0-2_線色２__白__
  6
CONTINUOUS
 62
    7
 10
970.94429130430626
 20
780.62577139555003
 11
970.82587953961365
 21
780.55306382940387
  0
LINE
  8
_0-2_線色２__白__
  6
CONTINUOUS
 62
    7
 10
971.05977223701984
 20
780.70359208629441
 11
970.94429130430626
 21
780.62577139555003
  0
LINE
  8
_0-2_線色２__白__
  6
CONTINUOUS
 62
    7
 10
971.17227349477844
 20
780.78595195842752
 11
971.05977223701984
 21
780.70359208629441
  0
LINE
  8
_0-2_線色２__白__
  6
CONTINUOUS
 62
    7
 10
971.28174623461518
 20
780.87227706873307
 11
971.17227349477844
 21
780.78595195842752
  0
LINE
  8
_0-2_線色２__白__
  6
CONTINUOUS
 62
    7
 10
971.34383351013867
 20
780.9239363413684
 11
971.28174623461518
 21
780.87227706873307
  0
LINE
  8
_0-2_線色２__白__
  6
CONTINUOUS
 62
    7
 10
971.44803481834742
 20
781.01500492330786
 11
971.34383351013867
 21
780.9239363413684
  0
LINE
  8
_0-2_線色２__白__
  6
CONTINUOUS
 62
    7
 10
971.62131182135681
 20
781.17831879458606
 11
971.44803481834742
 21
781.01500492330786
  0
LINE
  8
_0-2_線色２__白__
  6
CONTINUOUS
 62
    7
 10
971.78779796420486
 20
781.34836399369703
 11
971.62131182135681
 21
781.17831879458606
  0
LINE
  8
_0-2_線色２__白__
  6
CONTINUOUS
 62
    7
 10
971.94898816213254
 20
781.52369611992015
 11
971.78779796420486
 21
781.34836399369703
  0
LINE
  8
_0-2_線色２__白__
  6
CONTINUOUS
 62
    7
 10
972.10637733037629
 20
781.70287077254613
 11
971.94898816213254
 21
781.52369611992015
  0
LINE
  8
_0-2_線色２__白__
  6
CONTINUOUS
 62
    7
 10
972.261460384168
 20
781.88444355085664
 11
972.10637733037629
 21
781.70287077254613
  0
LINE
  8
_0-2_線色２__白__
  6
CONTINUOUS
 62
    7
 10
972.35094096806961
 20
781.99028541447376
 11
972.261460384168
 21
781.88444355085664
  0
LINE
  8
_0-2_線色２__白__
  6
CONTINUOUS
 62
    7
 10
972.42219814716236
 20
782.074738583878
 11
972.35094096806961
 21
781.99028541447376
  0
LINE
  8
_0-2_線色２__白__
  6
CONTINUOUS
 62
    7
 10
972.54439822708946
 20
782.22084618497263
 11
972.42219814716236
 21
782.074738583878
  0
LINE
  8
_0-2_線色２__白__
  6
CONTINUOUS
 62
    7
 10
972.66473057613666
 20
782.36825102666614
 11
972.54439822708946
 21
782.22084618497263
  0
LINE
  8
_0-2_線色２__白__
  6
CONTINUOUS
 62
    7
 10
972.78199062852991
 20
782.51772751540273
 11
972.66473057613666
 21
782.36825102666614
  0
LINE
  8
_0-2_線色２__白__
  6
CONTINUOUS
 62
    7
 10
972.89497381849969
 20
782.67005005762428
 11
972.78199062852991
 21
782.51772751540273
  0
LINE
  8
_0-2_線色２__白__
  6
CONTINUOUS
 62
    7
 10
973.0024755802674
 20
782.82599305977726
 11
972.89497381849969
 21
782.67005005762428
  0
LINE
  8
_0-2_線色２__白__
  6
CONTINUOUS
 62
    7
 10
973.06184035013985
 20
782.9184040521767
 11
973.0024755802674
 21
782.82599305977726
  0
LINE
  8
_0-2_線色２__白__
  6
CONTINUOUS
 62
    7
 10
973.11752729165391
 20
783.01011906050178
 11
973.06184035013985
 21
782.9184040521767
  0
LINE
  8
_0-2_線色２__白__
  6
CONTINUOUS
 62
    7
 10
973.20948406237903
 20
783.17092278651387
 11
973.11752729165391
 21
783.01011906050178
  0
LINE
  8
_0-2_線色２__白__
  6
CONTINUOUS
 62
    7
 10
973.29858422471489
 20
783.33364021446812
 11
973.20948406237903
 21
783.17092278651387
  0
LINE
  8
_0-2_線色２__白__
  6
CONTINUOUS
 62
    7
 10
973.38747493316305
 20
783.49656016276128
 11
973.29858422471489
 21
783.33364021446812
  0
LINE
  8
_0-2_線色２__白__
  6
CONTINUOUS
 62
    7
 10
973.47880334223419
 20
783.6579714497924
 11
973.38747493316305
 21
783.49656016276128
  0
LINE
  8
_0-2_線色２__白__
  6
CONTINUOUS
 62
    7
 10
973.57521660642988
 20
783.81616289396277
 11
973.47880334223419
 21
783.6579714497924
  0
LINE
  8
_0-2_線色２__白__
  6
CONTINUOUS
 62
    7
 10
973.63450929680994
 20
783.90576430505178
 11
973.57521660642988
 21
783.81616289396277
  0
LINE
  8
_0-2_線色２__白__
  6
CONTINUOUS
 62
    7
 10
973.67237659319699
 20
783.95979152994585
 11
973.63450929680994
 21
783.90576430505178
  0
LINE
  8
_0-2_線色２__白__
  6
CONTINUOUS
 62
    7
 10
973.74030442272897
 20
784.05114602889796
 11
973.67237659319699
 21
783.95979152994585
  0
LINE
  8
_0-2_線色２__白__
  6
CONTINUOUS
 62
    7
 10
973.81139589941768
 20
784.14017603993386
 11
973.74030442272897
 21
784.05114602889796
  0
LINE
  8
_0-2_線色２__白__
  6
CONTINUOUS
 62
    7
 10
973.88544480274277
 20
784.22682201542955
 11
973.81139589941768
 21
784.14017603993386
  0
LINE
  8
_0-2_線色２__白__
  6
CONTINUOUS
 62
    7
 10
973.96224491218391
 20
784.31102440775874
 11
973.88544480274277
 21
784.22682201542955
  0
LINE
  8
_0-2_線色２__白__
  6
CONTINUOUS
 62
    7
 10
974.04159000722075
 20
784.3927236692997
 11
973.96224491218391
 21
784.31102440775874
  0
LINE
  8
_0-2_線色２__白__
  6
CONTINUOUS
 62
    7
 10
974.0886950131312
 20
784.43893884160332
 11
974.04159000722075
 21
784.3927236692997
  0
LINE
  8
_0-2_線色２__白__
  6
CONTINUOUS
 62
    7
 10
974.22794791291153
 20
784.56682084943111
 11
974.0886950131312
 21
784.43893884160332
  0
LINE
  8
_0-2_線色２__白__
  6
CONTINUOUS
 62
    7
 10
974.48079036866829
 20
784.77210647570644
 11
974.22794791291153
 21
784.56682084943111
  0
LINE
  8
_0-2_線色２__白__
  6
CONTINUOUS
 62
    7
 10
974.74722188985425
 20
784.96071847410519
 11
974.48079036866829
 21
784.77210647570644
  0
LINE
  8
_0-2_線色２__白__
  6
CONTINUOUS
 62
    7
 10
975.02427531787134
 20
785.13564246149087
 11
974.74722188985425
 21
784.96071847410519
  0
LINE
  8
_0-2_線色２__白__
  6
CONTINUOUS
 62
    7
 10
975.3089834941261
 20
785.29986405471789
 11
975.02427531787134
 21
785.13564246149087
  0
LINE
  8
_0-2_線色２__白__
  6
CONTINUOUS
 62
    7
 10
975.59837926001137
 20
785.45636887064973
 11
975.3089834941261
 21
785.29986405471789
  0
LINE
  8
_0-2_線色２__白__
  6
CONTINUOUS
 62
    7
 10
975.7672074430161
 20
785.54478232482495
 11
975.59837926001137
 21
785.45636887064973
  0
LINE
  8
_0-2_線色２__白__
  6
CONTINUOUS
 62
    7
 10
975.89264719252014
 20
785.60974031945477
 11
975.7672074430161
 21
785.54478232482495
  0
LINE
  8
_0-2_線色２__白__
  6
CONTINUOUS
 62
    7
 10
976.10878703177377
 20
785.72086731165371
 11
975.89264719252014
 21
785.60974031945477
  0
LINE
  8
_0-2_線色２__白__
  6
CONTINUOUS
 62
    7
 10
976.32455057275592
 20
785.8315547355113
 11
976.10878703177377
 21
785.72086731165371
  0
LINE
  8
_0-2_線色２__白__
  6
CONTINUOUS
 62
    7
 10
976.53969983383149
 20
785.94257134475754
 11
976.32455057275592
 21
785.8315547355113
  0
LINE
  8
_0-2_線色２__白__
  6
CONTINUOUS
 62
    7
 10
976.75399683336536
 20
786.05468589312238
 11
976.53969983383149
 21
785.94257134475754
  0
LINE
  8
_0-2_線色２__白__
  6
CONTINUOUS
 62
    7
 10
976.96720358973607
 20
786.16866713433126
 11
976.75399683336536
 21
786.05468589312238
  0
LINE
  8
_0-2_線色２__白__
  6
CONTINUOUS
 62
    7
 10
977.09027018187271
 20
786.23593450183705
 11
976.96720358973607
 21
786.16866713433126
  0
LINE
  8
_0-2_線色２__白__
  6
CONTINUOUS
 62
    7
 10
977.20494897889921
 20
786.29982482869707
 11
977.09027018187271
 21
786.23593450183705
  0
LINE
  8
_0-2_線色２__白__
  6
CONTINUOUS
 62
    7
 10
977.40120297768271
 20
786.41277768226416
 11
977.20494897889921
 21
786.29982482869707
  0
LINE
  8
_0-2_線色２__白__
  6
CONTINUOUS
 62
    7
 10
977.59491214682612
 20
786.53027844643418
 11
977.40120297768271
 21
786.41277768226416
  0
LINE
  8
_0-2_線色２__白__
  6
CONTINUOUS
 62
    7
 10
977.78527820791396
 20
786.65349834842061
 11
977.59491214682612
 21
786.53027844643418
  0
LINE
  8
_0-2_線色２__白__
  6
CONTINUOUS
 62
    7
 10
977.97150288253533
 20
786.78360861543922
 11
977.78527820791396
 21
786.65349834842061
  0
LINE
  8
_0-2_線色２__白__
  6
CONTINUOUS
 62
    7
 10
978.15278789227023
 20
786.92178047470804
 11
977.97150288253533
 21
786.78360861543922
  0
LINE
  8
_0-2_線色２__白__
  6
CONTINUOUS
 62
    7
 10
978.25535528026421
 20
787.00607549907943
 11
978.15278789227023
 21
786.92178047470804
  0
LINE
  8
_0-2_線色２__白__
  6
CONTINUOUS
 62
    7
 10
978.34220898426111
 20
787.08151757906478
 11
978.25535528026421
 21
787.00607549907943
  0
LINE
  8
_0-2_線色２__白__
  6
CONTINUOUS
 62
    7
 10
978.4872308135914
 20
787.21742703227108
 11
978.34220898426111
 21
787.08151757906478
  0
LINE
  8
_0-2_線色２__白__
  6
CONTINUOUS
 62
    7
 10
978.62464821943604
 20
787.36072137263534
 11
978.4872308135914
 21
787.21742703227108
  0
LINE
  8
_0-2_線色２__白__
  6
CONTINUOUS
 62
    7
 10
978.75257489275327
 20
787.51139641905354
 11
978.62464821943604
 21
787.36072137263534
  0
LINE
  8
_0-2_線色２__白__
  6
CONTINUOUS
 62
    7
 10
978.86912452448314
 20
787.66944799041255
 11
978.75257489275327
 21
787.51139641905354
  0
LINE
  8
_0-2_線色２__白__
  6
CONTINUOUS
 62
    7
 10
978.97241080558388
 20
787.83487190560379
 11
978.86912452448314
 21
787.66944799041255
  0
LINE
  8
_0-2_線色２__白__
  6
CONTINUOUS
 62
    7
 10
979.02549627750659
 20
787.93419413678237
 11
978.97241080558388
 21
787.83487190560379
  0
LINE
  8
_0-2_線色２__白__
  6
CONTINUOUS
 62
    7
 10
979.0771062181625
 20
788.04473196290189
 11
979.02549627750659
 21
787.93419413678237
  0
LINE
  8
_0-2_線色２__白__
  6
CONTINUOUS
 62
    7
 10
979.15300575189804
 20
788.24122593850177
 11
979.0771062181625
 21
788.04473196290189
  0
LINE
  8
_0-2_線色２__白__
  6
CONTINUOUS
 62
    7
 10
979.21541391879373
 20
788.44377913835785
 11
979.15300575189804
 21
788.24122593850177
  0
LINE
  8
_0-2_線色２__白__
  6
CONTINUOUS
 62
    7
 10
979.2678999604982
 20
788.6507360876243
 11
979.21541391879373
 21
788.44377913835785
  0
LINE
  8
_0-2_線色２__白__
  6
CONTINUOUS
 62
    7
 10
979.31403311864642
 20
788.86044131146207
 11
979.2678999604982
 21
788.6507360876243
  0
LINE
  8
_0-2_線色２__白__
  6
CONTINUOUS
 62
    7
 10
979.35738263488247
 20
789.07123933502533
 11
979.31403311864642
 21
788.86044131146207
  0
LINE
  8
_0-2_線色２__白__
  6
CONTINUOUS
 62
    7
 10
979.38265635638118
 20
789.19335056635362
 11
979.35738263488247
 21
789.07123933502533
  0
LINE
  8
_0-2_線色２__白__
  6
CONTINUOUS
 62
    7
 10
979.40563814326879
 20
789.30091279189071
 11
979.38265635638118
 21
789.19335056635362
  0
LINE
  8
_0-2_線色２__白__
  6
CONTINUOUS
 62
    7
 10
979.44608214084155
 20
789.48563232981712
 11
979.40563814326879
 21
789.30091279189071
  0
LINE
  8
_0-2_線色２__白__
  6
CONTINUOUS
 62
    7
 10
979.48613980555137
 20
789.66973792583929
 11
979.44608214084155
 21
789.48563232981712
  0
LINE
  8
_0-2_線色２__白__
  6
CONTINUOUS
 62
    7
 10
979.52415463157877
 20
789.85359396169713
 11
979.48613980555137
 21
789.66973792583929
  0
LINE
  8
_0-2_線色２__白__
  6
CONTINUOUS
 62
    7
 10
979.55847011311789
 20
790.0375648191374
 11
979.52415463157877
 21
789.85359396169713
  0
LINE
  8
_0-2_線色２__白__
  6
CONTINUOUS
 62
    7
 10
979.58742974435836
 20
790.22201487990685
 11
979.55847011311789
 21
790.0375648191374
  0
LINE
  8
_0-2_線色２__白__
  6
CONTINUOUS
 62
    7
 10
979.60111953044134
 20
790.32935907147419
 11
979.58742974435836
 21
790.22201487990685
  0
LINE
  8
_0-2_線色２__白__
  6
CONTINUOUS
 62
    7
 10
979.61555613922201
 20
790.47591054770862
 11
979.60111953044134
 21
790.32935907147419
  0
LINE
  8
_0-2_線色２__白__
  6
CONTINUOUS
 62
    7
 10
979.62962528722301
 20
790.72987573470016
 11
979.61555613922201
 21
790.47591054770862
  0
LINE
  8
_0-2_線色２__白__
  6
CONTINUOUS
 62
    7
 10
979.63125499447187
 20
790.98509352413373
 11
979.62962528722301
 21
790.72987573470016
  0
LINE
  8
_0-2_線色２__白__
  6
CONTINUOUS
 62
    7
 10
979.62190890328429
 20
791.24112136076462
 11
979.63125499447187
 21
790.98509352413373
  0
LINE
  8
_0-2_線色２__白__
  6
CONTINUOUS
 62
    7
 10
979.60305065598504
 20
791.49751668934584
 11
979.62190890328429
 21
791.24112136076462
  0
LINE
  8
_0-2_線色２__白__
  6
CONTINUOUS
 62
    7
 10
979.57614389489436
 20
791.75383695463267
 11
979.60305065598504
 21
791.49751668934584
  0
LINE
  8
_0-2_線色２__白__
  6
CONTINUOUS
 62
    7
 10
979.5574268956284
 20
791.90229392471508
 11
979.57614389489436
 21
791.75383695463267
  0
LINE
  8
_0-2_線色２__白__
  6
CONTINUOUS
 62
    7
 10
979.54037352959631
 20
792.02506277274495
 11
979.5574268956284
 21
791.90229392471508
  0
LINE
  8
_0-2_線色２__白__
  6
CONTINUOUS
 62
    7
 10
979.50702081396003
 20
792.23590581630049
 11
979.54037352959631
 21
792.02506277274495
  0
LINE
  8
_0-2_線色２__白__
  6
CONTINUOUS
 62
    7
 10
979.46739621884944
 20
792.44508520800935
 11
979.50702081396003
 21
792.23590581630049
  0
LINE
  8
_0-2_線色２__白__
  6
CONTINUOUS
 62
    7
 10
979.42002134511995
 20
792.65188428481849
 11
979.46739621884944
 21
792.44508520800935
  0
LINE
  8
_0-2_線色２__白__
  6
CONTINUOUS
 62
    7
 10
979.36341779362238
 20
792.85558638367718
 11
979.42002134511995
 21
792.65188428481849
  0
LINE
  8
_0-2_線色２__白__
  6
CONTINUOUS
 62
    7
 10
979.29610716520756
 20
793.0554748415301
 11
979.36341779362238
 21
792.85558638367718
  0
LINE
  8
_0-2_線色２__白__
  6
CONTINUOUS
 62
    7
 10
979.25157845194235
 20
793.16938033426993
 11
979.29610716520756
 21
793.0554748415301
  0
LINE
  8
_0-2_線色２__白__
  6
CONTINUOUS
 62
    7
 10
979.20769618102213
 20
793.27077659543818
 11
979.25157845194235
 21
793.16938033426993
  0
LINE
  8
_0-2_線色２__白__
  6
CONTINUOUS
 62
    7
 10
979.12418800051228
 20
793.44237469304232
 11
979.20769618102213
 21
793.27077659543818
  0
LINE
  8
_0-2_線色２__白__
  6
CONTINUOUS
 62
    7
 10
979.03156760522734
 20
793.60983233507284
 11
979.12418800051228
 21
793.44237469304232
  0
LINE
  8
_0-2_線色２__白__
  6
CONTINUOUS
 62
    7
 10
978.93079237380107
 20
793.77307899230061
 11
979.03156760522734
 21
793.60983233507284
  0
LINE
  8
_0-2_線色２__白__
  6
CONTINUOUS
 62
    7
 10
978.82281968486723
 20
793.93204413548972
 11
978.93079237380107
 21
793.77307899230061
  0
LINE
  8
_0-2_線色２__白__
  6
CONTINUOUS
 62
    7
 10
978.70860691706866
 20
794.08665723541105
 11
978.82281968486723
 21
793.93204413548972
  0
LINE
  8
_0-2_線色２__白__
  6
CONTINUOUS
 62
    7
 10
978.63988156457026
 20
794.17431093495168
 11
978.70860691706866
 21
794.08665723541105
  0
LINE
  8
_0-2_線色２__白__
  6
CONTINUOUS
 62
    7
 10
978.56033175729181
 20
794.27153837653975
 11
978.63988156457026
 21
794.17431093495168
  0
LINE
  8
_0-2_線色２__白__
  6
CONTINUOUS
 62
    7
 10
978.41886850446144
 20
794.43506321992061
 11
978.56033175729181
 21
794.27153837653975
  0
LINE
  8
_0-2_線色２__白__
  6
CONTINUOUS
 62
    7
 10
978.27264177406732
 20
794.59397717602712
 11
978.41886850446144
 21
794.43506321992061
  0
LINE
  8
_0-2_線色２__白__
  6
CONTINUOUS
 62
    7
 10
978.12245413514347
 20
794.74896625553072
 11
978.27264177406732
 21
794.59397717602712
  0
LINE
  8
_0-2_線色２__白__
  6
CONTINUOUS
 62
    7
 10
977.96910815674664
 20
794.90071646910053
 11
978.12245413514347
 21
794.74896625553072
  0
LINE
  8
_0-2_線色２__白__
  6
CONTINUOUS
 62
    7
 10
977.81340640791086
 20
795.04991382740798
 11
977.96910815674664
 21
794.90071646910053
  0
LINE
  8
_0-2_線色２__白__
  6
CONTINUOUS
 62
    7
 10
977.72233623351667
 20
795.13554890082276
 11
977.81340640791086
 21
795.04991382740798
  0
LINE
  8
_0-2_線色２__白__
  6
CONTINUOUS
 62
    7
 10
977.63491314050725
 20
795.21690479873484
 11
977.72233623351667
 21
795.13554890082276
  0
LINE
  8
_0-2_線色２__白__
  6
CONTINUOUS
 62
    7
 10
977.48316789725095
 20
795.3559538940425
 11
977.63491314050725
 21
795.21690479873484
  0
LINE
  8
_0-2_線色２__白__
  6
CONTINUOUS
 62
    7
 10
977.32978791016421
 20
795.49321779086711
 11
977.48316789725095
 21
795.3559538940425
  0
LINE
  8
_0-2_線色２__白__
  6
CONTINUOUS
 62
    7
 10
977.17436741669871
 20
795.62841592899474
 11
977.32978791016421
 21
795.49321779086711
  0
LINE
  8
_0-2_線色２__白__
  6
CONTINUOUS
 62
    7
 10
977.01650065431068
 20
795.76126774821603
 11
977.17436741669871
 21
795.62841592899474
  0
LINE
  8
_0-2_線色２__白__
  6
CONTINUOUS
 62
    7
 10
976.85578186044722
 20
795.89149268831932
 11
977.01650065431068
 21
795.76126774821603
  0
LINE
  8
_0-2_線色２__白__
  6
CONTINUOUS
 62
    7
 10
976.76109826764559
 20
795.96570896225501
 11
976.85578186044722
 21
795.89149268831932
  0
LINE
  8
_0-2_線色２__白__
  6
CONTINUOUS
 62
    7
 10
976.67973042043968
 20
796.02791654193368
 11
976.76109826764559
 21
795.96570896225501
  0
LINE
  8
_0-2_線色２__白__
  6
CONTINUOUS
 62
    7
 10
976.53730123964351
 20
796.13261588025068
 11
976.67973042043968
 21
796.02791654193368
  0
LINE
  8
_0-2_線色２__白__
  6
CONTINUOUS
 62
    7
 10
976.39194019787055
 20
796.23286497739571
 11
976.53730123964351
 21
796.13261588025068
  0
LINE
  8
_0-2_線色２__白__
  6
CONTINUOUS
 62
    7
 10
976.24338768207281
 20
796.32724996654304
 11
976.39194019787055
 21
796.23286497739571
  0
LINE
  8
_0-2_線色２__白__
  6
CONTINUOUS
 62
    7
 10
976.09138407918863
 20
796.41435698086923
 11
976.24338768207281
 21
796.32724996654304
  0
LINE
  8
_0-2_線色２__白__
  6
CONTINUOUS
 62
    7
 10
975.93566977617911
 20
796.49277215355085
 11
976.09138407918863
 21
796.41435698086923
  0
LINE
  8
_0-2_線色２__白__
  6
CONTINUOUS
 62
    7
 10
975.84355293658746
 20
796.53371321481416
 11
975.93566977617911
 21
796.49277215355085
  0
LINE
  8
_0-2_線色２__白__
  6
CONTINUOUS
 62
    7
 10
975.72358783359277
 20
796.58093691310739
 11
975.84355293658746
 21
796.53371321481416
  0
LINE
  8
_0-2_線色２__白__
  6
CONTINUOUS
 62
    7
 10
975.51203490177386
 20
796.64985205609753
 11
975.72358783359277
 21
796.58093691310739
  0
LINE
  8
_0-2_線色２__白__
  6
CONTINUOUS
 62
    7
 10
975.29545549311706
 20
796.70544045362647
 11
975.51203490177386
 21
796.64985205609753
  0
LINE
  8
_0-2_線色２__白__
  6
CONTINUOUS
 62
    7
 10
975.07494709164575
 20
796.75061187545168
 11
975.29545549311706
 21
796.70544045362647
  0
LINE
  8
_0-2_線色２__白__
  6
CONTINUOUS
 62
    7
 10
974.85160718138786
 20
796.78827609131702
 11
975.07494709164575
 21
796.75061187545168
  0
LINE
  8
_0-2_線色２__白__
  6
CONTINUOUS
 62
    7
 10
974.62653324637131
 20
796.82134287097767
 11
974.85160718138786
 21
796.78827609131702
  0
LINE
  8
_0-2_線色２__白__
  6
CONTINUOUS
 62
    7
 10
974.49562829968954
 20
796.8395616585002
 11
974.62653324637131
 21
796.82134287097767
  0
LINE
  8
_0-2_線色２__白__
  6
CONTINUOUS
 62
    7
 10
963.66239623882848
 20
777.64315183125916
 11
960.69562829969072
 21
766.57102314813699
  0
LINE
  8
_0-7_ビス
  6
CONTINUOUS
 62
    7
 10
960.78258579032763
 20
800.25281621689089
 11
916.51635424185315
 21
800.25281621689089
  0
LINE
  8
_0-7_ビス
  6
CONTINUOUS
 62
    7
 10
916.51635424185315
 20
800.25281621689089
 11
914.49562829968954
 21
803.75281621689226
  0
LINE
  8
_0-7_ビス
  6
CONTINUOUS
 62
    7
 10
919.99562829968909
 20
800.25281621689089
 11
919.99562829968909
 21
807.25281621689362
  0
LINE
  8
_0-7_ビス
  6
CONTINUOUS
 62
    7
 10
960.78258579032763
 20
807.25281621689362
 11
916.51635424185315
 21
807.25281621689362
  0
LINE
  8
_0-7_ビス
  6
CONTINUOUS
 62
    7
 10
916.51635424185315
 20
807.25281621689362
 11
914.49562829968954
 21
803.75281621689226
  0
LINE
  8
_0-7_ビス
  6
CONTINUOUS
 62
    7
 10
954.49562829968954
 20
800.25281621689089
 11
954.49562829968954
 21
807.25281621689362
  0
LINE
  8
_0-7_ビス
  6
CONTINUOUS
 62
    7
 10
960.49562829969091
 20
800.25281621689089
 11
960.49562829969091
 21
807.25281621689362
  0
ARC
  8
_0-7_ビス
  6
CONTINUOUS
 62
    7
 10
960.78258579032763
 20
809.2528162168918
 40
2
 50
270
 51
314.99999999999852
  0
LINE
  8
_0-7_ビス
  6
CONTINUOUS
 62
    7
 10
962.19679935270051
 20
807.83860265451892
 11
964.11101291507293
 21
809.75281621689362
  0
ARC
  8
_0-7_ビス
  6
CONTINUOUS
 62
    7
 10
960.78258579032763
 20
798.25281621689271
 40
2
 50
45.000000000001528
 51
90.000000000000028
  0
LINE
  8
_0-7_ビス
  6
CONTINUOUS
 62
    7
 10
962.19679935270051
 20
799.66702977926559
 11
964.11101291507293
 21
797.75281621689089
  0
ARC
  8
_0-7_ビス
  6
DASHED3
 62
    7
 10
963.05680186712834
 20
803.75281621689226
 40
1.8403175392666382
 50
127.11750793457028
 51
232.88247680664062
  0
LINE
  8
_0-7_ビス
  6
CONTINUOUS
 62
    7
 10
964.49562829968954
 20
797.75281621689089
 11
964.49562829968954
 21
809.75281621689362
  0
LINE
  8
_0-7_ビス
  6
CONTINUOUS
 62
    7
 10
964.11101291507293
 20
797.75281621689089
 11
964.11101291507293
 21
809.75281621689362
  0
LINE
  8
_0-7_ビス
  6
DASHED3
 62
    7
 10
961.94625876886221
 20
805.22028433314688
 11
964.49562829968954
 21
806.30283205304011
  0
LINE
  8
_0-7_ビス
  6
CONTINUOUS
 62
    7
 10
964.11101291507293
 20
809.75281621689362
 11
964.49562829968954
 21
809.75281621689362
  0
LINE
  8
_0-7_ビス
  6
DASHED3
 62
    7
 10
961.94625876886221
 20
802.28534810063763
 11
964.49562829968954
 21
801.20280038074441
  0
LINE
  8
_0-7_ビス
  6
CONTINUOUS
 62
    7
 10
964.11101291507293
 20
797.75281621689089
 11
964.49562829968954
 21
797.75281621689089
  0
LINE
  8
ADD_LINE
  6
DOT
 62
    4
 10
906.37626363773961
 20
803.75281621689226
 11
970.99298338035624
 21
803.75281621689226
  0
LINE
  8
_0-7_ビス
  6
CONTINUOUS
 62
    4
 10
922.37716335216419
 20
807.25281621689362
 11
924.25286913225364
 21
800.25281621689089
  0
LINE
  8
_0-7_ビス
  6
CONTINUOUS
 62
    4
 10
920.37716335216373
 20
807.25281621689362
 11
922.25286913225318
 21
800.25281621689089
  0
LINE
  8
_0-7_ビス
  6
CONTINUOUS
 62
    4
 10
924.6833838815428
 20
807.25281621689362
 11
926.55908966162997
 21
800.25281621689089
  0
LINE
  8
_0-7_ビス
  6
CONTINUOUS
 62
    4
 10
936.68338388154098
 20
807.25281621689362
 11
938.55908966163042
 21
800.25281621689089
  0
LINE
  8
_0-7_ビス
  6
CONTINUOUS
 62
    4
 10
934.6833838815428
 20
807.25281621689362
 11
936.55908966162997
 21
800.25281621689089
  0
LINE
  8
_0-7_ビス
  6
CONTINUOUS
 62
    4
 10
932.68338388154007
 20
807.25281621689362
 11
934.55908966162951
 21
800.25281621689089
  0
LINE
  8
_0-7_ビス
  6
CONTINUOUS
 62
    4
 10
930.68338388154189
 20
807.25281621689362
 11
932.55908966163133
 21
800.25281621689089
  0
LINE
  8
_0-7_ビス
  6
CONTINUOUS
 62
    4
 10
928.68338388154143
 20
807.25281621689362
 11
930.5590896616286
 21
800.25281621689089
  0
LINE
  8
_0-7_ビス
  6
CONTINUOUS
 62
    4
 10
926.68338388154098
 20
807.25281621689362
 11
928.55908966163042
 21
800.25281621689089
  0
LINE
  8
_0-7_ビス
  6
CONTINUOUS
 62
    4
 10
938.98960441091731
 20
807.25281621689362
 11
940.86531019100676
 21
800.25281621689089
  0
LINE
  8
_0-7_ビス
  6
CONTINUOUS
 62
    4
 10
950.98960441092004
 20
807.25281621689362
 11
952.86531019100721
 21
800.25281621689089
  0
LINE
  8
_0-7_ビス
  6
CONTINUOUS
 62
    4
 10
948.98960441091731
 20
807.25281621689362
 11
950.86531019100676
 21
800.25281621689089
  0
LINE
  8
_0-7_ビス
  6
CONTINUOUS
 62
    4
 10
946.98960441091913
 20
807.25281621689362
 11
948.86531019100858
 21
800.25281621689089
  0
LINE
  8
_0-7_ビス
  6
CONTINUOUS
 62
    4
 10
944.98960441091867
 20
807.25281621689362
 11
946.86531019100585
 21
800.25281621689089
  0
LINE
  8
_0-7_ビス
  6
CONTINUOUS
 62
    4
 10
942.98960441091822
 20
807.25281621689362
 11
944.86531019100767
 21
800.25281621689089
  0
LINE
  8
_0-7_ビス
  6
CONTINUOUS
 62
    4
 10
940.98960441092004
 20
807.25281621689362
 11
942.86531019100721
 21
800.25281621689089
  0
LINE
  8
_0-7_ビス
  6
CONTINUOUS
 62
    4
 10
953.29582494029637
 20
807.25281621689362
 11
954.49562829968954
 21
802.77523577495174
  0
LINE
  8
_0-6_鋼板__アングル
  6
CONTINUOUS
 62
    2
 10
963.29562829968836
 20
823.73685022268262
 11
962.09562829968945
 21
823.73685022268262
  0
LINE
  8
_0-6_鋼板__アングル
  6
CONTINUOUS
 62
    2
 10
962.09562829968945
 20
823.73685022268262
 11
962.09562829968945
 21
826.43685022268244
  0
LINE
  8
_0-6_鋼板__アングル
  6
CONTINUOUS
 62
    2
 10
962.09562829968945
 20
826.43685022268244
 11
961.34417425573247
 21
829.2413148942768
  0
ARC
  8
_0-6_鋼板__アングル
  6
CONTINUOUS
 62
    2
 10
962.50328524728047
 20
829.55189774840107
 40
1.2000000000000002
 50
15.000000000005457
 51
195.00000000000551
  0
LINE
  8
_0-6_鋼板__アングル
  6
CONTINUOUS
 62
    2
 10
964.49562829968954
 20
826.7528162168918
 11
963.66239623882848
 21
829.86248060252535
  0
LINE
  8
_0-6_鋼板__アングル
  6
CONTINUOUS
 62
    2
 10
964.49562829968954
 20
810.25281621689089
 11
964.49562829968954
 21
826.7528162168918
  0
LINE
  8
_0-6_鋼板__アングル
  6
CONTINUOUS
 62
    2
 10
963.29562829968836
 20
810.71099159143785
 11
963.29562829968836
 21
826.59483321978712
  0
LINE
  8
_0-6_鋼板__アングル
  6
CONTINUOUS
 62
    2
 10
962.50328524728047
 20
829.55189774840107
 11
963.29562829968836
 21
826.59483321978712
  0
LINE
  8
_0-6_鋼板__アングル
  6
CONTINUOUS
 62
    2
 10
962.09562829968945
 20
781.06878221110208
 11
961.34417425573247
 21
778.26431753950772
  0
LINE
  8
_0-6_鋼板__アングル
  6
CONTINUOUS
 62
    2
 10
962.09562829968945
 20
783.76878221110189
 11
962.09562829968945
 21
781.06878221110208
  0
ARC
  8
_0-6_鋼板__アングル
  6
CONTINUOUS
 62
    2
 10
962.50328524728047
 20
777.95373468538344
 40
1.2000000000000006
 50
164.99999999999449
 51
344.99999999999449
  0
LINE
  8
_0-6_鋼板__アングル
  6
CONTINUOUS
 62
    2
 10
964.49562829968954
 20
780.75281621689271
 11
963.66239623882848
 21
777.64315183125916
  0
LINE
  8
_0-6_鋼板__アングル
  6
CONTINUOUS
 62
    2
 10
964.49562829968954
 20
797.25281621689362
 11
964.49562829968954
 21
780.75281621689271
  0
LINE
  8
_0-6_鋼板__アングル
  6
CONTINUOUS
 62
    2
 10
962.50328524728047
 20
777.95373468538344
 11
963.29562829968836
 21
780.91079921399739
  0
LINE
  8
_0-6_鋼板__アングル
  6
CONTINUOUS
 62
    2
 10
963.29562829968836
 20
796.79464084234667
 11
963.29562829968836
 21
780.91079921399739
  0
LINE
  8
ADD_LINE
  6
DOT
 62
    4
 10
962.50328524728047
 20
829.55189774840107
 11
962.50328524728047
 21
832.76134832648665
  0
LINE
  8
ADD_LINE
  6
DOT
 62
    4
 10
960.69562829969072
 20
830.75189774840226
 11
964.49562829968954
 21
830.75189774840226
  0
LINE
  8
ADD_LINE
  6
DOT
 62
    4
 10
949.64848063504178
 20
803.75281621689226
 11
983.8328368251041
 21
803.75281621689226
  0
LINE
  8
_0-6_鋼板__アングル
  6
CONTINUOUS
 62
    2
 10
963.29562829968836
 20
783.76878221110189
 11
962.09562829968945
 21
783.76878221110189
  0
LINE
  8
_0-6_鋼板__アングル
  6
CONTINUOUS
 62
    4
 10
960.69562829969072
 20
807.80253845892673
 11
960.69562829969072
 21
799.70309397485778
  0
LINE
  8
_0-6_鋼板__アングル
  6
CONTINUOUS
 62
    4
 10
961.5902262458394
 20
807.00281621689271
 11
961.5902262458394
 21
800.50285477582918
  0
LINE
  8
_0-6_鋼板__アングル
  6
CONTINUOUS
 62
    2
 10
963.29562829968836
 20
796.79464084234667
 11
960.69562829969072
 21
799.70309397485778
  0
LINE
  8
_0-6_鋼板__アングル
  6
CONTINUOUS
 62
    2
 10
960.69562829969072
 20
799.70309397485778
 11
961.59026937924409
 21
800.50285477582918
  0
LINE
  8
_0-6_鋼板__アングル
  6
CONTINUOUS
 62
    2
 10
964.49562829968954
 20
797.25281621689362
 11
961.59026937924409
 21
800.50285477582918
  0
LINE
  8
_0-6_鋼板__アングル
  6
CONTINUOUS
 62
    2
 10
963.29562829968836
 20
810.71099159143785
 11
960.69562829969072
 21
807.80253845892673
  0
LINE
  8
_0-6_鋼板__アングル
  6
CONTINUOUS
 62
    2
 10
960.69562829969072
 20
807.80253845892673
 11
961.59026937924409
 21
807.00277765795533
  0
LINE
  8
_0-6_鋼板__アングル
  6
CONTINUOUS
 62
    2
 10
964.49562829968954
 20
810.25281621689089
 11
961.59026937924409
 21
807.00277765795533
  0
LINE
  8
_0-6_鋼板__アングル
  6
CONTINUOUS
 62
    4
 10
964.49562829968954
 20
797.25281621689362
 11
964.49562829968954
 21
810.25281621689089
  0
LINE
  8
_0-4_線色４__黄__
  6
CONTINUOUS
 62
    2
 10
1179.5519714607894
 20
643.75281521629006
 11
1295.6086814683204
 21
643.75281521629006
  0
LINE
  8
_0-4_線色４__黄__
  6
CONTINUOUS
 62
    2
 10
1166.6383976194879
 20
651.20847054976423
 11
1179.5519714607894
 21
643.75281521629006
  0
LINE
  8
_0-2_線色２__白__
  6
CONTINUOUS
 62
    7
 10
1079.2976282996915
 20
623.35081521629093
 11
1110.9056285137456
 21
641.59970264842173
  0
LINE
  8
_0-4_線色４__黄__
  6
CONTINUOUS
 62
    2
 10
1113.6464475573166
 20
647.55281521629115
 11
1109.1125178395237
 21
646.33795240986899
  0
LINE
  8
_0-4_線色４__黄__
  6
CONTINUOUS
 62
    2
 10
1077.9578823375346
 20
628.35081521629093
 11
1109.1125178395237
 21
646.33795240986899
  0
LINE
  8
_0-2_線色２__白__
  6
CONTINUOUS
 62
    7
 10
1164.7084696564002
 20
646.54921228687328
 11
1178.2122254986325
 21
638.75281521629006
  0
LINE
  8
_0-2_線色２__白__
  6
CONTINUOUS
 62
    7
 10
1124.394323419931
 20
647.55281521629115
 11
1160.9629725331934
 21
647.55281521629115
  0
LINE
  8
_0-4_線色４__黄__
  6
CONTINUOUS
 62
    2
 10
1124.394323419931
 20
652.55281521629115
 11
1124.394323419931
 21
647.55281521629115
  0
LINE
  8
_0-4_線色４__黄__
  6
CONTINUOUS
 62
    2
 10
1113.6464475573166
 20
647.55281521629115
 11
1124.394323419931
 21
647.55281521629115
  0
LINE
  8
_0-2_線色２__白__
  6
CONTINUOUS
 62
    7
 10
1164.7084696564002
 20
646.54921228687328
 11
1163.4143744308881
 21
641.71958315542781
  0
LINE
  8
_0-2_線色２__白__
  6
CONTINUOUS
 62
    7
 10
1160.9629725331934
 20
647.55281521629115
 11
1164.7084696564002
 21
646.54921228687328
  0
LINE
  8
_0-4_線色４__黄__
  6
CONTINUOUS
 62
    2
 10
1161.6212350211322
 20
652.55281521629115
 11
1166.6383976194879
 21
651.20847054976423
  0
LINE
  8
_0-4_線色４__黄__
  6
CONTINUOUS
 62
    2
 10
1161.6212350211322
 20
652.55281521629115
 11
1124.394323419931
 21
652.55281521629115
  0
LINE
  8
_0-2_線色２__白__
  6
CONTINUOUS
 62
    7
 10
1113.6723461067868
 20
647.66311884795016
 11
1113.6464475573166
 21
647.55281521629115
  0
LINE
  8
_0-2_線色２__白__
  6
CONTINUOUS
 62
    7
 10
1113.7181830024633
 20
647.85279379505539
 11
1113.6723461067868
 21
647.66311884795016
  0
LINE
  8
_0-2_線色２__白__
  6
CONTINUOUS
 62
    7
 10
1113.7673094097522
 20
648.04106949723121
 11
1113.7181830024633
 21
647.85279379505539
  0
LINE
  8
_0-2_線色２__白__
  6
CONTINUOUS
 62
    7
 10
1113.8218072980203
 20
648.22706035641943
 11
1113.7673094097522
 21
648.04106949723121
  0
LINE
  8
_0-2_線色２__白__
  6
CONTINUOUS
 62
    7
 10
1113.8837586366435
 20
648.40988077456871
 11
1113.8218072980203
 21
648.22706035641943
  0
LINE
  8
_0-2_線色２__白__
  6
CONTINUOUS
 62
    7
 10
1113.9552453949932
 20
648.58864515361859
 11
1113.8837586366435
 21
648.40988077456871
  0
LINE
  8
_0-2_線色２__白__
  6
CONTINUOUS
 62
    7
 10
1114.0018972483517
 20
648.69012104467004
 11
1113.9552453949932
 21
648.58864515361859
  0
LINE
  8
_0-2_線色２__白__
  6
CONTINUOUS
 62
    7
 10
1114.0379371594395
 20
648.76177270251048
 11
1114.0018972483517
 21
648.69012104467004
  0
LINE
  8
_0-2_線色２__白__
  6
CONTINUOUS
 62
    7
 10
1114.1049576577689
 20
648.88306645621526
 11
1114.0379371594395
 21
648.76177270251048
  0
LINE
  8
_0-2_線色２__白__
  6
CONTINUOUS
 62
    7
 10
1114.1776652239128
 20
649.00147822090787
 11
1114.1049576577689
 21
648.88306645621526
  0
LINE
  8
_0-2_線色２__白__
  6
CONTINUOUS
 62
    7
 10
1114.2554859146571
 20
649.11695915361918
 11
1114.1776652239128
 21
649.00147822090787
  0
LINE
  8
_0-2_線色２__白__
  6
CONTINUOUS
 62
    7
 10
1114.3378457867902
 20
649.22946041138005
 11
1114.2554859146571
 21
649.11695915361918
  0
LINE
  8
_0-2_線色２__白__
  6
CONTINUOUS
 62
    7
 10
1114.4241708970958
 20
649.33893315121679
 11
1114.3378457867902
 21
649.22946041138005
  0
LINE
  8
_0-2_線色２__白__
  6
CONTINUOUS
 62
    7
 10
1114.4758301697334
 20
649.40102042674027
 11
1114.4241708970958
 21
649.33893315121679
  0
LINE
  8
_0-2_線色２__白__
  6
CONTINUOUS
 62
    7
 10
1114.5668987516706
 20
649.50522173494903
 11
1114.4758301697334
 21
649.40102042674027
  0
LINE
  8
_0-2_線色２__白__
  6
CONTINUOUS
 62
    7
 10
1114.7302126229511
 20
649.67849873795842
 11
1114.5668987516706
 21
649.50522173494903
  0
LINE
  8
_0-2_線色２__白__
  6
CONTINUOUS
 62
    7
 10
1114.9002578220598
 20
649.84498488080874
 11
1114.7302126229511
 21
649.67849873795842
  0
LINE
  8
_0-2_線色２__白__
  6
CONTINUOUS
 62
    7
 10
1115.0755899482851
 20
650.00617507873415
 11
1114.9002578220598
 21
649.84498488080874
  0
LINE
  8
_0-2_線色２__白__
  6
CONTINUOUS
 62
    7
 10
1115.2547646009089
 20
650.16356424697562
 11
1115.0755899482851
 21
650.00617507873415
  0
LINE
  8
_0-2_線色２__白__
  6
CONTINUOUS
 62
    7
 10
1115.4363373792194
 20
650.31864730076961
 11
1115.2547646009089
 21
650.16356424697562
  0
LINE
  8
_0-2_線色２__白__
  6
CONTINUOUS
 62
    7
 10
1115.5421792428365
 20
650.40812788467122
 11
1115.4363373792194
 21
650.31864730076961
  0
LINE
  8
_0-2_線色２__白__
  6
CONTINUOUS
 62
    7
 10
1115.6266324122407
 20
650.47938506376397
 11
1115.5421792428365
 21
650.40812788467122
  0
LINE
  8
_0-2_線色２__白__
  6
CONTINUOUS
 62
    7
 10
1115.7727400133376
 20
650.60158514369107
 11
1115.6266324122407
 21
650.47938506376397
  0
LINE
  8
_0-2_線色２__白__
  6
CONTINUOUS
 62
    7
 10
1115.9201448550311
 20
650.72191749273827
 11
1115.7727400133376
 21
650.60158514369107
  0
LINE
  8
_0-2_線色２__白__
  6
CONTINUOUS
 62
    7
 10
1116.0696213437654
 20
650.83917754513152
 11
1115.9201448550311
 21
650.72191749273827
  0
LINE
  8
_0-2_線色２__白__
  6
CONTINUOUS
 62
    7
 10
1116.221943885987
 20
650.9521607351013
 11
1116.0696213437654
 21
650.83917754513152
  0
LINE
  8
_0-2_線色２__白__
  6
CONTINUOUS
 62
    7
 10
1116.3778868881423
 20
651.05966249686901
 11
1116.221943885987
 21
650.9521607351013
  0
LINE
  8
_0-2_線色２__白__
  6
CONTINUOUS
 62
    7
 10
1116.4702978805394
 20
651.11902726674145
 11
1116.3778868881423
 21
651.05966249686901
  0
LINE
  8
_0-2_線色２__白__
  6
CONTINUOUS
 62
    7
 10
1116.5620128888645
 20
651.17471420825325
 11
1116.4702978805394
 21
651.11902726674145
  0
LINE
  8
_0-2_線色２__白__
  6
CONTINUOUS
 62
    7
 10
1116.7228166148766
 20
651.26667097897837
 11
1116.5620128888645
 21
651.17471420825325
  0
LINE
  8
_0-2_線色２__白__
  6
CONTINUOUS
 62
    7
 10
1116.8855340428308
 20
651.35577114131422
 11
1116.7228166148766
 21
651.26667097897837
  0
LINE
  8
_0-2_線色２__白__
  6
CONTINUOUS
 62
    7
 10
1117.048453991124
 20
651.44466184976466
 11
1116.8855340428308
 21
651.35577114131422
  0
LINE
  8
_0-2_線色２__白__
  6
CONTINUOUS
 62
    7
 10
1117.2098652781574
 20
651.5359902588358
 11
1117.048453991124
 21
651.44466184976466
  0
LINE
  8
_0-2_線色２__白__
  6
CONTINUOUS
 62
    7
 10
1117.3680567223278
 20
651.63240352303148
 11
1117.2098652781574
 21
651.5359902588358
  0
LINE
  8
_0-2_線色２__白__
  6
CONTINUOUS
 62
    7
 10
1117.4576581334145
 20
651.69169621340927
 11
1117.3680567223278
 21
651.63240352303148
  0
LINE
  8
_0-2_線色２__白__
  6
CONTINUOUS
 62
    7
 10
1117.5116853583108
 20
651.7295635097986
 11
1117.4576581334145
 21
651.69169621340927
  0
LINE
  8
_0-2_線色２__白__
  6
CONTINUOUS
 62
    7
 10
1117.6030398572607
 20
651.79749133933058
 11
1117.5116853583108
 21
651.7295635097986
  0
LINE
  8
_0-2_線色２__白__
  6
CONTINUOUS
 62
    7
 10
1117.6920698682966
 20
651.86858281601928
 11
1117.6030398572607
 21
651.79749133933058
  0
LINE
  8
_0-2_線色２__白__
  6
CONTINUOUS
 62
    7
 10
1117.7787158437923
 20
651.94263171934438
 11
1117.6920698682966
 21
651.86858281601928
  0
LINE
  8
_0-2_線色２__白__
  6
CONTINUOUS
 62
    7
 10
1117.8629182361215
 20
652.01943182878551
 11
1117.7787158437923
 21
651.94263171934438
  0
LINE
  8
_0-2_線色２__白__
  6
CONTINUOUS
 62
    7
 10
1117.9446174976624
 20
652.09877692382236
 11
1117.8629182361215
 21
652.01943182878551
  0
LINE
  8
_0-2_線色２__白__
  6
CONTINUOUS
 62
    7
 10
1117.9908326699683
 20
652.14588192973281
 11
1117.9446174976624
 21
652.09877692382236
  0
LINE
  8
_0-2_線色２__白__
  6
CONTINUOUS
 62
    7
 10
1118.1187146777938
 20
652.28513482951314
 11
1117.9908326699683
 21
652.14588192973281
  0
LINE
  8
_0-2_線色２__白__
  6
CONTINUOUS
 62
    7
 10
1118.3240003040692
 20
652.5379772852699
 11
1118.1187146777938
 21
652.28513482951314
  0
LINE
  8
_0-2_線色２__白__
  6
CONTINUOUS
 62
    7
 10
1118.5126123024702
 20
652.80440880645585
 11
1118.3240003040692
 21
652.5379772852699
  0
LINE
  8
_0-2_線色２__白__
  6
CONTINUOUS
 62
    7
 10
1118.6875362898559
 20
653.08146223447523
 11
1118.5126123024702
 21
652.80440880645585
  0
LINE
  8
_0-2_線色２__白__
  6
CONTINUOUS
 62
    7
 10
1118.8517578830829
 20
653.36617041072543
 11
1118.6875362898559
 21
653.08146223447523
  0
LINE
  8
_0-2_線色２__白__
  6
CONTINUOUS
 62
    7
 10
1119.0082626990124
 20
653.65556617661298
 11
1118.8517578830829
 21
653.36617041072543
  0
LINE
  8
_0-2_線色２__白__
  6
CONTINUOUS
 62
    7
 10
1119.0966761531877
 20
653.82439435961999
 11
1119.0082626990124
 21
653.65556617661298
  0
LINE
  8
_0-2_線色２__白__
  6
CONTINUOUS
 62
    7
 10
1119.1616341478198
 20
653.94983410912175
 11
1119.0966761531877
 21
653.82439435961999
  0
LINE
  8
_0-2_線色２__白__
  6
CONTINUOUS
 62
    7
 10
1119.2727611400164
 20
654.16597394837538
 11
1119.1616341478198
 21
653.94983410912175
  0
LINE
  8
_0-2_線色２__白__
  6
CONTINUOUS
 62
    7
 10
1119.383448563874
 20
654.38173748935753
 11
1119.2727611400164
 21
654.16597394837538
  0
LINE
  8
_0-2_線色２__白__
  6
CONTINUOUS
 62
    7
 10
1119.4944651731225
 20
654.59688675043083
 11
1119.383448563874
 21
654.38173748935753
  0
LINE
  8
_0-2_線色２__白__
  6
CONTINUOUS
 62
    7
 10
1119.6065797214874
 20
654.81118374996697
 11
1119.4944651731225
 21
654.59688675043083
  0
LINE
  8
_0-2_線色２__白__
  6
CONTINUOUS
 62
    7
 10
1119.720560962694
 20
655.02439050633768
 11
1119.6065797214874
 21
654.81118374996697
  0
LINE
  8
_0-2_線色２__白__
  6
CONTINUOUS
 62
    7
 10
1119.7878283301998
 20
655.14745709847205
 11
1119.720560962694
 21
655.02439050633768
  0
LINE
  8
_0-2_線色２__白__
  6
CONTINUOUS
 62
    7
 10
1119.8517186570598
 20
655.26213589550082
 11
1119.7878283301998
 21
655.14745709847205
  0
LINE
  8
_0-2_線色２__白__
  6
CONTINUOUS
 62
    7
 10
1119.9646715106292
 20
655.45838989428432
 11
1119.8517186570598
 21
655.26213589550082
  0
LINE
  8
_0-2_線色２__白__
  6
CONTINUOUS
 62
    7
 10
1120.0821722747992
 20
655.65209906342773
 11
1119.9646715106292
 21
655.45838989428432
  0
LINE
  8
_0-2_線色２__白__
  6
CONTINUOUS
 62
    7
 10
1120.2053921767833
 20
655.84246512451557
 11
1120.0821722747992
 21
655.65209906342773
  0
LINE
  8
_0-2_線色２__白__
  6
CONTINUOUS
 62
    7
 10
1120.3355024438042
 20
656.02868979913694
 11
1120.2053921767833
 21
655.84246512451557
  0
LINE
  8
_0-2_線色２__白__
  6
CONTINUOUS
 62
    7
 10
1120.473674303073
 20
656.20997480887411
 11
1120.3355024438042
 21
656.02868979913694
  0
LINE
  8
_0-2_線色２__白__
  6
CONTINUOUS
 62
    7
 10
1120.5579693274444
 20
656.31254219686582
 11
1120.473674303073
 21
656.20997480887411
  0
LINE
  8
_0-2_線色２__白__
  6
CONTINUOUS
 62
    7
 10
1120.6334114074298
 20
656.39939590086271
 11
1120.5579693274444
 21
656.31254219686582
  0
LINE
  8
_0-2_線色２__白__
  6
CONTINUOUS
 62
    7
 10
1120.7693208606338
 20
656.544417730193
 11
1120.6334114074298
 21
656.39939590086271
  0
LINE
  8
_0-2_線色２__白__
  6
CONTINUOUS
 62
    7
 10
1120.9126152009981
 20
656.68183513603765
 11
1120.7693208606338
 21
656.544417730193
  0
LINE
  8
_0-2_線色２__白__
  6
CONTINUOUS
 62
    7
 10
1121.0632902474163
 20
656.80976180935261
 11
1120.9126152009981
 21
656.68183513603765
  0
LINE
  8
_0-2_線色２__白__
  6
CONTINUOUS
 62
    7
 10
1121.2213418187753
 20
656.92631144108475
 11
1121.0632902474163
 21
656.80976180935261
  0
LINE
  8
_0-2_線色２__白__
  6
CONTINUOUS
 62
    7
 10
1121.3867657339665
 20
657.02959772218321
 11
1121.2213418187753
 21
656.92631144108475
  0
LINE
  8
_0-2_線色２__白__
  6
CONTINUOUS
 62
    7
 10
1121.4860879651451
 20
657.0826831941082
 11
1121.3867657339665
 21
657.02959772218321
  0
LINE
  8
_0-2_線色２__白__
  6
CONTINUOUS
 62
    7
 10
1121.5966257912669
 20
657.13429313476411
 11
1121.4860879651451
 21
657.0826831941082
  0
LINE
  8
_0-2_線色２__白__
  6
CONTINUOUS
 62
    7
 10
1121.7931197668645
 20
657.21019266849964
 11
1121.5966257912669
 21
657.13429313476411
  0
LINE
  8
_0-2_線色２__白__
  6
CONTINUOUS
 62
    7
 10
1121.9956729667206
 20
657.27260083539534
 11
1121.7931197668645
 21
657.21019266849964
  0
LINE
  8
_0-2_線色２__白__
  6
CONTINUOUS
 62
    7
 10
1122.2026299159893
 20
657.32508687709981
 11
1121.9956729667206
 21
657.27260083539534
  0
LINE
  8
_0-2_線色２__白__
  6
CONTINUOUS
 62
    7
 10
1122.4123351398271
 20
657.37122003524803
 11
1122.2026299159893
 21
657.32508687709981
  0
LINE
  8
_0-2_線色２__白__
  6
CONTINUOUS
 62
    7
 10
1122.6231331633903
 20
657.41456955148408
 11
1122.4123351398271
 21
657.37122003524803
  0
LINE
  8
_0-2_線色２__白__
  6
CONTINUOUS
 62
    7
 10
1122.7452443947163
 20
657.43984327298278
 11
1122.6231331633903
 21
657.41456955148408
  0
LINE
  8
_0-2_線色２__白__
  6
CONTINUOUS
 62
    7
 10
1122.8528066202534
 20
657.4628250598704
 11
1122.7452443947163
 21
657.43984327298278
  0
LINE
  8
_0-2_線色２__白__
  6
CONTINUOUS
 62
    7
 10
1123.0375261581821
 20
657.50326905744544
 11
1122.8528066202534
 21
657.4628250598704
  0
LINE
  8
_0-2_線色２__白__
  6
CONTINUOUS
 62
    7
 10
1123.221631754202
 20
657.54332672215071
 11
1123.0375261581821
 21
657.50326905744544
  0
LINE
  8
_0-2_線色２__白__
  6
CONTINUOUS
 62
    7
 10
1123.4054877900599
 20
657.5813415481781
 11
1123.221631754202
 21
657.54332672215071
  0
LINE
  8
_0-2_線色２__白__
  6
CONTINUOUS
 62
    7
 10
1123.5894586475001
 20
657.61565702971723
 11
1123.4054877900599
 21
657.5813415481781
  0
LINE
  8
_0-2_線色２__白__
  6
CONTINUOUS
 62
    7
 10
1123.7739087082696
 20
657.64461666095769
 11
1123.5894586475001
 21
657.61565702971723
  0
LINE
  8
_0-2_線色２__白__
  6
CONTINUOUS
 62
    7
 10
1123.8812528998369
 20
657.65830644704295
 11
1123.7739087082696
 21
657.64461666095769
  0
LINE
  8
_0-2_線色２__白__
  6
CONTINUOUS
 62
    7
 10
1124.0278043760713
 20
657.67274305582362
 11
1123.8812528998369
 21
657.65830644704295
  0
LINE
  8
_0-2_線色２__白__
  6
CONTINUOUS
 62
    7
 10
1124.2817695630652
 20
657.68681220382689
 11
1124.0278043760713
 21
657.67274305582362
  0
LINE
  8
_0-2_線色２__白__
  6
CONTINUOUS
 62
    7
 10
1124.5369873524987
 20
657.68844191107348
 11
1124.2817695630652
 21
657.68681220382689
  0
LINE
  8
_0-2_線色２__白__
  6
CONTINUOUS
 62
    7
 10
1124.7930151891296
 20
657.6790958198859
 11
1124.5369873524987
 21
657.68844191107348
  0
LINE
  8
_0-2_線色２__白__
  6
CONTINUOUS
 62
    7
 10
1125.0494105177108
 20
657.66023757258665
 11
1124.7930151891296
 21
657.6790958198859
  0
LINE
  8
_0-2_線色２__白__
  6
CONTINUOUS
 62
    7
 10
1125.3057307829954
 20
657.63333081149824
 11
1125.0494105177108
 21
657.66023757258665
  0
LINE
  8
_0-2_線色２__白__
  6
CONTINUOUS
 62
    7
 10
1125.4541877530778
 20
657.61461381223
 11
1125.3057307829954
 21
657.63333081149824
  0
LINE
  8
_0-2_線色２__白__
  6
CONTINUOUS
 62
    7
 10
1125.5769566011077
 20
657.59756044619792
 11
1125.4541877530778
 21
657.61461381223
  0
LINE
  8
_0-2_線色２__白__
  6
CONTINUOUS
 62
    7
 10
1125.7877996446655
 20
657.56420773056163
 11
1125.5769566011077
 21
657.59756044619792
  0
LINE
  8
_0-2_線色２__白__
  6
CONTINUOUS
 62
    7
 10
1125.9969790363743
 20
657.52458313545105
 11
1125.7877996446655
 21
657.56420773056163
  0
LINE
  8
_0-2_線色２__白__
  6
CONTINUOUS
 62
    7
 10
1126.2037781131812
 20
657.47720826172156
 11
1125.9969790363743
 21
657.52458313545105
  0
LINE
  8
_0-2_線色２__白__
  6
CONTINUOUS
 62
    7
 10
1126.4074802120399
 20
657.42060471022398
 11
1126.2037781131812
 21
657.47720826172156
  0
LINE
  8
_0-2_線色２__白__
  6
CONTINUOUS
 62
    7
 10
1126.6073686698951
 20
657.35329408180917
 11
1126.4074802120399
 21
657.42060471022398
  0
LINE
  8
_0-2_線色２__白__
  6
CONTINUOUS
 62
    7
 10
1126.7212741626349
 20
657.30876536854396
 11
1126.6073686698951
 21
657.35329408180917
  0
LINE
  8
_0-2_線色２__白__
  6
CONTINUOUS
 62
    7
 10
1126.8226704238032
 20
657.26488309762374
 11
1126.7212741626349
 21
657.30876536854396
  0
LINE
  8
_0-2_線色２__白__
  6
CONTINUOUS
 62
    7
 10
1126.994268521405
 20
657.18137491711389
 11
1126.8226704238032
 21
657.26488309762374
  0
LINE
  8
_0-2_線色２__白__
  6
CONTINUOUS
 62
    7
 10
1127.1617261634378
 20
657.08875452182667
 11
1126.994268521405
 21
657.18137491711389
  0
LINE
  8
_0-2_線色２__白__
  6
CONTINUOUS
 62
    7
 10
1127.3249728206633
 20
656.9879792904004
 11
1127.1617261634378
 21
657.08875452182667
  0
LINE
  8
_0-2_線色２__白__
  6
CONTINUOUS
 62
    7
 10
1127.4839379638547
 20
656.88000660146884
 11
1127.3249728206633
 21
656.9879792904004
  0
LINE
  8
_0-2_線色２__白__
  6
CONTINUOUS
 62
    7
 10
1127.6385510637738
 20
656.76579383367027
 11
1127.4839379638547
 21
656.88000660146884
  0
LINE
  8
_0-2_線色２__白__
  6
CONTINUOUS
 62
    7
 10
1127.7262047633167
 20
656.69706848117414
 11
1127.6385510637738
 21
656.76579383367027
  0
LINE
  8
_0-2_線色２__白__
  6
CONTINUOUS
 62
    7
 10
1127.8234322049025
 20
656.61751867389341
 11
1127.7262047633167
 21
656.69706848117414
  0
LINE
  8
_0-2_線色２__白__
  6
CONTINUOUS
 62
    7
 10
1127.9869570482856
 20
656.47605542106533
 11
1127.8234322049025
 21
656.61751867389341
  0
LINE
  8
_0-2_線色２__白__
  6
CONTINUOUS
 62
    7
 10
1128.1458710043921
 20
656.32982869066893
 11
1127.9869570482856
 21
656.47605542106533
  0
LINE
  8
_0-2_線色２__白__
  6
CONTINUOUS
 62
    7
 10
1128.3008600838934
 20
656.17964105174735
 11
1128.1458710043921
 21
656.32982869066893
  0
LINE
  8
_0-2_線色２__白__
  6
CONTINUOUS
 62
    7
 10
1128.4526102974655
 20
656.02629507334825
 11
1128.3008600838934
 21
656.17964105174735
  0
LINE
  8
_0-2_線色２__白__
  6
CONTINUOUS
 62
    7
 10
1128.6018076557707
 20
655.87059332451474
 11
1128.4526102974655
 21
656.02629507334825
  0
LINE
  8
_0-2_線色２__白__
  6
CONTINUOUS
 62
    7
 10
1128.6874427291855
 20
655.77952315011601
 11
1128.6018076557707
 21
655.87059332451474
  0
LINE
  8
_0-2_線色２__白__
  6
CONTINUOUS
 62
    7
 10
1128.7687986270998
 20
655.69210005710886
 11
1128.6874427291855
 21
655.77952315011601
  0
LINE
  8
_0-2_線色２__白__
  6
CONTINUOUS
 62
    7
 10
1128.9078477224075
 20
655.54035481385483
 11
1128.7687986270998
 21
655.69210005710886
  0
LINE
  8
_0-2_線色２__白__
  6
CONTINUOUS
 62
    7
 10
1129.0451116192298
 20
655.38697482676582
 11
1128.9078477224075
 21
655.54035481385483
  0
LINE
  8
_0-2_線色２__白__
  6
CONTINUOUS
 62
    7
 10
1129.1803097573597
 20
655.23155433330032
 11
1129.0451116192298
 21
655.38697482676582
  0
LINE
  8
_0-2_線色２__白__
  6
CONTINUOUS
 62
    7
 10
1129.3131615765788
 20
655.07368757091001
 11
1129.1803097573597
 21
655.23155433330032
  0
LINE
  8
_0-2_線色２__白__
  6
CONTINUOUS
 62
    7
 10
1129.4433865166843
 20
654.91296877704883
 11
1129.3131615765788
 21
655.07368757091001
  0
LINE
  8
_0-2_線色２__白__
  6
CONTINUOUS
 62
    7
 10
1129.5176027906177
 20
654.8182851842472
 11
1129.4433865166843
 21
654.91296877704883
  0
LINE
  8
_0-2_線色２__白__
  6
CONTINUOUS
 62
    7
 10
1129.5798103702987
 20
654.73691733704129
 11
1129.5176027906177
 21
654.8182851842472
  0
LINE
  8
_0-2_線色２__白__
  6
CONTINUOUS
 62
    7
 10
1129.6845097086157
 20
654.59448815624512
 11
1129.5798103702987
 21
654.73691733704129
  0
LINE
  8
_0-2_線色２__白__
  6
CONTINUOUS
 62
    7
 10
1129.7847588057584
 20
654.44912711447216
 11
1129.6845097086157
 21
654.59448815624512
  0
LINE
  8
_0-2_線色２__白__
  6
CONTINUOUS
 62
    7
 10
1129.879143794908
 20
654.30057459867214
 11
1129.7847588057584
 21
654.44912711447216
  0
LINE
  8
_0-2_線色２__白__
  6
CONTINUOUS
 62
    7
 10
1129.9662508092342
 20
654.14857099579251
 11
1129.879143794908
 21
654.30057459867214
  0
LINE
  8
_0-2_線色２__白__
  6
CONTINUOUS
 62
    7
 10
1130.0446659819158
 20
653.99285669277845
 11
1129.9662508092342
 21
654.14857099579251
  0
LINE
  8
_0-2_線色２__白__
  6
CONTINUOUS
 62
    7
 10
1130.0856070431792
 20
653.90073985318907
 11
1130.0446659819158
 21
653.99285669277845
  0
LINE
  8
_0-2_線色２__白__
  6
CONTINUOUS
 62
    7
 10
1130.1328307414701
 20
653.78077475019666
 11
1130.0856070431792
 21
653.90073985318907
  0
LINE
  8
_0-2_線色２__白__
  6
CONTINUOUS
 62
    7
 10
1130.2017458844603
 20
653.56922181837547
 11
1130.1328307414701
 21
653.78077475019666
  0
LINE
  8
_0-2_線色２__白__
  6
CONTINUOUS
 62
    7
 10
1130.2573342819915
 20
653.35264240971867
 11
1130.2017458844603
 21
653.56922181837547
  0
LINE
  8
_0-2_線色２__白__
  6
CONTINUOUS
 62
    7
 10
1130.3025057038144
 20
653.13213400824736
 11
1130.2573342819915
 21
653.35264240971867
  0
LINE
  8
_0-2_線色２__白__
  6
CONTINUOUS
 62
    7
 10
1130.3401699196797
 20
652.90879409798947
 11
1130.3025057038144
 21
653.13213400824736
  0
LINE
  8
_0-2_線色２__白__
  6
CONTINUOUS
 62
    7
 10
1130.3732366993404
 20
652.68372016297064
 11
1130.3401699196797
 21
652.90879409798947
  0
LINE
  8
_0-2_線色２__白__
  6
CONTINUOUS
 62
    7
 10
1130.3914554868652
 20
652.55281521629115
 11
1130.3732366993404
 21
652.68372016297064
  0
LINE
  8
_0-7_ビス
  6
CONTINUOUS
 62
    4
 10
1134.6664347683486
 20
573.05281521628956
 11
1140.8047100452563
 21
574.69761499009962
  0
LINE
  8
_0-7_ビス
  6
CONTINUOUS
 62
    4
 10
1133.8047100452559
 20
574.82190921001177
 11
1140.8047100452563
 21
576.69761499010008
  0
LINE
  8
_0-7_ビス
  6
CONTINUOUS
 62
    4
 10
1133.8047100452559
 20
587.1281297393881
 11
1140.8047100452563
 21
589.00383551947755
  0
LINE
  8
_0-7_ビス
  6
CONTINUOUS
 62
    4
 10
1133.8047100452559
 20
585.12812973938765
 11
1140.8047100452563
 21
587.00383551947709
  0
LINE
  8
_0-7_ビス
  6
CONTINUOUS
 62
    4
 10
1133.8047100452559
 20
583.12812973938833
 11
1140.8047100452563
 21
585.00383551947664
  0
LINE
  8
_0-7_ビス
  6
CONTINUOUS
 62
    4
 10
1133.8047100452559
 20
581.12812973938787
 11
1140.8047100452563
 21
583.00383551947618
  0
LINE
  8
_0-7_ビス
  6
CONTINUOUS
 62
    4
 10
1133.8047100452559
 20
579.12812973938856
 11
1140.8047100452563
 21
581.00383551947687
  0
LINE
  8
_0-7_ビス
  6
CONTINUOUS
 62
    4
 10
1133.8047100452559
 20
577.1281297393881
 11
1140.8047100452563
 21
579.00383551947641
  0
LINE
  8
_0-7_ビス
  6
CONTINUOUS
 62
    4
 10
1133.8047100452559
 20
599.43435026876557
 11
1140.8047100452563
 21
601.31005604885388
  0
LINE
  8
_0-7_ビス
  6
CONTINUOUS
 62
    4
 10
1133.8047100452559
 20
597.43435026876512
 11
1140.8047100452563
 21
599.31005604885343
  0
LINE
  8
_0-7_ビス
  6
CONTINUOUS
 62
    4
 10
1133.8047100452559
 20
595.43435026876466
 11
1140.8047100452563
 21
597.31005604885411
  0
LINE
  8
_0-7_ビス
  6
CONTINUOUS
 62
    4
 10
1133.8047100452559
 20
593.43435026876534
 11
1140.8047100452563
 21
595.31005604885365
  0
LINE
  8
_0-7_ビス
  6
CONTINUOUS
 62
    4
 10
1133.8047100452559
 20
591.43435026876489
 11
1140.8047100452563
 21
593.3100560488532
  0
LINE
  8
_0-7_ビス
  6
CONTINUOUS
 62
    4
 10
1133.8047100452559
 20
589.43435026876557
 11
1140.8047100452563
 21
591.31005604885388
  0
LINE
  8
_0-7_ビス
  6
CONTINUOUS
 62
    4
 10
1133.8047100452559
 20
611.7405707981419
 11
1140.8047100452563
 21
613.61627657823135
  0
LINE
  8
_0-7_ビス
  6
CONTINUOUS
 62
    4
 10
1133.8047100452559
 20
609.74057079814145
 11
1140.8047100452563
 21
611.6162765782309
  0
LINE
  8
_0-7_ビス
  6
CONTINUOUS
 62
    4
 10
1133.8047100452559
 20
607.74057079814213
 11
1140.8047100452563
 21
609.61627657823044
  0
LINE
  8
_0-7_ビス
  6
CONTINUOUS
 62
    4
 10
1133.8047100452559
 20
605.74057079814168
 11
1140.8047100452563
 21
607.61627657823112
  0
LINE
  8
_0-7_ビス
  6
CONTINUOUS
 62
    4
 10
1133.8047100452559
 20
603.74057079814236
 11
1140.8047100452563
 21
605.61627657823067
  0
LINE
  8
_0-7_ビス
  6
CONTINUOUS
 62
    4
 10
1133.8047100452559
 20
601.7405707981419
 11
1140.8047100452563
 21
603.61627657823021
  0
LINE
  8
_0-7_ビス
  6
CONTINUOUS
 62
    4
 10
1133.8047100452559
 20
624.04679132751937
 11
1140.8047100452563
 21
625.92249710760882
  0
LINE
  8
_0-7_ビス
  6
CONTINUOUS
 62
    4
 10
1133.8047100452559
 20
622.04679132751892
 11
1140.8047100452563
 21
623.92249710760609
  0
LINE
  8
_0-7_ビス
  6
CONTINUOUS
 62
    4
 10
1133.8047100452559
 20
620.04679132751846
 11
1140.8047100452563
 21
621.92249710760791
  0
LINE
  8
_0-7_ビス
  6
CONTINUOUS
 62
    4
 10
1133.8047100452559
 20
618.04679132751914
 11
1140.8047100452563
 21
619.92249710760746
  0
LINE
  8
_0-7_ビス
  6
CONTINUOUS
 62
    4
 10
1133.8047100452559
 20
616.04679132751869
 11
1140.8047100452563
 21
617.922497107607
  0
LINE
  8
_0-7_ビス
  6
CONTINUOUS
 62
    4
 10
1133.8047100452559
 20
614.04679132751937
 11
1140.8047100452563
 21
615.92249710760768
  0
LINE
  8
_0-7_ビス
  6
CONTINUOUS
 62
    4
 10
1133.8047100452559
 20
626.35301185689571
 11
1138.2822904871955
 21
627.55281521629115
  0
LINE
  8
_0-7_ビス
  6
CONTINUOUS
 62
    7
 10
1140.8047100452563
 20
627.55281521629115
 11
1133.8047100452559
 21
627.55281521629115
  0
LINE
  8
_0-7_ビス
  6
CONTINUOUS
 62
    7
 10
1140.8047100452563
 20
638.83977270692924
 11
1140.8047100452563
 21
569.57354115845362
  0
LINE
  8
_0-7_ビス
  6
CONTINUOUS
 62
    7
 10
1140.8047100452563
 20
569.57354115845362
 11
1137.304710045255
 21
567.55281521629001
  0
LINE
  8
_0-7_ビス
  6
CONTINUOUS
 62
    7
 10
1140.8047100452563
 20
573.05281521628956
 11
1133.8047100452559
 21
573.05281521628956
  0
LINE
  8
_0-7_ビス
  6
CONTINUOUS
 62
    7
 10
1133.8047100452559
 20
638.83977270692924
 11
1133.8047100452559
 21
569.57354115845249
  0
LINE
  8
_0-7_ビス
  6
CONTINUOUS
 62
    7
 10
1133.8047100452559
 20
569.57354115845249
 11
1137.304710045255
 21
567.55281521629001
  0
LINE
  8
_0-7_ビス
  6
CONTINUOUS
 62
    7
 10
1140.8047100452563
 20
638.55281521629024
 11
1133.8047100452559
 21
638.55281521629024
  0
ARC
  8
_0-7_ビス
  6
CONTINUOUS
 62
    7
 10
1131.8047100452554
 20
638.83977270692924
 40
2
 50
0
 51
44.999999999998501
  0
LINE
  8
_0-7_ビス
  6
CONTINUOUS
 62
    7
 10
1133.2189236076283
 20
640.25398626929984
 11
1131.3047100452559
 21
642.16819983167454
  0
ARC
  8
_0-7_ビス
  6
CONTINUOUS
 62
    7
 10
1142.8047100452545
 20
638.83977270692924
 40
2
 50
135.00000000000153
 51
180.00000000000003
  0
LINE
  8
_0-7_ビス
  6
CONTINUOUS
 62
    7
 10
1141.3904964828816
 20
640.25398626929984
 11
1143.3047100452563
 21
642.16819983167454
  0
ARC
  8
_0-7_ビス
  6
DASHED3
 62
    7
 10
1137.304710045255
 20
641.11398878372768
 40
1.8403175392666382
 50
217.11750793457031
 51
322.88247680664062
  0
LINE
  8
_0-7_ビス
  6
CONTINUOUS
 62
    7
 10
1143.3047100452563
 20
642.55281521629115
 11
1131.3047100452559
 21
642.55281521629115
  0
LINE
  8
_0-7_ビス
  6
CONTINUOUS
 62
    7
 10
1143.3047100452563
 20
642.16819983167454
 11
1131.3047100452559
 21
642.16819983167454
  0
LINE
  8
_0-7_ビス
  6
DASHED3
 62
    7
 10
1135.8372419290004
 20
640.00344568546154
 11
1134.7546942091071
 21
642.55281521629115
  0
LINE
  8
_0-7_ビス
  6
CONTINUOUS
 62
    7
 10
1131.3047100452559
 20
642.16819983167454
 11
1131.3047100452559
 21
642.55281521629115
  0
LINE
  8
_0-7_ビス
  6
DASHED3
 62
    7
 10
1138.7721781615096
 20
640.00344568546154
 11
1139.8547258814028
 21
642.55281521629115
  0
LINE
  8
_0-7_ビス
  6
CONTINUOUS
 62
    7
 10
1143.3047100452563
 20
642.16819983167454
 11
1143.3047100452563
 21
642.55281521629115
  0
LINE
  8
ADD_LINE
  6
DOT
 62
    4
 10
1137.304710045255
 20
559.43345055433895
 11
1137.304710045255
 21
649.05017029695557
  0
LINE
  8
_0-6_鋼板__アングル
  6
CONTINUOUS
 62
    2
 10
1117.3206760394646
 20
641.35281521628997
 11
1117.3206760394646
 21
640.15281521628879
  0
LINE
  8
_0-6_鋼板__アングル
  6
CONTINUOUS
 62
    2
 10
1117.3206760394646
 20
640.15281521628879
 11
1114.6206760394648
 21
640.15281521628879
  0
LINE
  8
_0-6_鋼板__アングル
  6
CONTINUOUS
 62
    2
 10
1114.6206760394648
 20
640.15281521628879
 11
1111.8162113678704
 21
639.40136117233408
  0
ARC
  8
_0-6_鋼板__アングル
  6
CONTINUOUS
 62
    2
 10
1111.5056285137462
 20
640.56047216387981
 40
1.2000000000000002
 50
105.00000000000549
 51
285.00000000000546
  0
LINE
  8
_0-6_鋼板__アングル
  6
CONTINUOUS
 62
    2
 10
1114.3047100452554
 20
642.55281521629115
 11
1111.1950456596219
 21
641.71958315542781
  0
LINE
  8
_0-6_鋼板__アングル
  6
CONTINUOUS
 62
    2
 10
1130.8047100452563
 20
642.55281521629115
 11
1114.3047100452554
 21
642.55281521629115
  0
LINE
  8
_0-6_鋼板__アングル
  6
CONTINUOUS
 62
    2
 10
1130.3465346707094
 20
641.35281521628997
 11
1114.4626930423601
 21
641.35281521628997
  0
LINE
  8
_0-6_鋼板__アングル
  6
CONTINUOUS
 62
    2
 10
1111.5056285137462
 20
640.56047216387981
 11
1114.4626930423601
 21
641.35281521628997
  0
LINE
  8
_0-6_鋼板__アングル
  6
CONTINUOUS
 62
    2
 10
1159.9887440510452
 20
640.15281521628879
 11
1162.7932087226395
 21
639.40136117233408
  0
LINE
  8
_0-6_鋼板__アングル
  6
CONTINUOUS
 62
    2
 10
1157.2887440510453
 20
640.15281521628879
 11
1159.9887440510452
 21
640.15281521628879
  0
ARC
  8
_0-6_鋼板__アングル
  6
CONTINUOUS
 62
    2
 10
1163.1037915767638
 20
640.56047216387981
 40
1.2000000000000006
 50
254.99999999999449
 51
74.9999999999945
  0
LINE
  8
_0-6_鋼板__アングル
  6
CONTINUOUS
 62
    2
 10
1160.3047100452545
 20
642.55281521629115
 11
1163.4143744308881
 21
641.71958315542781
  0
LINE
  8
_0-6_鋼板__アングル
  6
CONTINUOUS
 62
    2
 10
1143.8047100452536
 20
642.55281521629115
 11
1160.3047100452545
 21
642.55281521629115
  0
LINE
  8
_0-6_鋼板__アングル
  6
CONTINUOUS
 62
    2
 10
1163.1037915767638
 20
640.56047216387981
 11
1160.1467270481498
 21
641.35281521628997
  0
LINE
  8
_0-6_鋼板__アングル
  6
CONTINUOUS
 62
    2
 10
1144.2628854198006
 20
641.35281521628997
 11
1160.1467270481498
 21
641.35281521628997
  0
LINE
  8
ADD_LINE
  6
DOT
 62
    4
 10
1111.5056285137462
 20
640.56047216387981
 11
1108.2961779356606
 21
640.56047216387981
  0
LINE
  8
ADD_LINE
  6
DOT
 62
    4
 10
1110.305628513745
 20
638.75281521629006
 11
1110.305628513745
 21
642.55281521629115
  0
LINE
  8
ADD_LINE
  6
DOT
 62
    4
 10
1137.304710045255
 20
627.70566755164111
 11
1137.304710045255
 21
661.89002374170343
  0
LINE
  8
_0-6_鋼板__アングル
  6
CONTINUOUS
 62
    2
 10
1157.2887440510453
 20
641.35281521628997
 11
1157.2887440510453
 21
640.15281521628879
  0
LINE
  8
_0-6_鋼板__アングル
  6
CONTINUOUS
 62
    4
 10
1133.2549878032205
 20
638.75281521629006
 11
1141.3544322872895
 21
638.75281521629006
  0
LINE
  8
_0-6_鋼板__アングル
  6
CONTINUOUS
 62
    4
 10
1134.0547100452545
 20
639.64741316243874
 11
1140.5546714863181
 21
639.64741316243874
  0
LINE
  8
_0-6_鋼板__アングル
  6
CONTINUOUS
 62
    2
 10
1144.2628854198006
 20
641.35281521628997
 11
1141.3544322872895
 21
638.75281521629006
  0
LINE
  8
_0-6_鋼板__アングル
  6
CONTINUOUS
 62
    2
 10
1141.3544322872895
 20
638.75281521629006
 11
1140.5546714863181
 21
639.6474562958457
  0
LINE
  8
_0-6_鋼板__アングル
  6
CONTINUOUS
 62
    2
 10
1143.8047100452536
 20
642.55281521629115
 11
1140.5546714863181
 21
639.6474562958457
  0
LINE
  8
_0-6_鋼板__アングル
  6
CONTINUOUS
 62
    2
 10
1130.3465346707094
 20
641.35281521628997
 11
1133.2549878032205
 21
638.75281521629006
  0
LINE
  8
_0-6_鋼板__アングル
  6
CONTINUOUS
 62
    2
 10
1133.2549878032205
 20
638.75281521629006
 11
1134.0547486041919
 21
639.6474562958457
  0
LINE
  8
_0-6_鋼板__アングル
  6
CONTINUOUS
 62
    2
 10
1130.8047100452563
 20
642.55281521629115
 11
1134.0547486041919
 21
639.6474562958457
  0
LINE
  8
_0-6_鋼板__アングル
  6
CONTINUOUS
 62
    4
 10
1143.8047100452536
 20
642.55281521629115
 11
1130.8047100452563
 21
642.55281521629115
  0
LINE
  8
_0-5_金属
  6
CONTINUOUS
 62
    7
 10
972.89506880509612
 20
548.75301446863591
 11
1020.6592230637034
 21
548.75301446863591
  0
LINE
  8
_0-6_鋼板__アングル
  6
CONTINUOUS
 62
    2
 10
944.295628299692
 20
830.35281521629202
 11
944.295628299692
 21
722.78901521629166
  0
LINE
  8
_0-6_鋼板__アングル
  6
CONTINUOUS
 62
    2
 10
942.69562829968891
 20
722.78901521629166
 11
944.295628299692
 21
722.78901521629166
  0
LINE
  8
_0-6_鋼板__アングル
  6
CONTINUOUS
 62
    2
 10
942.69562829968891
 20
830.35281521629202
 11
942.69562829968891
 21
722.78901521629166
  0
LINE
  8
_0-6_鋼板__アングル
  6
CONTINUOUS
 62
    2
 10
959.29762829968695
 20
600.35281521629088
 11
959.29762829968695
 21
598.75281521629006
  0
LINE
  8
_0-6_鋼板__アングル
  6
CONTINUOUS
 62
    2
 10
959.29762829968695
 20
598.75281521629006
 11
1194.295628299692
 21
598.75281521629006
  0
LINE
  8
_0-6_鋼板__アングル
  6
CONTINUOUS
 62
    2
 10
959.29762829968695
 20
600.35281521629088
 11
1194.295628299692
 21
600.35281521629088
  0
LINE
  8
_0-6_鋼板__アングル
  6
CONTINUOUS
 62
    2
 10
1194.295628299692
 20
600.35281521629088
 11
1194.295628299692
 21
598.75281521629006
  0
LINE
  8
_0-6_鋼板__アングル
  6
CONTINUOUS
 62
    2
 10
942.69562829968891
 20
830.35281521629202
 11
944.295628299692
 21
830.35281521629202
  0
LINE
  8
_0-a_文字
  6
CONTINUOUS
 62
    7
 10
1179.913064731008
 20
616.25281521629006
 11
1236.2047159769963
 21
713.7528152162912
  0
LINE
  8
_0-2_線色２__白__
  6
CONTINUOUS
 62
    7
 10
1194.295628299692
 20
598.75281521629006
 11
1296.7769282996896
 21
598.75281521629006
  0
LINE
  8
_0-a_文字
  6
CONTINUOUS
 62
    7
 10
1042.7900103432896
 20
577.32537922961251
 11
1073.7201445962123
 21
523.75281521862178
  0
LINE
  8
_0-a_文字
  6
CONTINUOUS
 62
    7
 10
1004.4381122948022
 20
598.75281521629006
 11
1073.7201445962123
 21
478.75281521862178
  0
TEXT
  8
_0-a_文字
 62
    7
 10
1098.7201445962112
 20
471.25281521862178
 40
14.999999999999858
 41
1.0000000000000187
 50
0
  1
横型ドレイン用補強鋼板 t=1.6
  0
LINE
  8
_0-a_文字
  6
CONTINUOUS
 62
    7
 10
1073.7201445962123
 20
478.75281521862178
 11
1093.7201445962123
 21
478.75281521862178
  0
TEXT
  8
_0-a_文字
 62
    7
 10
1098.7201445962103
 20
496.25281521862178
 40
14.999999999999858
 41
1.0000000000000091
 50
0
  1
（別途工事）
  0
TEXT
  8
_0-a_文字
 62
    7
 10
1098.7201445962105
 20
516.25281521862178
 40
14.999999999999858
 41
1.0000000000000069
 50
0
  1
耐火デッキプレート t=1.2以上
  0
LINE
  8
_0-a_文字
  6
CONTINUOUS
 62
    7
 10
1073.7201445962123
 20
523.75281521862178
 11
1093.7201445962123
 21
523.75281521862178
  0
LINE
  8
_0-5_金属
  6
CONTINUOUS
 62
    7
 10
1272.8948282996896
 20
549.95301521862132
 11
1296.7769282996896
 21
549.95301521862132
  0
LINE
  8
_0-5_金属
  6
CONTINUOUS
 62
    7
 10
1272.8948282996896
 20
548.75281521862178
 11
1296.7769282996896
 21
548.75281521862178
  0
LINE
  8
ADD_LINE
  6
DOT
 62
    4
 10
1109.6944782996893
 20
614.84636521862171
 11
1109.6944782996893
 21
504.36565658201744
  0
LINE
  8
ADD_LINE
  6
DOT
 62
    4
 10
959.69417829968961
 20
580.46486521862164
 11
959.69417829968961
 21
504.36565658201744
  0
LINE
  8
ADD_LINE
  6
DOT
 62
    4
 10
1259.6941782996896
 20
580.46486521862164
 11
1259.6941782996896
 21
504.36565658201744
  0
ARC
  8
_0-5_金属
  6
CONTINUOUS
 62
    7
 10
1123.4414782996892
 20
595.75281521862166
 40
1.7999992
 50
89.999435000000005
 51
135.11660000000001
  0
ARC
  8
_0-5_金属
  6
CONTINUOUS
 62
    7
 10
1123.4412282996891
 20
595.75281521862166
 40
3.0000000000000004
 50
89.997741000000005
 51
135.11528999999999
  0
ARC
  8
_0-5_金属
  6
CONTINUOUS
 62
    7
 10
1095.9487782996889
 20
595.75281521862166
 40
3.0000000000000004
 50
44.881701999999997
 51
89.998013999999998
  0
ARC
  8
_0-5_金属
  6
CONTINUOUS
 62
    7
 10
1095.9487782996889
 20
595.75281521862166
 40
1.7999992
 50
44.880642999999999
 51
89.996648000000008
  0
ARC
  8
_0-5_金属
  6
CONTINUOUS
 62
    7
 10
1109.694878299689
 20
588.75256521862184
 40
1.79999825
 50
224.57187999999999
 51
315.11669999999998
  0
ARC
  8
_0-5_金属
  6
CONTINUOUS
 62
    7
 10
1109.694878299689
 20
588.75256521862184
 40
2.9999989999999999
 50
224.88328000000001
 51
315.11669999999998
  0
ARC
  8
_0-5_金属
  6
CONTINUOUS
 62
    7
 10
947.09552829968914
 20
557.35291521862166
 40
4.4001951000000004
 50
180.00009000000003
 51
216.22041000000002
  0
ARC
  8
_0-5_金属
  6
CONTINUOUS
 62
    7
 10
947.09552829968914
 20
557.35291521862166
 40
3.2001952999999999
 50
180.00009000000003
 51
216.22260000000003
  0
ARC
  8
_0-5_金属
  6
CONTINUOUS
 62
    7
 10
945.89507829968966
 20
558.55286521862183
 40
1.9999990000000001
 50
89.999927
 51
179.99990000000003
  0
ARC
  8
_0-5_金属
  6
CONTINUOUS
 62
    7
 10
945.89507829968966
 20
558.55286521862183
 40
3.1999998000000001
 50
89.999927
 51
179.99990000000003
  0
ARC
  8
_0-5_金属
  6
CONTINUOUS
 62
    7
 10
1048.7249282996891
 20
595.75281521862166
 40
3.0000000000000004
 50
90.000200000000021
 51
144.05016000000001
  0
ARC
  8
_0-5_金属
  6
CONTINUOUS
 62
    7
 10
1048.7249282996891
 20
595.75281521862166
 40
1.7999992
 50
90.000364000000005
 51
144.05026999999998
  0
ARC
  8
_0-5_金属
  6
CONTINUOUS
 62
    7
 10
1020.6592282996894
 20
551.75306521862183
 40
2.9999989999999999
 50
269.99990000000003
 51
324.21600000000001
  0
ARC
  8
_0-5_金属
  6
CONTINUOUS
 62
    7
 10
1020.6592282996894
 20
551.75306521862183
 40
1.7999992
 50
269.99990000000003
 51
324.21600000000001
  0
ARC
  8
_0-5_金属
  6
CONTINUOUS
 62
    7
 10
1040.6948782996892
 20
579.75281521862144
 40
1.9000091499999998
 50
0.000035
 51
85.418946000000005
  0
ARC
  8
_0-5_金属
  6
CONTINUOUS
 62
    7
 10
1040.8948282996892
 20
584.75281521862144
 40
1.8999938500000002
 50
180.00009000000003
 51
265.42237
  0
ARC
  8
_0-5_金属
  6
CONTINUOUS
 62
    7
 10
1040.5947782996896
 20
579.75281521862144
 40
3.2000122000000002
 50
324.21611000000001
 51
359.99995999999999
  0
ARC
  8
_0-5_金属
  6
CONTINUOUS
 62
    7
 10
1040.8948282996892
 20
584.75281521862144
 40
3.0999907999999996
 50
180.00009000000003
 51
265.41831999999999
  0
ARC
  8
_0-5_金属
  6
CONTINUOUS
 62
    7
 10
1040.6948782996892
 20
579.75281521862144
 40
3.1000213500000005
 50
0.000035
 51
85.42326300000002
  0
ARC
  8
_0-5_金属
  6
CONTINUOUS
 62
    7
 10
1040.5947782996896
 20
579.75281521862144
 40
2.0000114
 50
323.92410000000001
 51
359.99995999999999
  0
ARC
  8
_0-5_金属
  6
CONTINUOUS
 62
    7
 10
1040.9949282996895
 20
584.75281521862144
 40
1.9999961500000007
 50
144.05027000000001
 51
179.99995999999999
  0
ARC
  8
_0-5_金属
  6
CONTINUOUS
 62
    7
 10
1040.9949282996895
 20
584.75281521862144
 40
3.1999969500000001
 50
144.05005000000003
 51
179.99995999999999
  0
ARC
  8
_0-5_金属
  6
CONTINUOUS
 62
    7
 10
973.49492829968938
 20
558.55286521862183
 40
3.1999998000000001
 50
303.11781999999999
 51
359.99995999999999
  0
ARC
  8
_0-5_金属
  6
CONTINUOUS
 62
    7
 10
973.49492829968938
 20
558.55286521862183
 40
1.9999990000000001
 50
303.11781999999999
 51
359.99995999999999
  0
ARC
  8
_0-5_金属
  6
CONTINUOUS
 62
    7
 10
972.89507829968954
 20
551.95301521862177
 40
2
 50
123.11782000000001
 51
269.99982999999997
  0
ARC
  8
_0-5_金属
  6
CONTINUOUS
 62
    7
 10
973.49492829968938
 20
558.55286521862183
 40
1.9999990000000001
 50
0.000035
 51
89.999927
  0
ARC
  8
_0-5_金属
  6
CONTINUOUS
 62
    7
 10
973.49492829968938
 20
558.55286521862183
 40
3.1999998000000001
 50
0.000035
 51
89.999927
  0
ARC
  8
_0-5_金属
  6
CONTINUOUS
 62
    7
 10
972.89507829968954
 20
551.95301521862177
 40
3.2000007500000005
 50
123.11782000000001
 51
269.99982999999997
  0
ARC
  8
_0-5_金属
  6
CONTINUOUS
 62
    7
 10
1170.6646282996894
 20
595.75281521862166
 40
3.0000000000000004
 50
35.949770999999998
 51
89.999654000000007
  0
ARC
  8
_0-5_金属
  6
CONTINUOUS
 62
    7
 10
1170.6646282996894
 20
595.75281521862166
 40
1.7999992
 50
35.949661999999996
 51
89.999489999999994
  0
ARC
  8
_0-5_金属
  6
CONTINUOUS
 62
    7
 10
1198.730528299689
 20
551.75306521862183
 40
2.9999989999999999
 50
215.78405000000001
 51
270.00022999999999
  0
ARC
  8
_0-5_金属
  6
CONTINUOUS
 62
    7
 10
1198.730528299689
 20
551.75306521862183
 40
1.7999992
 50
215.78405000000001
 51
270.00022999999999
  0
ARC
  8
_0-5_金属
  6
CONTINUOUS
 62
    7
 10
1178.6948782996892
 20
579.75281521862144
 40
1.9000091499999998
 50
94.580906999999996
 51
179.9999
  0
ARC
  8
_0-5_金属
  6
CONTINUOUS
 62
    7
 10
1178.494678299689
 20
584.75281521862144
 40
1.8999938500000002
 50
274.57776999999999
 51
359.99995999999999
  0
ARC
  8
_0-5_金属
  6
CONTINUOUS
 62
    7
 10
1178.7947282996897
 20
579.75281521862144
 40
3.2000122000000002
 50
180.00009000000003
 51
215.78394000000003
  0
ARC
  8
_0-5_金属
  6
CONTINUOUS
 62
    7
 10
1178.494678299689
 20
584.75281521862144
 40
3.0999907999999996
 50
274.58181000000002
 51
359.99996000000004
  0
ARC
  8
_0-5_金属
  6
CONTINUOUS
 62
    7
 10
1178.6948782996892
 20
579.75281521862144
 40
3.1000213500000005
 50
94.576591000000008
 51
179.99990000000003
  0
ARC
  8
_0-5_金属
  6
CONTINUOUS
 62
    7
 10
1178.7947282996897
 20
579.75281521862144
 40
2.0000114
 50
180.00009000000003
 51
216.07594000000003
  0
ARC
  8
_0-5_金属
  6
CONTINUOUS
 62
    7
 10
1178.3948282996898
 20
584.75281521862144
 40
1.9999961500000007
 50
0.000035
 51
35.949717000000007
  0
ARC
  8
_0-5_金属
  6
CONTINUOUS
 62
    7
 10
1178.3948282996898
 20
584.75281521862144
 40
3.1999969500000001
 50
0.000035
 51
35.949935000000004
  0
ARC
  8
_0-5_金属
  6
CONTINUOUS
 62
    7
 10
1245.8945782996893
 20
558.55286521862183
 40
3.1999998000000001
 50
180.00009000000003
 51
236.88223000000005
  0
ARC
  8
_0-5_金属
  6
CONTINUOUS
 62
    7
 10
1245.8945782996893
 20
558.55286521862183
 40
1.9999990000000001
 50
180.00009000000003
 51
236.88223000000005
  0
ARC
  8
_0-5_金属
  6
CONTINUOUS
 62
    7
 10
1246.494478299689
 20
551.95301521862177
 40
2
 50
270.00011999999998
 51
56.882114999999992
  0
ARC
  8
_0-5_金属
  6
CONTINUOUS
 62
    7
 10
1245.8945782996893
 20
558.55286521862183
 40
1.9999990000000001
 50
89.999927
 51
179.99990000000003
  0
ARC
  8
_0-5_金属
  6
CONTINUOUS
 62
    7
 10
1245.8945782996893
 20
558.55286521862183
 40
3.1999998000000001
 50
89.999927
 51
179.99990000000003
  0
ARC
  8
_0-5_金属
  6
CONTINUOUS
 62
    7
 10
1246.494478299689
 20
551.95301521862177
 40
3.2000007500000005
 50
270.00011999999998
 51
56.882114999999992
  0
ARC
  8
_0-5_金属
  6
CONTINUOUS
 62
    7
 10
1273.4944782996895
 20
558.55286521862183
 40
3.1999998000000001
 50
303.11786999999998
 51
359.99997999999999
  0
ARC
  8
_0-5_金属
  6
CONTINUOUS
 62
    7
 10
1273.4944782996895
 20
558.55286521862183
 40
1.9999990000000001
 50
303.11786999999998
 51
359.99997999999999
  0
ARC
  8
_0-5_金属
  6
CONTINUOUS
 62
    7
 10
1272.8945782996898
 20
551.95301521862177
 40
2
 50
123.11782000000001
 51
269.99988999999999
  0
ARC
  8
_0-5_金属
  6
CONTINUOUS
 62
    7
 10
1273.4944782996895
 20
558.55286521862183
 40
1.9999990000000001
 50
359.99999000000003
 51
89.999927
  0
ARC
  8
_0-5_金属
  6
CONTINUOUS
 62
    7
 10
1273.4944782996895
 20
558.55286521862183
 40
3.1999998000000001
 50
359.99999000000003
 51
89.999927
  0
ARC
  8
_0-5_金属
  6
CONTINUOUS
 62
    7
 10
1272.8945782996898
 20
551.95301521862177
 40
3.2000007500000005
 50
123.11782000000001
 51
269.99988999999999
  0
LINE
  8
_0-5_金属
  6
CONTINUOUS
 62
    7
 10
1122.1660782996889
 20
597.0230652186217
 11
1111.8206282996891
 21
586.6353652186217
  0
LINE
  8
_0-5_金属
  6
CONTINUOUS
 62
    7
 10
1121.3155782996892
 20
597.86986521862161
 11
1110.9702282996891
 21
587.48231521862181
  0
LINE
  8
_0-5_金属
  6
CONTINUOUS
 62
    7
 10
1107.5692782996896
 20
586.63556521862176
 11
1097.2243282996892
 21
597.02276521862132
  0
LINE
  8
_0-5_金属
  6
CONTINUOUS
 62
    7
 10
1108.4195782996892
 20
587.48236521862168
 11
1098.0745782996894
 21
597.86961521862168
  0
LINE
  8
_0-5_金属
  6
CONTINUOUS
 62
    7
 10
947.09547829968926
 20
557.35296521862153
 11
943.54567829968971
 21
554.75291521862175
  0
LINE
  8
_0-5_金属
  6
CONTINUOUS
 62
    7
 10
942.69587829968884
 20
557.35296521862153
 11
947.09602829968958
 21
557.35296521862153
  0
LINE
  8
_0-5_金属
  6
CONTINUOUS
 62
    7
 10
943.5460282996894
 20
554.75331521862131
 11
944.51427829968964
 21
555.46251521862132
  0
LINE
  8
_0-5_金属
  6
CONTINUOUS
 62
    7
 10
943.89557829968965
 20
558.55286521862183
 11
943.89557829968965
 21
557.35291521862166
  0
LINE
  8
_0-5_金属
  6
CONTINUOUS
 62
    7
 10
945.89532829968903
 20
560.55286521862172
 11
959.69537829968942
 21
560.55286521862172
  0
LINE
  8
_0-5_金属
  6
CONTINUOUS
 62
    7
 10
945.89532829968903
 20
561.75281521862132
 11
959.69537829968942
 21
561.75281521862132
  0
LINE
  8
_0-5_金属
  6
CONTINUOUS
 62
    7
 10
1048.7251782996891
 20
597.5528652186216
 11
1095.9490282996894
 21
597.5528652186216
  0
LINE
  8
_0-5_金属
  6
CONTINUOUS
 62
    7
 10
1048.7251782996891
 20
598.75281521862178
 11
1095.9490282996894
 21
598.75281521862178
  0
LINE
  8
_0-5_金属
  6
CONTINUOUS
 62
    7
 10
972.89532829968891
 20
549.95301521862132
 11
1020.6592282996894
 21
549.95301521862132
  0
LINE
  8
_0-5_金属
  6
CONTINUOUS
 62
    7
 10
1039.3758282996891
 20
585.92716521862144
 11
1047.2678782996895
 21
596.8096652186216
  0
LINE
  8
_0-5_金属
  6
CONTINUOUS
 62
    7
 10
1042.217378299689
 20
578.58346521862131
 11
1022.1193782996892
 21
550.70046521862196
  0
LINE
  8
_0-5_金属
  6
CONTINUOUS
 62
    7
 10
1040.6471782996896
 20
581.6627652186213
 11
1040.8464282996893
 21
581.64676521862191
  0
LINE
  8
_0-5_金属
  6
CONTINUOUS
 62
    7
 10
1040.7431782996896
 20
582.85906521862159
 11
1040.9422782996894
 21
582.84311521862151
  0
LINE
  8
_0-5_金属
  6
CONTINUOUS
 62
    7
 10
1043.1908282996897
 20
577.88186521862144
 11
1023.0928282996894
 21
549.99881521862164
  0
LINE
  8
_0-5_金属
  6
CONTINUOUS
 62
    7
 10
1038.4043782996889
 20
586.6316152186215
 11
1046.2965282996897
 21
597.51416521862154
  0
LINE
  8
_0-5_金属
  6
CONTINUOUS
 62
    7
 10
959.69537829968942
 20
560.55286521862172
 11
973.49517829968931
 21
560.55286521862172
  0
LINE
  8
_0-5_金属
  6
CONTINUOUS
 62
    7
 10
975.24327829968911
 20
555.87286521862154
 11
971.80232829968929
 21
553.62821521862145
  0
LINE
  8
_0-5_金属
  6
CONTINUOUS
 62
    7
 10
974.58767829968906
 20
556.87791521862152
 11
971.14667829968937
 21
554.63321521862156
  0
LINE
  8
_0-5_金属
  6
CONTINUOUS
 62
    7
 10
959.69537829968942
 20
561.75281521862132
 11
973.49517829968931
 21
561.75281521862132
  0
LINE
  8
_0-5_金属
  6
CONTINUOUS
 62
    7
 10
1123.4417282996897
 20
597.5528652186216
 11
1170.6646282996894
 21
597.5528652186216
  0
LINE
  8
_0-5_金属
  6
CONTINUOUS
 62
    7
 10
1123.4414782996892
 20
598.75281521862178
 11
1170.6646282996894
 21
598.75281521862178
  0
LINE
  8
_0-5_金属
  6
CONTINUOUS
 62
    7
 10
1198.730528299689
 20
549.95301521862132
 11
1246.4946782996894
 21
549.95301521862132
  0
LINE
  8
_0-5_金属
  6
CONTINUOUS
 62
    7
 10
1172.1217782996894
 20
596.8096652186216
 11
1180.0139282996888
 21
585.92706521862169
  0
LINE
  8
_0-5_金属
  6
CONTINUOUS
 62
    7
 10
1197.2702782996889
 20
550.70051521862183
 11
1177.1723282996895
 21
578.58356521862163
  0
LINE
  8
_0-5_金属
  6
CONTINUOUS
 62
    7
 10
1178.5430782996889
 20
581.64691521862153
 11
1178.7423782996893
 21
581.66286521862162
  0
LINE
  8
_0-5_金属
  6
CONTINUOUS
 62
    7
 10
1178.4474282996889
 20
582.84306521862163
 11
1178.6465282996892
 21
582.85896521862128
  0
LINE
  8
_0-5_金属
  6
CONTINUOUS
 62
    7
 10
1196.2967782996895
 20
549.99886521862152
 11
1176.1988782996896
 21
577.88186521862144
  0
LINE
  8
_0-5_金属
  6
CONTINUOUS
 62
    7
 10
1173.0932282996896
 20
597.51416521862154
 11
1180.985378299689
 21
586.63151521862176
  0
LINE
  8
_0-5_金属
  6
CONTINUOUS
 62
    7
 10
1198.7608282996894
 20
548.75281521862178
 11
1246.4946782996894
 21
548.75281521862178
  0
LINE
  8
_0-5_金属
  6
CONTINUOUS
 62
    7
 10
1245.8948282996898
 20
560.55286521862172
 11
1259.694878299689
 21
560.55286521862172
  0
LINE
  8
_0-5_金属
  6
CONTINUOUS
 62
    7
 10
1247.5874282996888
 20
553.6281152186217
 11
1244.1464782996889
 21
555.87281521862167
  0
LINE
  8
_0-5_金属
  6
CONTINUOUS
 62
    7
 10
1248.2430782996892
 20
554.63321521862156
 11
1244.8021282996892
 21
556.87786521862165
  0
LINE
  8
_0-5_金属
  6
CONTINUOUS
 62
    7
 10
1245.8948282996898
 20
561.75281521862132
 11
1259.694878299689
 21
561.75281521862132
  0
LINE
  8
_0-5_金属
  6
CONTINUOUS
 62
    7
 10
1259.694878299689
 20
560.55286521862172
 11
1273.4946782996894
 21
560.55286521862172
  0
LINE
  8
_0-5_金属
  6
CONTINUOUS
 62
    7
 10
1275.2430282996893
 20
555.87281521862167
 11
1271.8018782996892
 21
553.62801521862139
  0
LINE
  8
_0-5_金属
  6
CONTINUOUS
 62
    7
 10
1274.5874282996892
 20
556.87781521862178
 11
1271.1462782996891
 21
554.63306521862137
  0
LINE
  8
_0-5_金属
  6
CONTINUOUS
 62
    7
 10
1259.694878299689
 20
561.75281521862132
 11
1273.4946782996894
 21
561.75281521862132
  0
LINE
  8
_0-5_金属
  6
CONTINUOUS
 62
    7
 10
1092.6956282996889
 20
539.75281521862314
 11
1092.6956282996889
 21
548.75281521862178
  0
LINE
  8
_0-5_金属
  6
CONTINUOUS
 62
    7
 10
942.69562829968891
 20
548.75281521862178
 11
1092.6956282996889
 21
548.75281521862178
  0
LINE
  8
_0-5_金属
  6
CONTINUOUS
 62
    7
 10
1020.6956282996907
 20
474.45368545388135
 11
1020.6956282996907
 21
531.75281521862246
  0
LINE
  8
_0-5_金属
  6
CONTINUOUS
 62
    7
 10
1014.6956282996916
 20
531.75281521862246
 11
1014.6956282996916
 21
474.45368545388135
  0
ARC
  8
_0-5_金属
  6
CONTINUOUS
 62
    7
 10
1028.695628299688
 20
531.75281521862246
 40
8
 50
90
 51
180
  0
ARC
  8
_0-5_金属
  6
CONTINUOUS
 62
    7
 10
1006.6956282996898
 20
531.75281521862246
 40
8
 50
0
 51
90
  0
LINE
  8
_0-5_金属
  6
CONTINUOUS
 62
    7
 10
942.69562829968891
 20
539.75281521862314
 11
1006.6956282996898
 21
539.75281521862314
  0
LINE
  8
_0-5_金属
  6
CONTINUOUS
 62
    7
 10
1028.695628299688
 20
539.75281521862314
 11
1092.6956282996889
 21
539.75281521862314
  0
TEXT
  8
_0-a_文字
 62
    7
 10
1261.2047159769954
 20
656.25281521628995
 40
14.999999999999503
 41
1.0000000000000162
 50
0
  1
断熱材
  0
TEXT
  8
_0-a_文字
 62
    7
 10
1261.2047159769941
 20
681.25281521629131
 40
14.999999999999147
 41
1.0000000000000571
 50
0
  1
ラジアルシートＬ６００
  0
LINE
  8
_0-a_文字
  6
CONTINUOUS
 62
    7
 10
1207.3372025175149
 20
663.7528152162912
 11
1256.2047159769963
 21
663.7528152162912
  0
TEXT
  8
_0-a_文字
 62
    7
 10
1261.2047159769966
 20
706.25281521629131
 40
14.999999999999503
 41
1.0000000000000313
 50
0
  1
塩ビシート機械的固定工法
  0
LINE
  8
_0-a_文字
  6
CONTINUOUS
 62
    7
 10
1221.7709592472556
 20
688.7528152162912
 11
1256.2047159769963
 21
688.7528152162912
  0
LINE
  8
_0-a_文字
  6
CONTINUOUS
 62
    7
 10
1236.2047159769963
 20
713.7528152162912
 11
1256.2047159769963
 21
713.7528152162912
  0
TEXT
  8
_0-a_文字
 62
    7
 10
1034.0423222866893
 20
781.2528152162912
 40
15.000000000000213
 41
0.9999999999999796
 50
0
  1
ディッピングドレイン 横型
  0
LINE
  8
_0-a_文字
  6
CONTINUOUS
 62
    7
 10
980.52087257856329
 20
739.35221521629444
 11
1009.0423222866912
 21
788.7528152162912
  0
LINE
  8
_0-a_文字
  6
CONTINUOUS
 62
    7
 10
1009.0423222866912
 20
788.7528152162912
 11
1029.0423222866912
 21
788.7528152162912
  0
LINE
  8
_0-a_文字
  6
CONTINUOUS
 62
    7
 10
1030.3251204342087
 20
620.33083747751505
 11
1113.1298378894007
 21
763.7528152162912
  0
TEXT
  8
_0-a_文字
 62
    7
 10
1138.1298378894007
 20
756.25281521629131
 40
14.999999999999503
 41
1.0000000000000338
 50
0
  1
プルーフシーラー
  0
LINE
  8
_0-a_文字
  6
CONTINUOUS
 62
    7
 10
1113.1298378894007
 20
763.7528152162912
 11
1133.1298378894007
 21
763.7528152162912
  0
LINE
  8
_0-d_断熱__ハッチ
  6
CONTINUOUS
 62
    4
 10
1086.2661934305447
 20
621.60061547855946
 11
1107.5139936928144
 21
600.35281521628974
  0
LINE
  8
_0-d_断熱__ハッチ
  6
CONTINUOUS
 62
    4
 10
1104.1977028739029
 20
631.95337728265883
 11
1135.7982649402675
 21
600.35281521629202
  0
LINE
  8
_0-d_断熱__ハッチ
  6
CONTINUOUS
 62
    4
 10
1158.9668074351948
 20
633.75281521629006
 11
1192.3668074351963
 21
600.35281521629202
  0
LINE
  8
_0-d_断熱__ハッチ
  6
CONTINUOUS
 62
    4
 10
1130.6825361877372
 20
633.75281521629006
 11
1164.0825361877387
 21
600.35281521629088
  0
LINE
  8
_0-d_断熱__ハッチ
  6
CONTINUOUS
 62
    4
 10
1078.0637662217168
 20
600.35281521628974
 11
1111.4637662217137
 21
633.75281521629006
  0
ARC
  8
_0-1_線色１__水色__
  6
CONTINUOUS
 62
    4
 10
1295.8486767824343
 20
635.29448188879257
 40
1.2083333333333179
 50
127.52351320610693
 51
258.54391440641695
  0
ARC
  8
_0-1_線色１__水色__
  6
CONTINUOUS
 62
    4
 10
1284.0729956281803
 20
635.29448188879257
 40
1.2083333333333179
 50
127.52351320610693
 51
52.47648680188081
  0
ARC
  8
_0-1_線色１__水色__
  6
CONTINUOUS
 62
    4
 10
1294.3767166379803
 20
637.21114855662506
 40
1.2083333333333581
 50
307.52351320333912
 51
232.47648680464988
  0
ARC
  8
_0-1_線色１__水色__
  6
CONTINUOUS
 62
    4
 10
1285.5449557721704
 20
637.21114855662506
 40
1.2083333333333581
 50
307.52351320333912
 51
232.47648680464988
  0
ARC
  8
_0-1_線色１__水色__
  6
CONTINUOUS
 62
    4
 10
1292.9047564939901
 20
635.29448188879257
 40
1.2083333333333179
 50
127.52351320610693
 51
52.47648680188081
  0
ARC
  8
_0-1_線色１__水色__
  6
CONTINUOUS
 62
    4
 10
1291.4327963495407
 20
637.21114855662506
 40
1.2083333333333581
 50
307.52351320333912
 51
232.47648680464988
  0
ARC
  8
_0-1_線色１__水色__
  6
CONTINUOUS
 62
    4
 10
1289.9608362053095
 20
635.29448188879257
 40
1.2083333333333179
 50
127.52351320610693
 51
52.47648680188081
  0
ARC
  8
_0-1_線色１__水色__
  6
CONTINUOUS
 62
    4
 10
1288.4888760608555
 20
637.21114855662506
 40
1.2083333333333581
 50
307.52351320333912
 51
232.47648680464988
  0
ARC
  8
_0-1_線色１__水色__
  6
CONTINUOUS
 62
    4
 10
1287.0169159166244
 20
635.29448188879257
 40
1.2083333333333179
 50
127.52351320610693
 51
52.47648680188081
  0
ARC
  8
_0-1_線色１__水色__
  6
CONTINUOUS
 62
    4
 10
1080.0901565630579
 20
622.02821829953507
 40
1.2083333333333581
 50
337.52351319535012
 51
121.18794046356159
  0
ARC
  8
_0-1_線色１__水色__
  6
CONTINUOUS
 62
    4
 10
1082.3232447747137
 20
621.10431634762733
 40
1.2083333333333177
 50
157.52351319811916
 51
82.476486793893059
  0
ARC
  8
_0-1_線色１__水色__
  6
CONTINUOUS
 62
    4
 10
1082.6396663198875
 20
623.50017844372644
 40
1.2083333333333581
 50
337.52351319535012
 51
262.47648679666088
  0
ARC
  8
_0-1_線色１__水色__
  6
CONTINUOUS
 62
    4
 10
1084.8727545315433
 20
622.57627649181757
 40
1.2083333333333177
 50
157.52351319811916
 51
82.476486793893059
  0
ARC
  8
_0-1_線色１__水色__
  6
CONTINUOUS
 62
    4
 10
1085.1891760767194
 20
624.97213858791781
 40
1.2083333333333581
 50
337.52351319535012
 51
262.47648679666088
  0
ARC
  8
_0-1_線色１__水色__
  6
CONTINUOUS
 62
    4
 10
1087.4222642883751
 20
624.0482366360078
 40
1.2083333333333177
 50
157.52351319811916
 51
82.476486793893059
  0
ARC
  8
_0-1_線色１__水色__
  6
CONTINUOUS
 62
    4
 10
1087.7386858335467
 20
626.44409873210805
 40
1.2083333333333581
 50
337.52351319535012
 51
262.47648679666088
  0
ARC
  8
_0-1_線色１__水色__
  6
CONTINUOUS
 62
    4
 10
1105.2688325861163
 20
634.35195764518255
 40
1.2083333333333177
 50
42.861225635030301
 51
82.476486793893088
  0
ARC
  8
_0-1_線色１__水色__
  6
CONTINUOUS
 62
    4
 10
1105.2688325861163
 20
634.35195764518255
 40
1.2083333333333177
 50
157.52351319811916
 51
5.8892754324127168
  0
ARC
  8
_0-1_線色１__水色__
  6
CONTINUOUS
 62
    4
 10
1110.3816985980438
 20
635.29448188837989
 40
1.2083333333333179
 50
127.52351320610693
 51
52.47648680188081
  0
ARC
  8
_0-1_線色１__水色__
  6
CONTINUOUS
 62
    4
 10
1107.4377783093632
 20
635.29448188817526
 40
1.2083333333333179
 50
127.52351320610693
 51
52.47648680188081
  0
ARC
  8
_0-1_線色１__水色__
  6
CONTINUOUS
 62
    4
 10
1108.9097384535717
 20
637.21114855498001
 40
1.2083333333333581
 50
307.52351320333912
 51
232.47648680464988
  0
ARC
  8
_0-1_線色１__水色__
  6
CONTINUOUS
 62
    4
 10
1122.1573797527799
 20
635.29448188837989
 40
1.2083333333333179
 50
127.52351320610693
 51
52.47648680188081
  0
ARC
  8
_0-1_線色１__水色__
  6
CONTINUOUS
 62
    4
 10
1113.325618886729
 20
635.29448188776598
 40
1.2083333333333179
 50
127.52351320610693
 51
52.47648680188081
  0
ARC
  8
_0-1_線色１__水色__
  6
CONTINUOUS
 62
    4
 10
1111.8536587422523
 20
637.21114855436383
 40
1.2083333333333581
 50
307.52351320333912
 51
232.47648680464988
  0
ARC
  8
_0-1_線色１__水色__
  6
CONTINUOUS
 62
    4
 10
1116.2695391754141
 20
635.29448188797062
 40
1.2083333333333179
 50
127.52351320610693
 51
52.47648680188081
  0
ARC
  8
_0-1_線色１__水色__
  6
CONTINUOUS
 62
    4
 10
1114.7975790309374
 20
637.21114855457074
 40
1.2083333333333581
 50
307.52351320333912
 51
232.47648680464988
  0
ARC
  8
_0-1_線色１__水色__
  6
CONTINUOUS
 62
    4
 10
1119.2134594640947
 20
635.29448188817526
 40
1.2083333333333179
 50
127.52351320610693
 51
52.47648680188081
  0
ARC
  8
_0-1_線色１__水色__
  6
CONTINUOUS
 62
    4
 10
1117.7414993196226
 20
637.21114855477538
 40
1.2083333333333581
 50
307.52351320333912
 51
232.47648680464988
  0
ARC
  8
_0-1_線色１__水色__
  6
CONTINUOUS
 62
    4
 10
1120.6854196083032
 20
637.21114855498001
 40
1.2083333333333581
 50
307.52351320333912
 51
232.47648680464988
  0
ARC
  8
_0-1_線色１__水色__
  6
CONTINUOUS
 62
    4
 10
1133.9330609075114
 20
635.29448188837989
 40
1.2083333333333179
 50
127.52351320610693
 51
52.47648680188081
  0
ARC
  8
_0-1_線色１__水色__
  6
CONTINUOUS
 62
    4
 10
1125.101300041465
 20
635.29448188776598
 40
1.2083333333333179
 50
127.52351320610693
 51
52.47648680188081
  0
ARC
  8
_0-1_線色１__水色__
  6
CONTINUOUS
 62
    4
 10
1123.6293398969883
 20
637.21114855436383
 40
1.2083333333333581
 50
307.52351320333912
 51
232.47648680464988
  0
ARC
  8
_0-1_線色１__水色__
  6
CONTINUOUS
 62
    4
 10
1128.0452203301456
 20
635.29448188797062
 40
1.2083333333333179
 50
127.52351320610693
 51
52.47648680188081
  0
ARC
  8
_0-1_線色１__水色__
  6
CONTINUOUS
 62
    4
 10
1126.5732601856735
 20
637.21114855457074
 40
1.2083333333333581
 50
307.52351320333912
 51
232.47648680464988
  0
ARC
  8
_0-1_線色１__水色__
  6
CONTINUOUS
 62
    4
 10
1130.9891406188308
 20
635.29448188817526
 40
1.2083333333333179
 50
127.52351320610693
 51
52.47648680188081
  0
ARC
  8
_0-1_線色１__水色__
  6
CONTINUOUS
 62
    4
 10
1129.5171804743541
 20
637.21114855477538
 40
1.2083333333333581
 50
307.52351320333912
 51
232.47648680464988
  0
ARC
  8
_0-1_線色１__水色__
  6
CONTINUOUS
 62
    4
 10
1132.4611007630392
 20
637.21114855498001
 40
1.2083333333333581
 50
307.52351320333912
 51
232.47648680464988
  0
ARC
  8
_0-1_線色１__水色__
  6
CONTINUOUS
 62
    4
 10
1279.6571151950229
 20
637.21114855539156
 40
1.2083333333333581
 50
307.52351320333912
 51
232.47648680464988
  0
ARC
  8
_0-1_線色１__水色__
  6
CONTINUOUS
 62
    4
 10
1282.6010354837058
 20
637.21114855539156
 40
1.2083333333333581
 50
307.52351320333912
 51
232.47648680464988
  0
ARC
  8
_0-1_線色１__水色__
  6
CONTINUOUS
 62
    4
 10
1281.1290753394746
 20
635.29448188755907
 40
1.2083333333333179
 50
127.52351320610693
 51
52.47648680188081
  0
ARC
  8
_0-1_線色１__水色__
  6
CONTINUOUS
 62
    4
 10
1270.825354329213
 20
637.21114855539156
 40
1.2083333333333581
 50
307.52351320333912
 51
232.47648680464988
  0
ARC
  8
_0-1_線色１__水色__
  6
CONTINUOUS
 62
    4
 10
1278.1851550510328
 20
635.29448188755907
 40
1.2083333333333179
 50
127.52351320610693
 51
52.47648680188081
  0
ARC
  8
_0-1_線色１__水色__
  6
CONTINUOUS
 62
    4
 10
1276.7131949065811
 20
637.21114855539156
 40
1.2083333333333581
 50
307.52351320333912
 51
232.47648680464988
  0
ARC
  8
_0-1_線色１__水色__
  6
CONTINUOUS
 62
    4
 10
1275.2412347623499
 20
635.29448188755907
 40
1.2083333333333179
 50
127.52351320610693
 51
52.47648680188081
  0
ARC
  8
_0-1_線色１__水色__
  6
CONTINUOUS
 62
    4
 10
1273.7692746178959
 20
637.21114855539156
 40
1.2083333333333581
 50
307.52351320333912
 51
232.47648680464988
  0
ARC
  8
_0-1_線色１__水色__
  6
CONTINUOUS
 62
    4
 10
1272.2973144736648
 20
635.29448188755907
 40
1.2083333333333179
 50
127.52351320610693
 51
52.47648680188081
  0
ARC
  8
_0-1_線色１__水色__
  6
CONTINUOUS
 62
    4
 10
1261.9935934634032
 20
637.21114855539156
 40
1.2083333333333581
 50
307.52351320333912
 51
232.47648680464988
  0
ARC
  8
_0-1_線色１__水色__
  6
CONTINUOUS
 62
    4
 10
1269.3533941852229
 20
635.29448188755907
 40
1.2083333333333179
 50
127.52351320610693
 51
52.47648680188081
  0
ARC
  8
_0-1_線色１__水色__
  6
CONTINUOUS
 62
    4
 10
1267.8814340407712
 20
637.21114855539156
 40
1.2083333333333581
 50
307.52351320333912
 51
232.47648680464988
  0
ARC
  8
_0-1_線色１__水色__
  6
CONTINUOUS
 62
    4
 10
1266.40947389654
 20
635.29448188755907
 40
1.2083333333333179
 50
127.52351320610693
 51
52.47648680188081
  0
ARC
  8
_0-1_線色１__水色__
  6
CONTINUOUS
 62
    4
 10
1264.937513752086
 20
637.21114855539156
 40
1.2083333333333581
 50
307.52351320333912
 51
232.47648680464988
  0
ARC
  8
_0-1_線色１__水色__
  6
CONTINUOUS
 62
    4
 10
1263.4655536078549
 20
635.29448188755907
 40
1.2083333333333179
 50
127.52351320610693
 51
52.47648680188081
  0
ARC
  8
_0-1_線色１__水色__
  6
CONTINUOUS
 62
    4
 10
1253.1618325975933
 20
637.21114855539156
 40
1.2083333333333581
 50
307.52351320333912
 51
232.47648680464988
  0
ARC
  8
_0-1_線色１__水色__
  6
CONTINUOUS
 62
    4
 10
1260.521633319413
 20
635.29448188755907
 40
1.2083333333333179
 50
127.52351320610693
 51
52.47648680188081
  0
ARC
  8
_0-1_線色１__水色__
  6
CONTINUOUS
 62
    4
 10
1259.0496731749613
 20
637.21114855539156
 40
1.2083333333333581
 50
307.52351320333912
 51
232.47648680464988
  0
ARC
  8
_0-1_線色１__水色__
  6
CONTINUOUS
 62
    4
 10
1257.5777130307301
 20
635.29448188755907
 40
1.2083333333333179
 50
127.52351320610693
 51
52.47648680188081
  0
ARC
  8
_0-1_線色１__水色__
  6
CONTINUOUS
 62
    4
 10
1256.1057528862762
 20
637.21114855539156
 40
1.2083333333333581
 50
307.52351320333912
 51
232.47648680464988
  0
ARC
  8
_0-1_線色１__水色__
  6
CONTINUOUS
 62
    4
 10
1254.633792742045
 20
635.29448188755907
 40
1.2083333333333179
 50
127.52351320610693
 51
52.47648680188081
  0
ARC
  8
_0-1_線色１__水色__
  6
CONTINUOUS
 62
    4
 10
1244.3300717317834
 20
637.21114855539156
 40
1.2083333333333581
 50
307.52351320333912
 51
232.47648680464988
  0
ARC
  8
_0-1_線色１__水色__
  6
CONTINUOUS
 62
    4
 10
1251.6898724536031
 20
635.29448188755907
 40
1.2083333333333179
 50
127.52351320610693
 51
52.47648680188081
  0
ARC
  8
_0-1_線色１__水色__
  6
CONTINUOUS
 62
    4
 10
1250.2179123091514
 20
637.21114855539156
 40
1.2083333333333581
 50
307.52351320333912
 51
232.47648680464988
  0
ARC
  8
_0-1_線色１__水色__
  6
CONTINUOUS
 62
    4
 10
1248.7459521649203
 20
635.29448188755907
 40
1.2083333333333179
 50
127.52351320610693
 51
52.47648680188081
  0
ARC
  8
_0-1_線色１__水色__
  6
CONTINUOUS
 62
    4
 10
1247.2739920204663
 20
637.21114855539156
 40
1.2083333333333581
 50
307.52351320333912
 51
232.47648680464988
  0
ARC
  8
_0-1_線色１__水色__
  6
CONTINUOUS
 62
    4
 10
1245.8020318762351
 20
635.29448188755907
 40
1.2083333333333179
 50
127.52351320610693
 51
52.47648680188081
  0
ARC
  8
_0-1_線色１__水色__
  6
CONTINUOUS
 62
    4
 10
1235.4983108659735
 20
637.21114855539156
 40
1.2083333333333581
 50
307.52351320333912
 51
232.47648680464988
  0
ARC
  8
_0-1_線色１__水色__
  6
CONTINUOUS
 62
    4
 10
1242.8581115877932
 20
635.29448188755907
 40
1.2083333333333179
 50
127.52351320610693
 51
52.47648680188081
  0
ARC
  8
_0-1_線色１__水色__
  6
CONTINUOUS
 62
    4
 10
1241.3861514433415
 20
637.21114855539156
 40
1.2083333333333581
 50
307.52351320333912
 51
232.47648680464988
  0
ARC
  8
_0-1_線色１__水色__
  6
CONTINUOUS
 62
    4
 10
1239.9141912991104
 20
635.29448188755907
 40
1.2083333333333179
 50
127.52351320610693
 51
52.47648680188081
  0
ARC
  8
_0-1_線色１__水色__
  6
CONTINUOUS
 62
    4
 10
1238.4422311546564
 20
637.21114855539156
 40
1.2083333333333581
 50
307.52351320333912
 51
232.47648680464988
  0
ARC
  8
_0-1_線色１__水色__
  6
CONTINUOUS
 62
    4
 10
1236.9702710104252
 20
635.29448188755907
 40
1.2083333333333179
 50
127.52351320610693
 51
52.47648680188081
  0
ARC
  8
_0-1_線色１__水色__
  6
CONTINUOUS
 62
    4
 10
1226.6665500001636
 20
637.21114855539156
 40
1.2083333333333581
 50
307.52351320333912
 51
232.47648680464988
  0
ARC
  8
_0-1_線色１__水色__
  6
CONTINUOUS
 62
    4
 10
1234.0263507219834
 20
635.29448188755907
 40
1.2083333333333179
 50
127.52351320610693
 51
52.47648680188081
  0
ARC
  8
_0-1_線色１__水色__
  6
CONTINUOUS
 62
    4
 10
1232.5543905775316
 20
637.21114855539156
 40
1.2083333333333581
 50
307.52351320333912
 51
232.47648680464988
  0
ARC
  8
_0-1_線色１__水色__
  6
CONTINUOUS
 62
    4
 10
1231.0824304333005
 20
635.29448188755907
 40
1.2083333333333179
 50
127.52351320610693
 51
52.47648680188081
  0
ARC
  8
_0-1_線色１__水色__
  6
CONTINUOUS
 62
    4
 10
1229.6104702888465
 20
637.21114855539156
 40
1.2083333333333581
 50
307.52351320333912
 51
232.47648680464988
  0
ARC
  8
_0-1_線色１__水色__
  6
CONTINUOUS
 62
    4
 10
1228.1385101446153
 20
635.29448188755907
 40
1.2083333333333179
 50
127.52351320610693
 51
52.47648680188081
  0
ARC
  8
_0-1_線色１__水色__
  6
CONTINUOUS
 62
    4
 10
1217.8347891343537
 20
637.21114855539156
 40
1.2083333333333581
 50
307.52351320333912
 51
232.47648680464988
  0
ARC
  8
_0-1_線色１__水色__
  6
CONTINUOUS
 62
    4
 10
1225.1945898561735
 20
635.29448188755907
 40
1.2083333333333179
 50
127.52351320610693
 51
52.47648680188081
  0
ARC
  8
_0-1_線色１__水色__
  6
CONTINUOUS
 62
    4
 10
1223.7226297117218
 20
637.21114855539156
 40
1.2083333333333581
 50
307.52351320333912
 51
232.47648680464988
  0
ARC
  8
_0-1_線色１__水色__
  6
CONTINUOUS
 62
    4
 10
1222.2506695674906
 20
635.29448188755907
 40
1.2083333333333179
 50
127.52351320610693
 51
52.47648680188081
  0
ARC
  8
_0-1_線色１__水色__
  6
CONTINUOUS
 62
    4
 10
1220.7787094230366
 20
637.21114855539156
 40
1.2083333333333581
 50
307.52351320333912
 51
232.47648680464988
  0
ARC
  8
_0-1_線色１__水色__
  6
CONTINUOUS
 62
    4
 10
1219.3067492788055
 20
635.29448188755907
 40
1.2083333333333179
 50
127.52351320610693
 51
52.47648680188081
  0
ARC
  8
_0-1_線色１__水色__
  6
CONTINUOUS
 62
    4
 10
1209.0030282685439
 20
637.21114855539156
 40
1.2083333333333581
 50
307.52351320333912
 51
232.47648680464988
  0
ARC
  8
_0-1_線色１__水色__
  6
CONTINUOUS
 62
    4
 10
1216.3628289903636
 20
635.29448188755907
 40
1.2083333333333179
 50
127.52351320610693
 51
52.47648680188081
  0
ARC
  8
_0-1_線色１__水色__
  6
CONTINUOUS
 62
    4
 10
1214.8908688459119
 20
637.21114855539156
 40
1.2083333333333581
 50
307.52351320333912
 51
232.47648680464988
  0
ARC
  8
_0-1_線色１__水色__
  6
CONTINUOUS
 62
    4
 10
1213.4189087016807
 20
635.29448188755907
 40
1.2083333333333179
 50
127.52351320610693
 51
52.47648680188081
  0
ARC
  8
_0-1_線色１__水色__
  6
CONTINUOUS
 62
    4
 10
1211.9469485572267
 20
637.21114855539156
 40
1.2083333333333581
 50
307.52351320333912
 51
232.47648680464988
  0
ARC
  8
_0-1_線色１__水色__
  6
CONTINUOUS
 62
    4
 10
1210.4749884129956
 20
635.29448188755907
 40
1.2083333333333179
 50
127.52351320610693
 51
52.47648680188081
  0
ARC
  8
_0-1_線色１__水色__
  6
CONTINUOUS
 62
    4
 10
1207.5310681245537
 20
635.29448188755907
 40
1.2083333333333179
 50
127.52351320610693
 51
52.47648680188081
  0
ARC
  8
_0-1_線色１__水色__
  6
CONTINUOUS
 62
    4
 10
1206.059107980102
 20
637.21114855539156
 40
1.2083333333333581
 50
307.52351320333912
 51
232.47648680464988
  0
ARC
  8
_0-1_線色１__水色__
  6
CONTINUOUS
 62
    4
 10
1204.5871478358708
 20
635.29448188755907
 40
1.2083333333333179
 50
127.52351320610693
 51
52.47648680188081
  0
ARC
  8
_0-1_線色１__水色__
  6
CONTINUOUS
 62
    4
 10
1203.1151876914168
 20
637.21114855539156
 40
1.2083333333333581
 50
307.52351320333912
 51
232.47648680464988
  0
ARC
  8
_0-1_線色１__水色__
  6
CONTINUOUS
 62
    4
 10
1201.6432275471857
 20
635.29448188755907
 40
1.2083333333333179
 50
127.52351320610693
 51
52.47648680188081
  0
ARC
  8
_0-1_線色１__水色__
  6
CONTINUOUS
 62
    4
 10
1200.171267402734
 20
637.21114855539156
 40
1.2083333333333581
 50
307.52351320333912
 51
232.47648680464988
  0
ARC
  8
_0-1_線色１__水色__
  6
CONTINUOUS
 62
    4
 10
1198.6993072585028
 20
635.29448188755907
 40
1.2083333333333179
 50
127.52351320610693
 51
52.47648680188081
  0
ARC
  8
_0-1_線色１__水色__
  6
CONTINUOUS
 62
    4
 10
1197.2273471140511
 20
637.21114855539156
 40
1.2083333333333581
 50
307.52351320333912
 51
232.47648680464988
  0
ARC
  8
_0-1_線色１__水色__
  6
CONTINUOUS
 62
    4
 10
1195.7553869698199
 20
635.29448188755907
 40
1.2083333333333179
 50
127.52351320610693
 51
52.47648680188081
  0
ARC
  8
_0-1_線色１__水色__
  6
CONTINUOUS
 62
    4
 10
1194.2834268253682
 20
637.21114855539156
 40
1.2083333333333581
 50
307.52351320333912
 51
232.47648680464988
  0
ARC
  8
_0-1_線色１__水色__
  6
CONTINUOUS
 62
    4
 10
1192.8114666811371
 20
635.29448188755907
 40
1.2083333333333179
 50
127.52351320610693
 51
52.47648680188081
  0
ARC
  8
_0-1_線色１__水色__
  6
CONTINUOUS
 62
    4
 10
1191.3395065366831
 20
637.21114855539156
 40
1.2083333333333581
 50
307.52351320333912
 51
232.47648680464988
  0
ARC
  8
_0-1_線色１__水色__
  6
CONTINUOUS
 62
    4
 10
1189.8675463924519
 20
635.29448188755907
 40
1.2083333333333179
 50
127.52351320610693
 51
52.47648680188081
  0
ARC
  8
_0-1_線色１__水色__
  6
CONTINUOUS
 62
    4
 10
1188.3955862480002
 20
637.21114855539156
 40
1.2083333333333581
 50
307.52351320333912
 51
232.47648680464988
  0
ARC
  8
_0-1_線色１__水色__
  6
CONTINUOUS
 62
    4
 10
1186.923626103769
 20
635.29448188755907
 40
1.2083333333333179
 50
127.52351320610693
 51
52.47648680188081
  0
ARC
  8
_0-1_線色１__水色__
  6
CONTINUOUS
 62
    4
 10
1185.4516659593173
 20
637.21114855539156
 40
1.2083333333333581
 50
307.52351320333912
 51
232.47648680464988
  0
ARC
  8
_0-1_線色１__水色__
  6
CONTINUOUS
 62
    4
 10
1183.9797058150862
 20
635.29448188755907
 40
1.2083333333333179
 50
127.52351320610693
 51
52.47648680188081
  0
ARC
  8
_0-1_線色１__水色__
  6
CONTINUOUS
 62
    4
 10
1182.5077456706344
 20
637.21114855539156
 40
1.2083333333333581
 50
307.52351320333912
 51
232.47648680464988
  0
ARC
  8
_0-1_線色１__水色__
  6
CONTINUOUS
 62
    4
 10
1181.0357855264033
 20
635.29448188755907
 40
1.2083333333333179
 50
127.52351320610693
 51
52.47648680188081
  0
ARC
  8
_0-1_線色１__水色__
  6
CONTINUOUS
 62
    4
 10
1179.5638253819493
 20
637.21114855539156
 40
1.2083333333333581
 50
307.52351320333912
 51
232.47648680464988
  0
ARC
  8
_0-1_線色１__水色__
  6
CONTINUOUS
 62
    4
 10
1178.0918652377181
 20
635.29448188755907
 40
1.2083333333333179
 50
127.52351320610693
 51
52.47648680188081
  0
ARC
  8
_0-1_線色１__水色__
  6
CONTINUOUS
 62
    4
 10
1176.6199050932664
 20
637.21114855539156
 40
1.2083333333333581
 50
307.52351320333912
 51
232.47648680464988
  0
ARC
  8
_0-1_線色１__水色__
  6
CONTINUOUS
 62
    4
 10
1175.1479449490353
 20
635.29448188755907
 40
1.2083333333333179
 50
127.52351320610693
 51
52.47648680188081
  0
ARC
  8
_0-1_線色１__水色__
  6
CONTINUOUS
 62
    4
 10
1173.6759848045813
 20
637.21114855539156
 40
1.2083333333333581
 50
307.52351320333912
 51
232.47648680464988
  0
ARC
  8
_0-1_線色１__水色__
  6
CONTINUOUS
 62
    4
 10
1172.2040246603501
 20
635.29448188755907
 40
1.2083333333333179
 50
127.52351320610693
 51
52.47648680188081
  0
ARC
  8
_0-1_線色１__水色__
  6
CONTINUOUS
 62
    4
 10
1170.7320645159007
 20
637.21114855539156
 40
1.2083333333333581
 50
307.52351320333912
 51
232.47648680464988
  0
ARC
  8
_0-1_線色１__水色__
  6
CONTINUOUS
 62
    4
 10
1169.2601043716695
 20
635.29448188755907
 40
1.2083333333333179
 50
127.52351320610693
 51
52.47648680188081
  0
ARC
  8
_0-1_線色１__水色__
  6
CONTINUOUS
 62
    4
 10
1151.5965826395905
 20
635.29448188755907
 40
1.2083333333333179
 50
127.52351320610693
 51
52.47648680188081
  0
ARC
  8
_0-1_線色１__水色__
  6
CONTINUOUS
 62
    4
 10
1154.5405029282756
 20
635.29448188776598
 40
1.2083333333333179
 50
127.52351320610693
 51
52.47648680188081
  0
ARC
  8
_0-1_線色１__水色__
  6
CONTINUOUS
 62
    4
 10
1153.0685427837989
 20
637.21114855436383
 40
1.2083333333333581
 50
307.52351320333912
 51
232.47648680464988
  0
ARC
  8
_0-1_線色１__水色__
  6
CONTINUOUS
 62
    4
 10
1157.4844232169562
 20
635.29448188797062
 40
1.2083333333333179
 50
127.52351320610693
 51
52.47648680188081
  0
ARC
  8
_0-1_線色１__水色__
  6
CONTINUOUS
 62
    4
 10
1156.012463072484
 20
637.21114855457074
 40
1.2083333333333581
 50
307.52351320333912
 51
232.47648680464988
  0
ARC
  8
_0-1_線色１__水色__
  6
CONTINUOUS
 62
    4
 10
1160.4283435056414
 20
635.29448188817526
 40
1.2083333333333179
 50
127.52351320610693
 51
52.47648680188081
  0
ARC
  8
_0-1_線色１__水色__
  6
CONTINUOUS
 62
    4
 10
1158.9563833611646
 20
637.21114855477538
 40
1.2083333333333581
 50
307.52351320333912
 51
232.47648680464988
  0
ARC
  8
_0-1_線色１__水色__
  6
CONTINUOUS
 62
    4
 10
1163.372263794322
 20
635.29448188837989
 40
1.2083333333333179
 50
127.52351320610693
 51
52.47648680188081
  0
ARC
  8
_0-1_線色１__水色__
  6
CONTINUOUS
 62
    4
 10
1161.9003036498498
 20
637.21114855498001
 40
1.2083333333333581
 50
307.52351320333912
 51
232.47648680464988
  0
ARC
  8
_0-1_線色１__水色__
  6
CONTINUOUS
 62
    4
 10
1166.3161840830071
 20
635.29448188858453
 40
1.2083333333333179
 50
127.52351320610693
 51
52.47648680188081
  0
ARC
  8
_0-1_線色１__水色__
  6
CONTINUOUS
 62
    4
 10
1164.8442239385304
 20
637.21114855518465
 40
1.2083333333333581
 50
307.52351320333912
 51
232.47648680464988
  0
ARC
  8
_0-1_線色１__水色__
  6
CONTINUOUS
 62
    4
 10
1167.7881442272155
 20
637.21114855539156
 40
1.2083333333333581
 50
307.52351320333912
 51
232.47648680464988
  0
ARC
  8
_0-1_線色１__水色__
  6
CONTINUOUS
 62
    4
 10
1136.8769811961965
 20
635.29448188776598
 40
1.2083333333333179
 50
127.52351320610693
 51
52.47648680188081
  0
ARC
  8
_0-1_線色１__水色__
  6
CONTINUOUS
 62
    4
 10
1135.4050210517198
 20
637.21114855436383
 40
1.2083333333333581
 50
307.52351320333912
 51
232.47648680464988
  0
ARC
  8
_0-1_線色１__水色__
  6
CONTINUOUS
 62
    4
 10
1139.8209014848817
 20
635.29448188797062
 40
1.2083333333333179
 50
127.52351320610693
 51
52.47648680188081
  0
ARC
  8
_0-1_線色１__水色__
  6
CONTINUOUS
 62
    4
 10
1138.348941340405
 20
637.21114855457074
 40
1.2083333333333581
 50
307.52351320333912
 51
232.47648680464988
  0
ARC
  8
_0-1_線色１__水色__
  6
CONTINUOUS
 62
    4
 10
1142.7648217735623
 20
635.29448188817526
 40
1.2083333333333179
 50
127.52351320610693
 51
52.47648680188081
  0
ARC
  8
_0-1_線色１__水色__
  6
CONTINUOUS
 62
    4
 10
1141.2928616290901
 20
637.21114855477538
 40
1.2083333333333581
 50
307.52351320333912
 51
232.47648680464988
  0
ARC
  8
_0-1_線色１__水色__
  6
CONTINUOUS
 62
    4
 10
1145.7087420622474
 20
635.29448188837989
 40
1.2083333333333179
 50
127.52351320610693
 51
52.47648680188081
  0
ARC
  8
_0-1_線色１__水色__
  6
CONTINUOUS
 62
    4
 10
1144.2367819177707
 20
637.21114855498001
 40
1.2083333333333581
 50
307.52351320333912
 51
232.47648680464988
  0
ARC
  8
_0-1_線色１__水色__
  6
CONTINUOUS
 62
    4
 10
1148.6526623509326
 20
635.29448188858453
 40
1.2083333333333179
 50
127.52351320610693
 51
52.47648680188081
  0
ARC
  8
_0-1_線色１__水色__
  6
CONTINUOUS
 62
    4
 10
1147.1807022064559
 20
637.21114855518465
 40
1.2083333333333581
 50
307.52351320333912
 51
232.47648680464988
  0
ARC
  8
_0-1_線色１__水色__
  6
CONTINUOUS
 62
    4
 10
1150.1246224951365
 20
637.21114855539156
 40
1.2083333333333581
 50
307.52351320333912
 51
232.47648680464988
  0
ARC
  8
_0-1_線色１__水色__
  6
CONTINUOUS
 62
    4
 10
1102.7193228292981
 20
632.87999750101847
 40
1.2083333333333177
 50
157.52351319811916
 51
82.476486793893059
  0
ARC
  8
_0-1_線色１__水色__
  6
CONTINUOUS
 62
    4
 10
1103.035744374472
 20
635.27585959711871
 40
1.2083333333333581
 50
337.52351319535012
 51
262.47648679666088
  0
ARC
  8
_0-1_線色１__水色__
  6
CONTINUOUS
 62
    4
 10
1105.5852541312925
 20
636.7478197412828
 40
1.2083333333333581
 50
337.52351319535012
 51
262.47648679666088
  0
ARC
  8
_0-1_線色１__水色__
  6
CONTINUOUS
 62
    4
 10
1100.1698130724799
 20
631.40803735685438
 40
1.2083333333333177
 50
157.52351319811916
 51
82.476486793893059
  0
ARC
  8
_0-1_線色１__水色__
  6
CONTINUOUS
 62
    4
 10
1100.4862346176515
 20
633.80389945295462
 40
1.2083333333333581
 50
337.52351319535012
 51
262.47648679666088
  0
ARC
  8
_0-1_線色１__水色__
  6
CONTINUOUS
 62
    4
 10
1097.6203033156617
 20
629.93607721269143
 40
1.2083333333333177
 50
157.52351319811916
 51
82.476486793893059
  0
ARC
  8
_0-1_線色１__水色__
  6
CONTINUOUS
 62
    4
 10
1097.9367248608332
 20
632.33193930879054
 40
1.2083333333333581
 50
337.52351319535012
 51
262.47648679666088
  0
ARC
  8
_0-1_線色１__水色__
  6
CONTINUOUS
 62
    4
 10
1095.0707935588434
 20
628.46411706852621
 40
1.2083333333333177
 50
157.52351319811916
 51
82.476486793893059
  0
ARC
  8
_0-1_線色１__水色__
  6
CONTINUOUS
 62
    4
 10
1095.387215104015
 20
630.85997916462645
 40
1.2083333333333581
 50
337.52351319535012
 51
262.47648679666088
  0
ARC
  8
_0-1_線色１__水色__
  6
CONTINUOUS
 62
    4
 10
1092.5212838020229
 20
626.99215692436326
 40
1.2083333333333177
 50
157.52351319811916
 51
82.476486793893059
  0
ARC
  8
_0-1_線色１__水色__
  6
CONTINUOUS
 62
    4
 10
1092.8377053471968
 20
629.38801902046237
 40
1.2083333333333581
 50
337.52351319535012
 51
262.47648679666088
  0
ARC
  8
_0-1_線色１__水色__
  6
CONTINUOUS
 62
    4
 10
1089.9717740452024
 20
625.52019678019917
 40
1.2083333333333177
 50
157.52351319811916
 51
82.476486793893059
  0
ARC
  8
_0-1_線色１__水色__
  6
CONTINUOUS
 62
    4
 10
1090.2881955903786
 20
627.91605887629828
 40
1.2083333333333581
 50
337.52351319535012
 51
262.47648679666088
  0
LINE
  8
_0-4_線色４__黄__
  6
CONTINUOUS
 62
    2
 10
1077.9578823375346
 20
628.35081521629093
 11
1048.325803523644
 21
628.35081521629093
  0
LINE
  8
_0-2_線色２__白__
  6
CONTINUOUS
 62
    7
 10
1079.2976282996915
 20
623.35081521629093
 11
1081.7976282996915
 21
619.0206881973694
  0
LINE
  8
_0-2_線色２__白__
  6
CONTINUOUS
 62
    7
 10
1107.3144208000213
 20
633.75281521629006
 11
1295.6086814683204
 21
633.75281521629006
  0
LINE
  8
_0-2_線色２__白__
  6
CONTINUOUS
 62
    7
 10
1081.7976282996915
 20
619.0206881973694
 11
1107.3144208000213
 21
633.75281521629006
  0
LINE
  8
_0-2_線色２__白__
  6
CONTINUOUS
 62
    7
 10
1105.9746748378643
 20
638.75281521629006
 11
1295.6086814683204
 21
638.75281521629006
  0
LINE
  8
_0-2_線色２__白__
  6
CONTINUOUS
 62
    7
 10
841.32984368325651
 20
715.72772454472386
 11
831.06141291611948
 21
721.65620581228666
  0
LINE
  8
_0-2_線色２__白__
  6
CONTINUOUS
 62
    7
 10
830.93168612952468
 20
715.6528267495645
 11
841.45957046984677
 21
721.73110360744602
  0
LINE
  8
_0-2_線色２__白__
  6
CONTINUOUS
 62
    7
 10
830.93168612952468
 20
597.65068488733107
 11
841.45957046984677
 21
603.72896174521372
  0
LINE
  8
_0-2_線色２__白__
  6
CONTINUOUS
 62
    7
 10
841.32984368325651
 20
597.72558268249156
 11
831.06141291611948
 21
603.65406395005323
  0
LINE
  8
_0-2_線色２__白__
  6
CONTINUOUS
 62
    7
 10
840.79182237740088
 20
604.31798813984437
 11
840.79182237740088
 21
604.31798813984437
  0
LINE
  8
_0-2_線色２__白__
  6
CONTINUOUS
 62
    7
 10
840.79182237740088
 20
604.31798813984437
 11
839.92387513597009
 21
604.8609675445889
  0
LINE
  8
_0-2_線色２__白__
  6
CONTINUOUS
 62
    7
 10
839.92387513597009
 20
604.8609675445889
 11
838.9426470010028
 21
605.27720884265682
  0
LINE
  8
_0-2_線色２__白__
  6
CONTINUOUS
 62
    7
 10
838.9426470010028
 20
605.27720884265682
 11
837.87795209285468
 21
605.55406475283462
  0
LINE
  8
_0-2_線色２__白__
  6
CONTINUOUS
 62
    7
 10
837.87795209285468
 20
605.55406475283462
 11
836.76214062754809
 21
605.68312314838749
  0
LINE
  8
_0-2_線色２__白__
  6
CONTINUOUS
 62
    7
 10
836.76214062754809
 20
605.68312314838749
 11
835.62911597182847
 21
605.66046265527314
  0
LINE
  8
_0-2_線色２__白__
  6
CONTINUOUS
 62
    7
 10
835.62911597182847
 20
605.66046265527314
 11
834.51330450652176
 21
605.48677180110815
  0
LINE
  8
_0-2_線色２__白__
  6
CONTINUOUS
 62
    7
 10
834.51330450652176
 20
605.48677180110815
 11
833.44860959837365
 21
605.1673280946045
  0
LINE
  8
_0-2_線色２__白__
  6
CONTINUOUS
 62
    7
 10
833.44860959837365
 20
605.1673280946045
 11
832.46738146340635
 21
604.71183767113803
  0
LINE
  8
_0-2_線色２__白__
  6
CONTINUOUS
 62
    7
 10
832.46738146340635
 20
604.71183767113803
 11
831.59943422197546
 21
604.13414037673635
  0
LINE
  8
_0-2_線色２__白__
  6
CONTINUOUS
 62
    7
 10
831.59943422197546
 20
604.13414037673635
 11
830.87114001180953
 21
603.45178925136111
  0
LINE
  8
_0-2_線色２__白__
  6
CONTINUOUS
 62
    7
 10
830.87114001180953
 20
603.45178925136111
 11
830.30462768394978
 21
602.68551718867036
  0
LINE
  8
_0-2_線色２__白__
  6
CONTINUOUS
 62
    7
 10
830.30462768394978
 20
602.68551718867036
 11
829.917110428809
 21
601.85860697753674
  0
LINE
  8
_0-2_線色２__白__
  6
CONTINUOUS
 62
    7
 10
829.917110428809
 20
601.85860697753674
 11
829.72036276209155
 21
600.99618386628856
  0
LINE
  8
_0-2_線色２__白__
  6
CONTINUOUS
 62
    7
 10
829.72036276209155
 20
600.99618386628856
 11
829.72036276209144
 21
600.12445214475417
  0
LINE
  8
_0-2_線色２__白__
  6
CONTINUOUS
 62
    7
 10
829.72036276209144
 20
600.12445214475417
 11
829.91711042880877
 21
599.2698989401747
  0
LINE
  8
_0-2_線色２__白__
  6
CONTINUOUS
 62
    7
 10
829.91711042880877
 20
599.2698989401747
 11
830.30462768394955
 21
598.45848941924658
  0
LINE
  8
_0-2_線色２__白__
  6
CONTINUOUS
 62
    7
 10
830.30462768394955
 20
598.45848941924658
 11
830.8711400118093
 21
597.71487784967019
  0
LINE
  8
_0-2_線色２__白__
  6
CONTINUOUS
 62
    7
 10
830.8711400118093
 20
597.71487784967019
 11
831.59943422197512
 21
597.06165849270155
  0
LINE
  8
_0-2_線色２__白__
  6
CONTINUOUS
 62
    7
 10
831.59943422197512
 20
597.06165849270155
 11
832.4673814634059
 21
596.51867908795703
  0
LINE
  8
_0-2_線色２__白__
  6
CONTINUOUS
 62
    7
 10
832.4673814634059
 20
596.51867908795703
 11
833.44860959837308
 21
596.10243778988911
  0
LINE
  8
_0-2_線色２__白__
  6
CONTINUOUS
 62
    7
 10
833.44860959837308
 20
596.10243778988911
 11
834.51330450652131
 21
595.82558187971131
  0
LINE
  8
_0-2_線色２__白__
  6
CONTINUOUS
 62
    7
 10
834.51330450652131
 20
595.82558187971131
 11
835.6291159718279
 21
595.69652348415843
  0
LINE
  8
_0-2_線色２__白__
  6
CONTINUOUS
 62
    7
 10
835.6291159718279
 20
595.69652348415843
 11
836.76214062754752
 21
595.71918397727279
  0
LINE
  8
_0-2_線色２__白__
  6
CONTINUOUS
 62
    7
 10
836.76214062754752
 20
595.71918397727279
 11
837.87795209285412
 21
595.89287483143778
  0
LINE
  8
_0-2_線色２__白__
  6
CONTINUOUS
 62
    7
 10
837.87795209285412
 20
595.89287483143778
 11
838.94264700100234
 21
596.21231853794143
  0
LINE
  8
_0-2_線色２__白__
  6
CONTINUOUS
 62
    7
 10
838.94264700100234
 20
596.21231853794143
 11
839.92387513596964
 21
596.6678089614079
  0
LINE
  8
_0-2_線色２__白__
  6
CONTINUOUS
 62
    7
 10
839.92387513596964
 20
596.6678089614079
 11
840.79182237740054
 21
597.24550625580957
  0
LINE
  8
_0-2_線色２__白__
  6
CONTINUOUS
 62
    7
 10
840.79182237740054
 20
597.24550625580957
 11
841.52011658756646
 21
597.92785738118482
  0
LINE
  8
_0-2_線色２__白__
  6
CONTINUOUS
 62
    7
 10
841.52011658756646
 20
597.92785738118482
 11
842.08662891542622
 21
598.69412944387557
  0
LINE
  8
_0-2_線色２__白__
  6
CONTINUOUS
 62
    7
 10
842.08662891542622
 20
598.69412944387557
 11
842.474146170567
 21
599.52103965500919
  0
LINE
  8
_0-2_線色２__白__
  6
CONTINUOUS
 62
    7
 10
842.474146170567
 20
599.52103965500919
 11
842.67089383728444
 21
600.38346276625737
  0
LINE
  8
_0-2_線色２__白__
  6
CONTINUOUS
 62
    7
 10
842.67089383728444
 20
600.38346276625737
 11
842.67089383728455
 21
601.25519448779175
  0
LINE
  8
_0-2_線色２__白__
  6
CONTINUOUS
 62
    7
 10
842.67089383728455
 20
601.25519448779175
 11
842.47414617056722
 21
602.10974769237123
  0
LINE
  8
_0-2_線色２__白__
  6
CONTINUOUS
 62
    7
 10
842.47414617056722
 20
602.10974769237123
 11
842.08662891542645
 21
602.92115721329935
  0
LINE
  8
_0-2_線色２__白__
  6
CONTINUOUS
 62
    7
 10
842.08662891542645
 20
602.92115721329935
 11
841.52011658756669
 21
603.66476878287574
  0
LINE
  8
_0-2_線色２__白__
  6
CONTINUOUS
 62
    7
 10
841.52011658756669
 20
603.66476878287574
 11
840.79182237740088
 21
604.31798813984437
  0
LINE
  8
_0-2_線色２__白__
  6
CONTINUOUS
 62
    7
 10
840.79182237740088
 20
604.31798813984437
 11
840.79182237740088
 21
604.31798813984437
  0
LINE
  8
_0-2_線色２__白__
  6
CONTINUOUS
 62
    7
 10
840.79182237740088
 20
722.32013000207576
 11
840.79182237740088
 21
722.32013000207576
  0
LINE
  8
_0-2_線色２__白__
  6
CONTINUOUS
 62
    7
 10
840.79182237740088
 20
722.32013000207576
 11
839.92387513597009
 21
722.86310940682017
  0
LINE
  8
_0-2_線色２__白__
  6
CONTINUOUS
 62
    7
 10
839.92387513597009
 20
722.86310940682017
 11
838.94264700100291
 21
723.27935070488809
  0
LINE
  8
_0-2_線色２__白__
  6
CONTINUOUS
 62
    7
 10
838.94264700100291
 20
723.27935070488809
 11
837.87795209285468
 21
723.55620661506589
  0
LINE
  8
_0-2_線色２__白__
  6
CONTINUOUS
 62
    7
 10
837.87795209285468
 20
723.55620661506589
 11
836.76214062754809
 21
723.68526501061865
  0
LINE
  8
_0-2_線色２__白__
  6
CONTINUOUS
 62
    7
 10
836.76214062754809
 20
723.68526501061865
 11
835.62911597182847
 21
723.66260451750429
  0
LINE
  8
_0-2_線色２__白__
  6
CONTINUOUS
 62
    7
 10
835.62911597182847
 20
723.66260451750429
 11
834.51330450652188
 21
723.4889136633393
  0
LINE
  8
_0-2_線色２__白__
  6
CONTINUOUS
 62
    7
 10
834.51330450652188
 20
723.4889136633393
 11
833.44860959837365
 21
723.16946995683554
  0
LINE
  8
_0-2_線色２__白__
  6
CONTINUOUS
 62
    7
 10
833.44860959837365
 20
723.16946995683554
 11
832.46738146340635
 21
722.71397953336907
  0
LINE
  8
_0-2_線色２__白__
  6
CONTINUOUS
 62
    7
 10
832.46738146340635
 20
722.71397953336907
 11
831.59943422197557
 21
722.1362822389674
  0
LINE
  8
_0-2_線色２__白__
  6
CONTINUOUS
 62
    7
 10
831.59943422197557
 20
722.1362822389674
 11
830.87114001180953
 21
721.45393111359203
  0
LINE
  8
_0-2_線色２__白__
  6
CONTINUOUS
 62
    7
 10
830.87114001180953
 20
721.45393111359203
 11
830.30462768394978
 21
720.68765905090129
  0
LINE
  8
_0-2_線色２__白__
  6
CONTINUOUS
 62
    7
 10
830.30462768394978
 20
720.68765905090129
 11
829.917110428809
 21
719.86074883976767
  0
LINE
  8
_0-2_線色２__白__
  6
CONTINUOUS
 62
    7
 10
829.917110428809
 20
719.86074883976767
 11
829.72036276209155
 21
718.99832572851949
  0
LINE
  8
_0-2_線色２__白__
  6
CONTINUOUS
 62
    7
 10
829.72036276209155
 20
718.99832572851949
 11
829.72036276209144
 21
718.1265940069851
  0
LINE
  8
_0-2_線色２__白__
  6
CONTINUOUS
 62
    7
 10
829.72036276209144
 20
718.1265940069851
 11
829.91711042880877
 21
717.27204080240563
  0
LINE
  8
_0-2_線色２__白__
  6
CONTINUOUS
 62
    7
 10
829.91711042880877
 20
717.27204080240563
 11
830.30462768394955
 21
716.4606312814775
  0
LINE
  8
_0-2_線色２__白__
  6
CONTINUOUS
 62
    7
 10
830.30462768394955
 20
716.4606312814775
 11
830.87114001180919
 21
715.71701971190112
  0
LINE
  8
_0-2_線色２__白__
  6
CONTINUOUS
 62
    7
 10
830.87114001180919
 20
715.71701971190112
 11
831.59943422197512
 21
715.06380035493248
  0
LINE
  8
_0-2_線色２__白__
  6
CONTINUOUS
 62
    7
 10
831.59943422197512
 20
715.06380035493248
 11
832.4673814634059
 21
714.52082095018807
  0
LINE
  8
_0-2_線色２__白__
  6
CONTINUOUS
 62
    7
 10
832.4673814634059
 20
714.52082095018807
 11
833.44860959837308
 21
714.10457965212015
  0
LINE
  8
_0-2_線色２__白__
  6
CONTINUOUS
 62
    7
 10
833.44860959837308
 20
714.10457965212015
 11
834.51330450652131
 21
713.82772374194235
  0
LINE
  8
_0-2_線色２__白__
  6
CONTINUOUS
 62
    7
 10
834.51330450652131
 20
713.82772374194235
 11
835.6291159718279
 21
713.69866534638959
  0
LINE
  8
_0-2_線色２__白__
  6
CONTINUOUS
 62
    7
 10
835.6291159718279
 20
713.69866534638959
 11
836.76214062754752
 21
713.72132583950395
  0
LINE
  8
_0-2_線色２__白__
  6
CONTINUOUS
 62
    7
 10
836.76214062754752
 20
713.72132583950395
 11
837.87795209285412
 21
713.89501669366894
  0
LINE
  8
_0-2_線色２__白__
  6
CONTINUOUS
 62
    7
 10
837.87795209285412
 20
713.89501669366894
 11
838.94264700100234
 21
714.2144604001727
  0
LINE
  8
_0-2_線色２__白__
  6
CONTINUOUS
 62
    7
 10
838.94264700100234
 20
714.2144604001727
 11
839.92387513596964
 21
714.66995082363917
  0
LINE
  8
_0-2_線色２__白__
  6
CONTINUOUS
 62
    7
 10
839.92387513596964
 20
714.66995082363917
 11
840.79182237740042
 21
715.24764811804084
  0
LINE
  8
_0-2_線色２__白__
  6
CONTINUOUS
 62
    7
 10
840.79182237740042
 20
715.24764811804084
 11
841.52011658756635
 21
715.9299992434162
  0
LINE
  8
_0-2_線色２__白__
  6
CONTINUOUS
 62
    7
 10
841.52011658756635
 20
715.9299992434162
 11
842.08662891542622
 21
716.69627130610695
  0
LINE
  8
_0-2_線色２__白__
  6
CONTINUOUS
 62
    7
 10
842.08662891542622
 20
716.69627130610695
 11
842.474146170567
 21
717.52318151724057
  0
LINE
  8
_0-2_線色２__白__
  6
CONTINUOUS
 62
    7
 10
842.474146170567
 20
717.52318151724057
 11
842.67089383728444
 21
718.38560462848875
  0
LINE
  8
_0-2_線色２__白__
  6
CONTINUOUS
 62
    7
 10
842.67089383728444
 20
718.38560462848875
 11
842.67089383728455
 21
719.25733635002314
  0
LINE
  8
_0-2_線色２__白__
  6
CONTINUOUS
 62
    7
 10
842.67089383728455
 20
719.25733635002314
 11
842.47414617056722
 21
720.11188955460261
  0
LINE
  8
_0-2_線色２__白__
  6
CONTINUOUS
 62
    7
 10
842.47414617056722
 20
720.11188955460261
 11
842.08662891542656
 21
720.92329907553074
  0
LINE
  8
_0-2_線色２__白__
  6
CONTINUOUS
 62
    7
 10
842.08662891542656
 20
720.92329907553074
 11
841.5201165875668
 21
721.66691064510701
  0
LINE
  8
_0-2_線色２__白__
  6
CONTINUOUS
 62
    7
 10
841.5201165875668
 20
721.66691064510701
 11
840.79182237740088
 21
722.32013000207576
  0
LINE
  8
_0-2_線色２__白__
  6
CONTINUOUS
 62
    7
 10
840.79182237740088
 20
722.32013000207576
 11
840.79182237740088
 21
722.32013000207576
  0
LINE
  8
_0-2_線色２__白__
  6
CONTINUOUS
 62
    7
 10
807.69562829968891
 20
723.12296507852523
 11
842.69562829968891
 21
723.82296507852459
  0
LINE
  8
_0-2_線色２__白__
  6
CONTINUOUS
 62
    7
 10
807.69562829968891
 20
595.11882341625267
 11
842.69562829968891
 21
595.81882341625203
  0
LINE
  8
_0-5_金属
  6
CONTINUOUS
 62
    7
 10
842.69562829968891
 20
595.81882341625203
 11
842.69562829968891
 21
474.45368545388135
  0
LINE
  8
_0-d_断熱__ハッチ
  6
CONTINUOUS
 62
    4
 10
816.44562829968891
 20
595.29382341625194
 11
816.44562829968891
 21
474.45368545388135
  0
LINE
  8
_0-d_断熱__ハッチ
  6
CONTINUOUS
 62
    4
 10
825.19562829968891
 20
595.46882341625235
 11
825.19562829968891
 21
474.45368545388135
  0
LINE
  8
_0-d_断熱__ハッチ
  6
CONTINUOUS
 62
    4
 10
833.94562829968891
 20
595.64382341625276
 11
833.94562829968891
 21
474.45368545388135
  0
LINE
  8
_0-3_線色３__緑__
  6
CONTINUOUS
 62
    3
 10
807.69562829968891
 20
474.45368545388135
 11
807.69562829968891
 21
595.11882341625267
  0
LINE
  8
_0-5_金属
  6
CONTINUOUS
 62
    7
 10
942.69562829968891
 20
599.94523436451061
 11
942.69562829968891
 21
474.45368545388135
  0
LINE
  8
_0-5_金属
  6
CONTINUOUS
 62
    7
 10
922.69562829968891
 20
600.29358811212262
 11
922.69562829968891
 21
474.45368545388135
  0
LINE
  8
_0-5_金属
  6
CONTINUOUS
 62
    7
 10
862.69562829968891
 20
606.22082321629193
 11
862.69562829968891
 21
474.45368545388135
  0
LINE
  8
_0-d_断熱__ハッチ
  6
CONTINUOUS
 62
    4
 10
1272.1038924250433
 20
633.75281521629233
 11
1295.6086814683204
 21
610.24802617301305
  0
LINE
  8
_0-d_断熱__ハッチ
  6
CONTINUOUS
 62
    4
 10
1243.8196211775858
 20
633.75281521629006
 11
1278.8196211775858
 21
598.75281521628892
  0
LINE
  8
_0-d_断熱__ハッチ
  6
CONTINUOUS
 62
    4
 10
1215.5353499301191
 20
633.75281521629006
 11
1250.5353499301236
 21
598.75281521628892
  0
LINE
  8
_0-d_断熱__ハッチ
  6
CONTINUOUS
 62
    4
 10
1187.2510786826615
 20
633.75281521628892
 11
1222.2510786826615
 21
598.75281521629233
  0
LINE
  8
_0-d_断熱__ハッチ
  6
CONTINUOUS
 62
    4
 10
1065.1923114240572
 20
614.39022623757921
 11
1079.2297224453432
 21
600.35281521629202
  0
LINE
  8
_0-d_断熱__ハッチ
  6
CONTINUOUS
 62
    4
 10
1065.2165723067856
 20
615.7898925488206
 11
1069.7774949742552
 21
620.35081521629024
  0
LINE
  8
_0-d_断熱__ハッチ
  6
CONTINUOUS
 62
    4
 10
1053.5596282996858
 20
604.13294854171966
 11
1054.7774949742598
 21
605.35081521629365
  0
LINE
  8
_0-d_断熱__ハッチ
  6
CONTINUOUS
 62
    4
 10
1106.3480374691835
 20
600.35281521629202
 11
1139.748037469185
 21
633.75281521629347
  0
LINE
  8
_0-d_断熱__ハッチ
  6
CONTINUOUS
 62
    4
 10
1134.6323087166411
 20
600.35281521629088
 11
1168.032308716638
 21
633.75281521629006
  0
LINE
  8
_0-d_断熱__ハッチ
  6
CONTINUOUS
 62
    4
 10
1162.9165799641078
 20
600.35281521629202
 11
1196.3165799641047
 21
633.75281521628892
  0
LINE
  8
_0-d_断熱__ハッチ
  6
CONTINUOUS
 62
    4
 10
1191.2008512115654
 20
600.35281521629088
 11
1224.6008512115668
 21
633.75281521629233
  0
LINE
  8
_0-d_断熱__ハッチ
  6
CONTINUOUS
 62
    4
 10
1217.8851224590289
 20
598.75281521629006
 11
1252.8851224590289
 21
633.7528152162912
  0
LINE
  8
_0-d_断熱__ハッチ
  6
CONTINUOUS
 62
    4
 10
1246.1693937064865
 20
598.75281521628892
 11
1281.1693937064865
 21
633.75281521628892
  0
LINE
  8
_0-d_断熱__ハッチ
  6
CONTINUOUS
 62
    4
 10
1274.4536649539532
 20
598.7528152162912
 11
1295.6086814683204
 21
619.90783173065495
  0
LINE
  8
_0-8_笠木他
  6
CENTER1
 62
    9
 10
914.61882829968999
 20
661.32481521629131
 11
982.51762829968811
 21
661.32481521629131
  0
LINE
  8
_0-d_断熱__ハッチ
  6
CONTINUOUS
 62
    4
 10
942.69562829968891
 20
926.10805093693159
 11
951.43509832717882
 21
934.84752096441923
  0
LINE
  8
_0-d_断熱__ハッチ
  6
CONTINUOUS
 62
    4
 10
942.69562829968891
 20
915.50144921914068
 11
960.69562829969072
 21
933.5014492191425
  0
LINE
  8
_0-d_断熱__ハッチ
  6
CONTINUOUS
 62
    4
 10
942.69562829968891
 20
904.89484750134068
 11
960.69562829968618
 21
922.89484750134022
  0
LINE
  8
_0-d_断熱__ハッチ
  6
CONTINUOUS
 62
    4
 10
942.69562829968891
 20
894.2882457835384
 11
960.69562829969072
 21
912.28824578354136
  0
LINE
  8
_0-d_断熱__ハッチ
  6
CONTINUOUS
 62
    4
 10
942.69562829968891
 20
883.68164406574294
 11
960.69562829968618
 21
901.68164406574022
  0
LINE
  8
_0-d_断熱__ハッチ
  6
CONTINUOUS
 62
    4
 10
942.69562829968891
 20
873.07504234794067
 11
960.69562829968618
 21
891.07504234794021
  0
LINE
  8
_0-d_断熱__ハッチ
  6
CONTINUOUS
 62
    4
 10
942.69562829968891
 20
862.46844063014976
 11
960.69562829969072
 21
880.46844063015158
  0
LINE
  8
_0-d_断熱__ハッチ
  6
CONTINUOUS
 62
    4
 10
942.69562829968891
 20
851.86183891234975
 11
960.69562829968618
 21
869.8618389123493
  0
LINE
  8
_0-d_断熱__ハッチ
  6
CONTINUOUS
 62
    4
 10
942.69562829968891
 20
841.25523719454975
 11
960.69562829969072
 21
859.2552371945493
  0
LINE
  8
_0-d_断熱__ハッチ
  6
CONTINUOUS
 62
    4
 10
942.69562829968891
 20
830.64863547675202
 11
960.69562829968618
 21
848.64863547674929
  0
LINE
  8
_0-d_断熱__ハッチ
  6
CONTINUOUS
 62
    4
 10
944.295628299692
 20
821.64203375895283
 11
960.69562829968618
 21
838.04203375894929
  0
LINE
  8
_0-d_断熱__ハッチ
  6
CONTINUOUS
 62
    4
 10
944.295628299692
 20
811.03543204116193
 11
960.69562829969072
 21
827.43543204116065
  0
LINE
  8
_0-d_断熱__ハッチ
  6
CONTINUOUS
 62
    4
 10
944.29562829968745
 20
800.42883032335737
 11
960.69562829968618
 21
816.82883032335837
  0
LINE
  8
_0-d_断熱__ハッチ
  6
CONTINUOUS
 62
    4
 10
944.29562829968745
 20
789.82222860555964
 11
960.69562829969072
 21
806.22222860556064
  0
LINE
  8
_0-d_断熱__ハッチ
  6
CONTINUOUS
 62
    4
 10
944.29562829968745
 20
779.21562688775964
 11
960.69562829968618
 21
795.61562688775837
  0
LINE
  8
_0-d_断熱__ハッチ
  6
CONTINUOUS
 62
    4
 10
944.295628299692
 20
768.60902516995964
 11
960.69562829968618
 21
785.00902516995836
  0
LINE
  8
_0-d_断熱__ハッチ
  6
CONTINUOUS
 62
    4
 10
944.295628299692
 20
758.00242345216645
 11
960.69562829969072
 21
774.40242345216518
  0
LINE
  8
_0-d_断熱__ハッチ
  6
CONTINUOUS
 62
    4
 10
944.29562829968745
 20
747.39582173436872
 11
960.69562829968618
 21
763.79582173436745
  0
LINE
  8
_0-d_断熱__ハッチ
  6
CONTINUOUS
 62
    4
 10
954.85962349941019
 20
747.35321521629146
 11
960.69562829969072
 21
753.18922001656745
  0
LINE
  8
_0-9_他
  6
CONTINUOUS
 62
    4
 10
1016.780126922954
 20
633.074815216292
 11
1033.9214065438046
 21
633.074815216292
  0
LINE
  8
_0-9_他
  6
CONTINUOUS
 62
    4
 10
1018.3164618360661
 20
634.63081521629135
 11
1035.4651158645038
 21
634.63081521629135
  0
LINE
  8
_0-9_他
  6
CONTINUOUS
 62
    4
 10
1018.5848574805641
 20
634.90264632504079
 11
1022.6308725785611
 21
634.63081521629135
  0
LINE
  8
_0-9_他
  6
CONTINUOUS
 62
    4
 10
1022.964518596259
 20
634.63081521629135
 11
1030.3168725785599
 21
641.35081521629161
  0
LINE
  8
_0-9_他
  6
CONTINUOUS
 62
    4
 10
1027.5048725785609
 20
635.38081521629181
 11
1035.6645130081233
 21
634.83179991678924
  0
LINE
  8
_0-8_笠木他
  6
CONTINUOUS
 62
    4
 10
1022.2976282996888
 20
631.84881521629165
 11
1022.2976282996888
 21
631.35081521629161
  0
ARC
  8
_0-8_笠木他
  6
CONTINUOUS
 62
    4
 10
1020.6997402996922
 20
631.77169721629127
 40
1.6001560000000004
 50
2.7355149999999959
 51
75.544931999999974
  0
LINE
  8
_0-8_笠木他
  6
CONTINUOUS
 62
    4
 10
1017.7996282996901
 20
633.35081521629206
 11
1021.0996282996894
 21
633.32081521629163
  0
LINE
  8
_0-8_笠木他
  6
CONTINUOUS
 62
    4
 10
1016.2976282996897
 20
631.35081521629161
 11
1016.2976282996897
 21
631.84881521629165
  0
ARC
  8
_0-8_笠木他
  6
CONTINUOUS
 62
    4
 10
1017.9096442996888
 20
631.73717321629226
 40
1.6167739999999999
 50
93.933026000000041
 51
176.067003
  0
LINE
  8
_0-8_笠木他
  6
DASHED1
 62
    4
 10
1019.2976282996915
 20
606.41481521629146
 11
1019.2976282996915
 21
634.95681521629137
  0
LINE
  8
_0-8_笠木他
  6
CONTINUOUS
 62
    4
 10
1021.2996282996892
 20
611.99681521629088
 11
1021.2996282996892
 21
631.35081521629161
  0
LINE
  8
_0-8_笠木他
  6
CONTINUOUS
 62
    4
 10
1017.2976282996888
 20
631.35081521629161
 11
1017.2976282996888
 21
611.99681521629088
  0
LINE
  8
_0-8_笠木他
  6
CONTINUOUS
 62
    4
 10
1017.7996282996901
 20
631.35081521629161
 11
1017.7996282996901
 21
611.99681521629088
  0
LINE
  8
_0-8_笠木他
  6
CONTINUOUS
 62
    4
 10
1020.7956282996884
 20
631.35081521629161
 11
1020.7956282996884
 21
611.99681521629088
  0
LINE
  8
_0-5_金属
  6
CONTINUOUS
 62
    7
 10
842.69562829968891
 20
783.05281621689062
 11
842.69562829968891
 21
723.82296507852459
  0
LINE
  8
_0-5_金属
  6
CONTINUOUS
 62
    7
 10
862.69562829968891
 20
934.84752096441923
 11
862.69562829968891
 21
828.75281621689226
  0
LINE
  8
_0-5_金属
  6
CONTINUOUS
 62
    7
 10
922.69562829968891
 20
934.84752096441923
 11
922.69562829968891
 21
828.75281621689226
  0
LINE
  8
_0-5_金属
  6
CONTINUOUS
 62
    7
 10
942.69562829968891
 20
783.05281621689062
 11
942.69562829968891
 21
722.76115006213502
  0
LINE
  8
_0-5_金属
  6
CONTINUOUS
 62
    7
 10
922.69562829968891
 20
778.75281621688998
 11
922.69562829968891
 21
722.41283563516561
  0
LINE
  8
_0-5_金属
  6
CONTINUOUS
 62
    7
 10
862.69562829968891
 20
778.75281621688998
 11
862.69562829968891
 21
714.22096527848396
  0
LINE
  8
_0-5_金属
  6
CONTINUOUS
 62
    7
 10
842.69562829968891
 20
824.45281621689162
 11
842.69562829968891
 21
934.84752096441923
  0
LINE
  8
_0-5_金属
  6
CONTINUOUS
 62
    7
 10
922.69562829968891
 20
781.05281621689016
 11
922.69562829968891
 21
778.75281621688998
  0
LINE
  8
_0-5_金属
  6
CONTINUOUS
 62
    7
 10
862.69562829968891
 20
781.05281621689016
 11
862.69562829968891
 21
778.75281621688998
  0
LINE
  8
_0-5_金属
  6
CONTINUOUS
 62
    7
 10
846.99562829968727
 20
781.05281621689016
 11
862.69562829968891
 21
781.05281621689016
  0
ARC
  8
_0-5_金属
  6
CONTINUOUS
 62
    7
 10
846.99562829968727
 20
783.05281621689062
 40
2
 50
180
 51
270
  0
LINE
  8
_0-5_金属
  6
CONTINUOUS
 62
    7
 10
844.99562829968909
 20
824.45281621689162
 11
844.99562829968909
 21
783.05281621689062
  0
ARC
  8
_0-5_金属
  6
CONTINUOUS
 62
    7
 10
846.99562829968727
 20
824.45281621689162
 40
2
 50
90
 51
180
  0
LINE
  8
_0-5_金属
  6
CONTINUOUS
 62
    7
 10
938.39562829969054
 20
826.4528162168898
 11
846.99562829968727
 21
826.4528162168898
  0
ARC
  8
_0-5_金属
  6
CONTINUOUS
 62
    7
 10
938.39562829969054
 20
824.45281621689162
 40
2
 50
0
 51
90.000000000000014
  0
LINE
  8
_0-5_金属
  6
CONTINUOUS
 62
    7
 10
938.39562829969054
 20
781.05281621689016
 11
922.69562829968891
 21
781.05281621689016
  0
ARC
  8
_0-5_金属
  6
CONTINUOUS
 62
    7
 10
938.39562829969054
 20
783.05281621689062
 40
2
 50
270
 51
0
  0
LINE
  8
_0-5_金属
  6
CONTINUOUS
 62
    7
 10
938.39562829969054
 20
778.75281621688998
 11
922.69562829968891
 21
778.75281621688998
  0
ARC
  8
_0-5_金属
  6
CONTINUOUS
 62
    7
 10
938.39562829969054
 20
783.05281621689062
 40
4.2999999999999989
 50
270
 51
0
  0
ARC
  8
_0-5_金属
  6
CONTINUOUS
 62
    7
 10
938.39562829969054
 20
824.45281621689162
 40
4.2999999999999989
 50
0
 51
90
  0
LINE
  8
_0-5_金属
  6
CONTINUOUS
 62
    7
 10
846.99562829968727
 20
828.75281621689226
 11
938.39562829969054
 21
828.75281621689226
  0
ARC
  8
_0-5_金属
  6
CONTINUOUS
 62
    7
 10
846.99562829968727
 20
824.45281621689162
 40
4.2999999999999989
 50
90
 51
180
  0
LINE
  8
_0-5_金属
  6
CONTINUOUS
 62
    7
 10
842.69562829968891
 20
783.05281621689062
 11
842.69562829968891
 21
824.45281621689162
  0
LINE
  8
_0-5_金属
  6
CONTINUOUS
 62
    7
 10
846.99562829968727
 20
778.75281621688998
 11
862.69562829968891
 21
778.75281621688998
  0
ARC
  8
_0-5_金属
  6
CONTINUOUS
 62
    7
 10
846.99562829968727
 20
783.05281621689062
 40
4.2999999999999989
 50
180
 51
270
  0
LINE
  8
_0-5_金属
  6
CONTINUOUS
 62
    7
 10
942.69562829968891
 20
783.05281621689062
 11
942.69562829968891
 21
824.45281621689162
  0
LINE
  8
_0-5_金属
  6
CONTINUOUS
 62
    7
 10
940.39562829968872
 20
783.05281621689062
 11
940.39562829968872
 21
824.45281621689162
  0
LINE
  8
_0-8_笠木他
  6
CONTINUOUS
 62
    7
 10
790.93669339399185
 20
705.78438672034224
 11
919.29522829968846
 21
708.35155741845654
  0
LINE
  8
_0-8_笠木他
  6
CONTINUOUS
 62
    7
 10
785.69017085189898
 20
611.68211392736509
 11
919.29522829968846
 21
614.35421507631929
  0
LINE
  8
_0-8_笠木他
  6
CONTINUOUS
 62
    7
 10
789.39300171572995
 20
604.7547706846143
 11
919.29522829968846
 21
607.35281521629133
  0
ARC
  8
_0-8_笠木他
  6
CONTINUOUS
 62
    7
 10
833.21358201265866
 20
632.63121780609993
 40
51.935917838010504
 50
149.82906055169201
 51
212.46246512465788
  0
LINE
  8
_0-8_笠木他
  6
CONTINUOUS
 62
    7
 10
787.23386253016088
 20
712.71172996309303
 11
919.29522829968846
 21
715.3529572784845
  0
ARC
  8
_0-8_笠木他
  6
CONTINUOUS
 62
    7
 10
832.13401241987413
 20
686.60969744534157
 40
51.935917838010504
 50
149.82906055169292
 51
212.46246512465851
  0
ARC
  8
_0-8_笠木他
  6
CONTINUOUS
 62
    7
 10
743.41328223323217
 20
684.83528284160855
 40
51.935917838010504
 50
329.82906055169201
 51
32.462465124657889
  0
LINE
  8
_0-d_断熱__ハッチ
  6
CONTINUOUS
 62
    4
 10
807.98199210603798
 20
604.01111772885145
 11
809.12018880355845
 21
605.14931442636851
  0
LINE
  8
_0-d_断熱__ハッチ
  6
CONTINUOUS
 62
    4
 10
808.39582071435871
 20
600.88941243123884
 11
812.72787646267261
 21
605.22146817955161
  0
LINE
  8
_0-d_断熱__ハッチ
  6
CONTINUOUS
 62
    4
 10
808.15707581387869
 20
597.11513362482322
 11
816.33556412178677
 21
605.29362193273357
  0
LINE
  8
_0-d_断熱__ハッチ
  6
CONTINUOUS
 62
    4
 10
809.73712953596532
 20
595.15965344097879
 11
819.94325178090548
 21
605.36577568591554
  0
LINE
  8
_0-d_断熱__ハッチ
  6
CONTINUOUS
 62
    4
 10
813.34481719507949
 20
595.23180719415961
 11
823.55093944001965
 21
605.43792943909978
  0
LINE
  8
_0-d_断熱__ハッチ
  6
CONTINUOUS
 62
    4
 10
816.9525048541982
 20
595.30396094734272
 11
827.15862709913836
 21
605.51008319228174
  0
LINE
  8
_0-d_断熱__ハッチ
  6
CONTINUOUS
 62
    4
 10
820.56019251331236
 20
595.37611470052468
 11
830.76631475825252
 21
605.58223694546484
  0
LINE
  8
_0-d_断熱__ハッチ
  6
CONTINUOUS
 62
    4
 10
834.10205989161113
 20
605.38244817288785
 11
834.37400241736668
 21
605.65439069864794
  0
LINE
  8
_0-d_断熱__ハッチ
  6
CONTINUOUS
 62
    4
 10
824.16788017242652
 20
595.44826845370665
 11
829.72095115491356
 21
601.00133943619028
  0
LINE
  8
_0-d_断熱__ハッチ
  6
CONTINUOUS
 62
    4
 10
827.77556783154523
 20
595.52042220688975
 11
830.46716302640107
 21
598.21201740174445
  0
LINE
  8
_0-d_断熱__ハッチ
  6
CONTINUOUS
 62
    4
 10
831.38325549065939
 20
595.59257596007171
 11
832.36409885460034
 21
596.57341932401152
  0
LINE
  8
_0-d_断熱__ハッチ
  6
CONTINUOUS
 62
    4
 10
834.99094314976901
 20
595.66472971325368
 11
835.06828113597294
 21
595.7420676994542
  0
LINE
  8
_0-d_断熱__ハッチ
  6
CONTINUOUS
 62
    4
 10
808.19491035912961
 20
720.89665487772606
 11
810.476844891773
 21
723.17858941036945
  0
LINE
  8
_0-d_断熱__ハッチ
  6
CONTINUOUS
 62
    4
 10
808.40390735324036
 20
717.57011796590348
 11
814.08453255088716
 21
723.25074316355028
  0
LINE
  8
_0-d_断熱__ハッチ
  6
CONTINUOUS
 62
    4
 10
807.77692662212758
 20
713.40760332885509
 11
817.69222021000587
 21
723.32289691673338
  0
LINE
  8
_0-d_断熱__ハッチ
  6
CONTINUOUS
 62
    4
 10
811.09378562417987
 20
713.18892842497633
 11
821.29990786912003
 21
723.39505066991421
  0
LINE
  8
_0-d_断熱__ハッチ
  6
CONTINUOUS
 62
    4
 10
814.70147328329404
 20
713.26108217815715
 11
824.9075955282342
 21
723.46720442309731
  0
LINE
  8
_0-d_断熱__ハッチ
  6
CONTINUOUS
 62
    4
 10
818.30916094241275
 20
713.33323593134025
 11
828.51528318734836
 21
723.53935817627814
  0
LINE
  8
_0-d_断熱__ハッチ
  6
CONTINUOUS
 62
    4
 10
821.91684860152691
 20
713.40538968452108
 11
832.12297084646707
 21
723.61151192945897
  0
LINE
  8
_0-d_断熱__ハッチ
  6
CONTINUOUS
 62
    4
 10
835.71679296332604
 20
723.66980014038916
 11
835.73065850558123
 21
723.68366568264207
  0
LINE
  8
_0-d_断熱__ハッチ
  6
CONTINUOUS
 62
    4
 10
825.52453626064107
 20
713.47754343770418
 11
829.78487337643401
 21
717.73788055349257
  0
LINE
  8
_0-d_断熱__ハッチ
  6
CONTINUOUS
 62
    4
 10
829.13222391975978
 20
713.54969719088729
 11
831.08353122321205
 21
715.50100449433955
  0
LINE
  8
_0-d_断熱__ハッチ
  6
CONTINUOUS
 62
    4
 10
832.73991157887394
 20
713.62185094406811
 11
833.28150178462693
 21
714.16344114982337
  0
ARC
  8
_0-3_線色３__緑__
  6
CONTINUOUS
 62
    3
 10
790.60927983650799
 20
600.1198233162728
 40
17.80318240666822
 50
343.68578488793537
 51
16.314215112065494
  0
ARC
  8
_0-3_線色３__緑__
  6
CONTINUOUS
 62
    3
 10
790.60927983650799
 20
718.12196517850396
 40
17.80318240666822
 50
343.68578488793537
 51
16.314215112065494
  0
LINE
  8
_0-d_断熱__ハッチ
  6
CONTINUOUS
 62
    4
 10
833.94562829968891
 20
934.84752096441923
 11
833.94562829968891
 21
723.64796507852532
  0
LINE
  8
_0-d_断熱__ハッチ
  6
CONTINUOUS
 62
    4
 10
825.19562829968891
 20
934.84752096441923
 11
825.19562829968891
 21
723.47296507852377
  0
LINE
  8
_0-d_断熱__ハッチ
  6
CONTINUOUS
 62
    4
 10
816.44562829968891
 20
934.84752096441923
 11
816.44562829968891
 21
723.2979650785245
  0
LINE
  8
_0-3_線色３__緑__
  6
CONTINUOUS
 62
    3
 10
807.69562829968891
 20
723.12296507852523
 11
807.69562829968891
 21
934.84752096441923
  0
LINE
  8
_0-9_他
  6
CONTINUOUS
 62
    4
 10
1081.8528725785609
 20
636.18081521629108
 11
1074.1308449993994
 21
628.35081521629093
  0
LINE
  8
_0-9_他
  6
CONTINUOUS
 62
    4
 10
990.54287257856231
 20
628.35081521629093
 11
1074.1308449993994
 21
628.35081521629093
  0
LINE
  8
_0-9_他
  6
DASHED1
 62
    4
 10
1064.1108725785625
 20
635.24481521629184
 11
1062.3428725785607
 21
635.40081521629133
  0
LINE
  8
_0-9_他
  6
CONTINUOUS
 62
    4
 10
1076.8508725785614
 20
636.18081521629108
 11
1081.8528725785609
 21
636.18081521629108
  0
LINE
  8
_0-9_他
  6
CONTINUOUS
 62
    4
 10
1070.5688725785603
 20
629.85081521629183
 11
1076.8508725785614
 21
636.18081521629108
  0
LINE
  8
_0-9_他
  6
CONTINUOUS
 62
    4
 10
1067.1588725785614
 20
629.85081521629183
 11
1070.5688725785603
 21
629.85081521629183
  0
LINE
  8
_0-9_他
  6
CONTINUOUS
 62
    4
 10
1073.438872578563
 20
636.18081521629108
 11
1067.1588725785614
 21
629.85081521629183
  0
LINE
  8
_0-9_他
  6
CONTINUOUS
 62
    4
 10
1065.0128725785635
 20
636.18081521629108
 11
1073.438872578563
 21
636.18081521629108
  0
LINE
  8
_0-9_他
  6
CONTINUOUS
 62
    4
 10
1058.7288725785629
 20
629.85081521629183
 11
1065.0128725785635
 21
636.18081521629108
  0
LINE
  8
_0-9_他
  6
CONTINUOUS
 62
    4
 10
1046.4448725785633
 20
629.85081521629183
 11
1058.7288725785629
 21
629.85081521629183
  0
LINE
  8
_0-9_他
  6
CONTINUOUS
 62
    4
 10
1052.7248725785603
 20
636.18081521629108
 11
1046.4448725785633
 21
629.85081521629183
  0
LINE
  8
_0-9_他
  6
CONTINUOUS
 62
    4
 10
1037.0028725785596
 20
636.18081521629108
 11
1052.7248725785603
 21
636.18081521629108
  0
LINE
  8
_0-9_他
  6
CONTINUOUS
 62
    4
 10
1030.7228725785626
 20
629.85081521629183
 11
1037.0028725785596
 21
636.18081521629108
  0
LINE
  8
_0-9_他
  6
CONTINUOUS
 62
    4
 10
1013.5968725785642
 20
629.85081521629183
 11
1030.7228725785626
 21
629.85081521629183
  0
LINE
  8
_0-9_他
  6
CONTINUOUS
 62
    4
 10
1019.8468725785597
 20
636.18081521629108
 11
1013.5968725785642
 21
629.85081521629183
  0
LINE
  8
_0-9_他
  6
CONTINUOUS
 62
    4
 10
990.70087257856358
 20
636.18081521629108
 11
1019.8468725785597
 21
636.18081521629108
  0
LINE
  8
_0-9_他
  6
CONTINUOUS
 62
    4
 10
1032.2088725785625
 20
631.35081521629161
 11
1015.0768725785611
 21
631.35081521629161
  0
LINE
  8
_0-9_他
  6
CONTINUOUS
 62
    4
 10
1053.1268725785594
 20
631.35081521629161
 11
1047.9308725785631
 21
631.35081521629161
  0
LINE
  8
_0-9_他
  6
CONTINUOUS
 62
    4
 10
1060.5608725785623
 20
631.69881521629179
 11
1053.1268725785594
 21
631.35081521629161
  0
LINE
  8
_0-9_他
  6
CENTER2
 62
    4
 10
1074.6308725785593
 20
629.85081521629183
 11
1075.5768725785629
 21
629.85081521629183
  0
LINE
  8
_0-9_他
  6
CENTER2
 62
    4
 10
1081.1048725785622
 20
636.18081521629108
 11
1074.6308725785593
 21
629.85081521629183
  0
LINE
  8
_0-9_他
  6
CENTER2
 62
    4
 10
1072.0008725785601
 20
629.85081521629183
 11
1078.2588725785627
 21
636.18081521629108
  0
LINE
  8
_0-9_他
  6
CENTER2
 62
    4
 10
1070.5688725785603
 20
629.85081521629183
 11
1072.0008725785601
 21
629.85081521629183
  0
LINE
  8
_0-9_他
  6
CENTER2
 62
    4
 10
1061.8328725785614
 20
629.85081521629183
 11
1068.1128725785629
 21
636.18081521629222
  0
LINE
  8
_0-9_他
  6
CENTER2
 62
    4
 10
1058.7288725785629
 20
629.85081521629183
 11
1061.8328725785614
 21
629.85081521629183
  0
LINE
  8
_0-9_他
  6
CONTINUOUS
 62
    4
 10
1049.750872578561
 20
633.074815216292
 11
1062.0368725785602
 21
633.074815216292
  0
LINE
  8
_0-9_他
  6
CONTINUOUS
 62
    4
 10
1067.5208725785615
 20
641.35081521629161
 11
986.43287257856173
 21
641.35081521629161
  0
LINE
  8
_0-9_他
  6
CONTINUOUS
 62
    4
 10
1051.2388725785604
 20
634.63081521629135
 11
1063.5248725785596
 21
634.63081521629135
  0
LINE
  8
_0-9_他
  6
CONTINUOUS
 62
    4
 10
1007.5628725785646
 20
641.35081521629161
 11
1003.2668725785607
 21
636.18081521629222
  0
LINE
  8
_0-9_他
  6
CONTINUOUS
 62
    4
 10
999.83687257856218
 20
636.18081521629222
 11
1005.3868725785605
 21
641.35081521629161
  0
LINE
  8
_0-9_他
  6
CONTINUOUS
 62
    4
 10
1020.1708725785602
 20
641.35081521629161
 11
1015.8748725785608
 21
636.18081521629222
  0
LINE
  8
_0-9_他
  6
CONTINUOUS
 62
    4
 10
1012.4448725785624
 20
636.18081521629222
 11
1017.9928725785612
 21
641.35081521629161
  0
LINE
  8
_0-9_他
  6
CONTINUOUS
 62
    4
 10
995.01687257856247
 20
641.35081521629161
 11
990.7228725785626
 21
636.18081521629222
  0
LINE
  8
_0-9_他
  6
CONTINUOUS
 62
    4
 10
987.79687257856494
 20
636.54681521629129
 11
992.95087257856267
 21
641.35081521629161
  0
LINE
  8
_0-9_他
  6
CONTINUOUS
 62
    4
 10
1032.6988725785623
 20
641.35081521629161
 11
1026.8508725785614
 21
634.63081521629135
  0
LINE
  8
_0-9_他
  6
CONTINUOUS
 62
    4
 10
1034.0688725785594
 20
634.63081521629135
 11
1041.282872578563
 21
641.35081521629161
  0
LINE
  8
_0-9_他
  6
CONTINUOUS
 62
    4
 10
1052.8108725785614
 20
641.35081521629161
 11
1048.3128725785627
 21
636.18081521629222
  0
LINE
  8
_0-9_他
  6
CONTINUOUS
 62
    4
 10
1044.7308725785615
 20
636.18081521629222
 11
1050.2768725785609
 21
641.35081521629161
  0
LINE
  8
_0-9_他
  6
CONTINUOUS
 62
    4
 10
1060.2408725785608
 20
641.35081521629161
 11
1054.3948725785594
 21
634.63081521629135
  0
LINE
  8
_0-9_他
  6
CONTINUOUS
 62
    4
 10
1052.1588725785614
 20
636.18081521629222
 11
1057.7068725785603
 21
641.35081521629161
  0
LINE
  8
_0-9_他
  6
CONTINUOUS
 62
    4
 10
1055.04487257856
 20
635.37881521629231
 11
1058.3048725785602
 21
634.63081521629135
  0
LINE
  8
_0-9_他
  6
CONTINUOUS
 62
    4
 10
1067.5208725785615
 20
641.35081521629161
 11
1061.6728725785606
 21
634.63081521629135
  0
LINE
  8
_0-9_他
  6
CONTINUOUS
 62
    4
 10
1058.3048725785602
 20
634.63081521629135
 11
1065.5148725785602
 21
641.35081521629161
  0
LINE
  8
_0-9_他
  6
CONTINUOUS
 62
    4
 10
971.03887257856059
 20
680.91081521629292
 11
977.14887257855935
 21
687.37481521629149
  0
LINE
  8
_0-9_他
  6
CONTINUOUS
 62
    4
 10
970.44687257855912
 20
698.0254152162928
 11
971.03887257856059
 21
680.91081521629292
  0
LINE
  8
_0-9_他
  6
CONTINUOUS
 62
    4
 10
969.18487257856214
 20
734.43961521629205
 11
975.2908725785619
 21
740.9336152162922
  0
LINE
  8
_0-9_他
  6
CONTINUOUS
 62
    4
 10
969.06687257855992
 20
737.84741521629201
 11
969.18487257856214
 21
734.43961521629205
  0
LINE
  8
_0-9_他
  6
CONTINUOUS
 62
    4
 10
975.17287257855969
 20
744.3442152162919
 11
969.06687257855992
 21
737.84741521629201
  0
LINE
  8
_0-9_他
  6
CONTINUOUS
 62
    4
 10
974.99887257856244
 20
749.3444152162914
 11
975.17287257855969
 21
744.3442152162919
  0
LINE
  8
_0-9_他
  6
CONTINUOUS
 62
    4
 10
967.44087257856336
 20
741.35181521629363
 11
974.99887257856244
 21
749.3444152162914
  0
LINE
  8
_0-9_他
  6
CONTINUOUS
 62
    4
 10
970.69287257856104
 20
647.65281521629106
 11
967.44087257856336
 21
741.35181521629363
  0
LINE
  8
_0-9_他
  6
CONTINUOUS
 62
    4
 10
972.50087257856194
 20
682.45481521629188
 11
971.90287257856198
 21
699.57421521629328
  0
LINE
  8
_0-9_他
  6
CENTER2
 62
    4
 10
968.92487257855919
 20
741.90641521629402
 11
968.89287257856267
 21
742.85241521629302
  0
LINE
  8
_0-9_他
  6
CENTER2
 62
    4
 10
975.02687257855996
 20
748.59541521629296
 11
968.92487257855919
 21
741.90641521629402
  0
LINE
  8
_0-9_他
  6
CENTER2
 62
    4
 10
969.01687257856338
 20
739.27781521629129
 11
975.12487257856264
 21
745.75061521629266
  0
LINE
  8
_0-9_他
  6
CENTER2
 62
    4
 10
969.06687257855992
 20
737.84741521629201
 11
969.01687257856338
 21
739.27781521629129
  0
ARC
  8
_0-9_他
  6
CONTINUOUS
 62
    4
 10
991.31125057856025
 20
648.79881521629102
 40
12.632899999999999
 50
183.93788599999999
 51
267.23260699999997
  0
LINE
  8
_0-9_他
  6
CONTINUOUS
 62
    4
 10
977.14887257855935
 20
687.37481521629149
 11
978.70887257856339
 21
647.93081521629176
  0
LINE
  8
_0-9_他
  6
CONTINUOUS
 62
    4
 10
985.69287257856104
 20
640.58281521629112
 11
987.33487257856268
 21
636.67681521629163
  0
LINE
  8
_0-9_他
  6
CONTINUOUS
 62
    4
 10
983.02487257856228
 20
643.16281521629151
 11
979.3048725785593
 21
644.57481521629177
  0
LINE
  8
_0-9_他
  6
CENTER1
 62
    4
 10
986.43287257856173
 20
641.35081521629161
 11
985.69287257856104
 21
640.58281521629112
  0
LINE
  8
_0-9_他
  6
CENTER1
 62
    4
 10
983.76487257856297
 20
643.92881521629135
 11
983.02487257856228
 21
643.16281521629151
  0
LINE
  8
_0-9_他
  6
CONTINUOUS
 62
    4
 10
986.43287257856173
 20
641.35081521629161
 11
983.76487257856297
 21
643.92881521629135
  0
LINE
  8
_0-9_他
  6
CONTINUOUS
 62
    4
 10
974.14687257856258
 20
684.28881521629307
 11
973.55287257856162
 21
701.44141521629251
  0
LINE
  8
_0-9_他
  6
CONTINUOUS
 62
    4
 10
980.52087257856329
 20
739.35221521629444
 11
983.76487257856297
 21
643.92881521629135
  0
LINE
  8
_0-9_他
  6
CONTINUOUS
 62
    4
 10
975.65087257856248
 20
685.83281521629203
 11
975.05687257856152
 21
702.98281521629349
  0
LINE
  8
_0-9_他
  6
CONTINUOUS
 62
    4
 10
983.1808725785595
 20
663.14881521629275
 11
978.20287257856307
 21
657.42281521629195
  0
LINE
  8
_0-9_他
  6
CONTINUOUS
 62
    4
 10
983.10487257856039
 20
665.32281521629272
 11
983.1808725785595
 21
663.14881521629275
  0
LINE
  8
_0-9_他
  6
CONTINUOUS
 62
    4
 10
978.08487257856086
 20
660.84881521629256
 11
983.10487257856039
 21
665.32281521629272
  0
LINE
  8
_0-9_他
  6
CONTINUOUS
 62
    4
 10
982.73887257856131
 20
675.74881521629266
 11
977.76487257856388
 21
670.022815216293
  0
LINE
  8
_0-9_他
  6
CONTINUOUS
 62
    4
 10
982.6628725785622
 20
677.92081521629314
 11
982.73887257856131
 21
675.74881521629266
  0
LINE
  8
_0-9_他
  6
CONTINUOUS
 62
    4
 10
977.64487257856217
 20
673.45081521629197
 11
982.6628725785622
 21
677.92081521629314
  0
LINE
  8
_0-9_他
  6
CONTINUOUS
 62
    4
 10
983.54087257856008
 20
650.44081521629153
 11
979.10687257856353
 21
645.25881521629174
  0
LINE
  8
_0-9_他
  6
CONTINUOUS
 62
    4
 10
983.46887257855997
 20
652.50881521629196
 11
983.54087257856008
 21
650.44081521629153
  0
LINE
  8
_0-9_他
  6
CONTINUOUS
 62
    4
 10
978.69487257856235
 20
648.25281521629165
 11
983.46887257855997
 21
652.50881521629196
  0
LINE
  8
_0-9_他
  6
CONTINUOUS
 62
    4
 10
982.31087257855961
 20
688.06481521629337
 11
977.50487257856093
 21
682.42481521629259
  0
LINE
  8
_0-9_他
  6
CONTINUOUS
 62
    4
 10
982.22687257856251
 20
690.44461521629216
 11
982.31087257855961
 21
688.06481521629337
  0
LINE
  8
_0-9_他
  6
CONTINUOUS
 62
    4
 10
977.38887257856277
 20
685.75681521629292
 11
982.22687257856251
 21
690.44461521629216
  0
ARC
  8
_0-9_他
  6
CONTINUOUS
 62
    4
 10
991.40073657856192
 20
649.09487721629091
 40
20.757428000000001
 50
183.98347799999996
 51
268.01577899999995
  0
LINE
  8
_0-9_他
  6
CENTER2
 62
    4
 10
1030.7228725785626
 20
629.85081521629183
 11
1032.9088725785596
 21
629.85081521629183
  0
LINE
  8
_0-9_他
  6
CENTER2
 62
    4
 10
1032.9088725785596
 20
629.85081521629183
 11
1039.090872578563
 21
636.18081521629222
  0
LINE
  8
_0-9_他
  6
CONTINUOUS
 62
    4
 10
1043.6328725785597
 20
641.35081521629161
 11
1039.1337416261786
 21
636.18081521629108
  0
LINE
  8
_0-9_他
  6
CONTINUOUS
 62
    4
 10
976.55487257856294
 20
704.52221521629269
 11
970.44687257855912
 21
698.0254152162928
  0
LINE
  8
_0-9_他
  6
CONTINUOUS
 62
    4
 10
969.90287257855925
 20
713.73781521629269
 11
976.01087257856307
 21
720.23321521629384
  0
LINE
  8
_0-9_他
  6
CONTINUOUS
 62
    4
 10
969.4748725785621
 20
726.01421521629106
 11
969.90287257855925
 21
713.73781521629269
  0
LINE
  8
_0-9_他
  6
CONTINUOUS
 62
    4
 10
975.58487257856086
 20
732.51361521629349
 11
969.4748725785621
 21
726.01421521629106
  0
LINE
  8
_0-9_他
  6
CONTINUOUS
 62
    4
 10
975.2908725785619
 20
740.9336152162922
 11
975.58487257856086
 21
732.51361521629349
  0
LINE
  8
_0-9_他
  6
CONTINUOUS
 62
    4
 10
971.35287257856362
 20
715.28201521629342
 11
970.92487257856192
 21
727.5582152162923
  0
LINE
  8
_0-9_他
  6
CENTER2
 62
    4
 10
969.36887257856142
 20
729.11481521629355
 11
975.47687257856069
 21
735.61161521629344
  0
LINE
  8
_0-9_他
  6
CENTER2
 62
    4
 10
969.4748725785621
 20
726.01421521629334
 11
969.36887257856142
 21
729.11481521629355
  0
LINE
  8
_0-9_他
  6
CENTER2
 62
    4
 10
970.37087257856001
 20
700.20961521629431
 11
976.48287257856282
 21
706.60701521629278
  0
LINE
  8
_0-9_他
  6
CENTER2
 62
    4
 10
970.44687257856367
 20
698.0254152162928
 11
970.37087257856001
 21
700.20961521629431
  0
LINE
  8
_0-9_他
  6
CONTINUOUS
 62
    4
 10
973.00887257856175
 20
717.15261521629316
 11
972.58287257855955
 21
729.4310152162933
  0
LINE
  8
_0-9_他
  6
CONTINUOUS
 62
    4
 10
976.01087257856307
 20
720.23321521629384
 11
976.55487257856294
 21
704.52221521629269
  0
LINE
  8
_0-9_他
  6
CONTINUOUS
 62
    4
 10
974.51287257856166
 20
718.69541521629287
 11
974.08487257855995
 21
730.97161521629403
  0
LINE
  8
_0-9_他
  6
CONTINUOUS
 62
    4
 10
981.89087257856045
 20
700.01721521629349
 11
975.4248725785601
 21
692.57521521629258
  0
LINE
  8
_0-9_他
  6
CONTINUOUS
 62
    4
 10
981.81087257856234
 20
702.36621521629274
 11
981.89087257856045
 21
700.01721521629349
  0
LINE
  8
_0-9_他
  6
CONTINUOUS
 62
    4
 10
975.2968725785604
 20
696.28961521629151
 11
981.81087257856234
 21
702.36621521629274
  0
LINE
  8
_0-9_他
  6
CONTINUOUS
 62
    4
 10
981.51687257856338
 20
710.76881521629218
 11
976.5428725785614
 21
705.04641521629253
  0
LINE
  8
_0-9_他
  6
CONTINUOUS
 62
    4
 10
981.42887257856273
 20
713.30021521629249
 11
981.51687257856338
 21
710.76881521629218
  0
LINE
  8
_0-9_他
  6
CONTINUOUS
 62
    4
 10
976.4168725785612
 20
708.62801521629251
 11
981.42887257856273
 21
713.30021521629249
  0
LINE
  8
_0-9_他
  6
CONTINUOUS
 62
    4
 10
981.19487257856235
 20
719.95901521629264
 11
976.22087257856037
 21
714.23521521629425
  0
LINE
  8
_0-9_他
  6
CONTINUOUS
 62
    4
 10
981.1108725785607
 20
722.48981521629446
 11
981.19487257856235
 21
719.95901521629264
  0
LINE
  8
_0-9_他
  6
CONTINUOUS
 62
    4
 10
976.09687257855967
 20
717.81681521629196
 11
981.1108725785607
 21
722.48981521629446
  0
LINE
  8
_0-9_他
  6
CONTINUOUS
 62
    4
 10
980.88887257856186
 20
728.75301521629297
 11
974.41887257856251
 21
721.42741521629375
  0
LINE
  8
_0-9_他
  6
CONTINUOUS
 62
    4
 10
980.79287257856322
 20
731.52761521629316
 11
980.88887257856186
 21
728.75301521629297
  0
LINE
  8
_0-9_他
  6
CONTINUOUS
 62
    4
 10
974.27687257856178
 20
725.4546152162942
 11
980.79287257856322
 21
731.52761521629316
  0
LINE
  8
_0-9_他
  6
CONTINUOUS
 62
    4
 10
980.58887257855986
 20
737.35001521629272
 11
974.12287257855951
 21
729.90921521629332
  0
LINE
  8
_0-9_他
  6
CONTINUOUS
 62
    4
 10
980.52087257856329
 20
739.35221521629444
 11
980.58887257855986
 21
737.35001521629272
  0
LINE
  8
_0-9_他
  6
CONTINUOUS
 62
    4
 10
975.50487257856275
 20
734.77501521629335
 11
980.52087257856329
 21
739.35221521629444
  0
LINE
  8
_0-9_他
  6
CONTINUOUS
 62
    4
 10
970.63087257856296
 20
735.97881521629404
 11
970.51287257856075
 21
739.38601521629096
  0
LINE
  8
_0-9_他
  6
DASHED1
 62
    4
 10
971.90287257856198
 20
699.57421521629328
 11
971.35287257856362
 21
715.28201521629342
  0
LINE
  8
_0-9_他
  6
DASHED1
 62
    4
 10
970.51287257856075
 20
739.38601521629096
 11
970.3388725785635
 21
744.35321521629191
  0
LINE
  8
_0-9_他
  6
DASHED1
 62
    4
 10
970.92487257856192
 20
727.5582152162923
 11
970.63087257856296
 21
735.97881521629404
  0
LINE
  8
_0-9_他
  6
DASHED1
 62
    4
 10
973.80087257856303
 20
645.20881521629178
 11
972.50087257856194
 21
682.45481521629188
  0
LINE
  8
_0-9_他
  6
DASHED1
 62
    4
 10
988.15287257856198
 20
631.35081521629161
 11
973.80087257856303
 21
645.20881521629178
  0
LINE
  8
_0-9_他
  6
DASHED1
 62
    4
 10
1015.0768725785611
 20
631.35081521629161
 11
988.15287257856198
 21
631.35081521629161
  0
LINE
  8
_0-9_他
  6
DASHED1
 62
    4
 10
1047.9308725785631
 20
631.35081521629161
 11
1032.2088725785625
 21
631.35081521629161
  0
LINE
  8
_0-9_他
  6
DASHED1
 62
    4
 10
1069.398872578563
 20
632.11081521629183
 11
1060.5608725785623
 21
631.69881521629179
  0
LINE
  8
_0-9_他
  6
CONTINUOUS
 62
    4
 10
1072.9768725785607
 20
632.27681521629108
 11
1069.398872578563
 21
632.11081521629183
  0
LINE
  8
_0-2_線色２__白__
  6
CONTINUOUS
 62
    7
 10
1053.5596282996903
 20
605.35081521629138
 11
1053.5596282996903
 21
600.35281521629088
  0
LINE
  8
ADD_LINE
  6
DOT
 62
    4
 10
899.10202829968966
 20
720.35261521629252
 11
965.60362829969108
 21
720.35261521629252
  0
LINE
  8
ADD_LINE
  6
DOT
 62
    4
 10
1059.2976282996915
 20
624.64681521629075
 11
1059.2976282996915
 21
557.96681521629068
  0
LINE
  8
_0-4_線色４__黄__
  6
CONTINUOUS
 62
    2
 10
965.69562829969072
 20
749.1071205130828
 11
967.23477703356821
 21
747.18318459573482
  0
LINE
  8
_0-4_線色４__黄__
  6
CONTINUOUS
 62
    2
 10
967.23477703356821
 20
747.18318459573482
 11
968.91503301382272
 21
699.06282743937197
  0
LINE
  8
_0-2_線色２__白__
  6
CONTINUOUS
 62
    7
 10
960.69562829969072
 20
747.35321521629146
 11
962.29562829968927
 21
745.35321521629101
  0
LINE
  8
_0-2_線色２__白__
  6
CONTINUOUS
 62
    7
 10
960.69562829969072
 20
747.35321521629146
 11
944.295628299692
 21
747.35321521629146
  0
LINE
  8
_0-2_線色２__白__
  6
CONTINUOUS
 62
    7
 10
960.69562829969072
 20
747.35321521629146
 11
960.69562829969072
 21
934.84752096441923
  0
LINE
  8
_0-4_線色４__黄__
  6
CONTINUOUS
 62
    2
 10
968.91503301382272
 20
699.06282743937197
 11
963.91807835749205
 21
698.88834488270675
  0
LINE
  8
_0-2_線色２__白__
  6
CONTINUOUS
 62
    7
 10
969.11203721949732
 20
692.99568377655248
 11
968.86651251435524
 21
692.78169986370983
  0
LINE
  8
_0-2_線色２__白__
  6
CONTINUOUS
 62
    7
 10
968.86651251435524
 20
692.78169986370983
 11
968.73180706510084
 21
692.6490363044212
  0
LINE
  8
_0-2_線色２__白__
  6
CONTINUOUS
 62
    7
 10
968.73180706510084
 20
692.6490363044212
 11
968.68634349765671
 21
692.6012054799611
  0
LINE
  8
_0-2_線色２__白__
  6
CONTINUOUS
 62
    7
 10
968.68634349765671
 20
692.6012054799611
 11
968.60989774844711
 21
692.51678711187822
  0
LINE
  8
_0-2_線色２__白__
  6
CONTINUOUS
 62
    7
 10
968.60989774844711
 20
692.51678711187822
 11
968.53608278529009
 21
692.42995594870251
  0
LINE
  8
_0-2_線色２__白__
  6
CONTINUOUS
 62
    7
 10
968.53608278529009
 20
692.42995594870251
 11
968.46510262510037
 21
692.34077869816872
  0
LINE
  8
_0-2_線色２__白__
  6
CONTINUOUS
 62
    7
 10
968.46510262510037
 20
692.34077869816872
 11
968.39716128479722
 21
692.24932206800702
  0
LINE
  8
_0-2_線色２__白__
  6
CONTINUOUS
 62
    7
 10
968.39716128479722
 20
692.24932206800702
 11
968.33246278129081
 21
692.15565276595214
  0
LINE
  8
_0-2_線色２__白__
  6
CONTINUOUS
 62
    7
 10
968.33246278129081
 20
692.15565276595214
 11
968.29650391035102
 21
692.10033701081272
  0
LINE
  8
_0-2_線色２__白__
  6
CONTINUOUS
 62
    7
 10
968.29650391035102
 20
692.10033701081272
 11
968.24037410995516
 21
692.00872106510076
  0
LINE
  8
_0-2_線色２__白__
  6
CONTINUOUS
 62
    7
 10
968.24037410995516
 20
692.00872106510076
 11
968.14953989759033
 21
691.84726148382595
  0
LINE
  8
_0-2_線色２__白__
  6
CONTINUOUS
 62
    7
 10
968.14953989759033
 20
691.84726148382595
 11
968.06389980460608
 21
691.68276146450069
  0
LINE
  8
_0-2_線色２__白__
  6
CONTINUOUS
 62
    7
 10
968.06389980460608
 20
691.68276146450069
 11
967.98074857452775
 21
691.51683877003677
  0
LINE
  8
_0-2_線色２__白__
  6
CONTINUOUS
 62
    7
 10
967.98074857452775
 20
691.51683877003677
 11
967.89738095088524
 21
691.35111116335963
  0
LINE
  8
_0-2_線色２__白__
  6
CONTINUOUS
 62
    7
 10
967.89738095088524
 20
691.35111116335963
 11
967.81109167719933
 21
691.18719640737424
  0
LINE
  8
_0-2_線色２__白__
  6
CONTINUOUS
 62
    7
 10
967.81109167719933
 20
691.18719640737424
 11
967.75863918669074
 21
691.09359397980768
  0
LINE
  8
_0-2_線色２__白__
  6
CONTINUOUS
 62
    7
 10
967.75863918669074
 20
691.09359397980768
 11
967.70253539528767
 21
690.99916764869192
  0
LINE
  8
_0-2_線色２__白__
  6
CONTINUOUS
 62
    7
 10
967.70253539528767
 20
690.99916764869192
 11
967.60054097622287
 21
690.83956819009643
  0
LINE
  8
_0-2_線色２__白__
  6
CONTINUOUS
 62
    7
 10
967.60054097622287
 20
690.83956819009643
 11
967.49294212610494
 21
690.68339570360365
  0
LINE
  8
_0-2_線色２__白__
  6
CONTINUOUS
 62
    7
 10
967.49294212610494
 20
690.68339570360365
 11
967.3809697011211
 21
690.52991828957545
  0
LINE
  8
_0-2_線色２__白__
  6
CONTINUOUS
 62
    7
 10
967.3809697011211
 20
690.52991828957545
 11
967.26585455747681
 21
690.3784040483805
  0
LINE
  8
_0-2_線色２__白__
  6
CONTINUOUS
 62
    7
 10
967.26585455747681
 20
690.3784040483805
 11
967.14882755135477
 21
690.22812108038522
  0
LINE
  8
_0-2_線色２__白__
  6
CONTINUOUS
 62
    7
 10
967.14882755135477
 20
690.22812108038522
 11
967.08056089376896
 21
690.14123272180711
  0
LINE
  8
_0-2_線色２__白__
  6
CONTINUOUS
 62
    7
 10
967.08056089376896
 20
690.14123272180711
 11
966.99482832148078
 21
690.03233276294793
  0
LINE
  8
_0-2_線色２__白__
  6
CONTINUOUS
 62
    7
 10
966.99482832148078
 20
690.03233276294793
 11
966.84617598044497
 21
689.84545871739499
  0
LINE
  8
_0-2_線色２__白__
  6
CONTINUOUS
 62
    7
 10
966.84617598044497
 20
689.84545871739499
 11
966.69513524331705
 21
689.66090086155589
  0
LINE
  8
_0-2_線色２__白__
  6
CONTINUOUS
 62
    7
 10
966.69513524331705
 20
689.66090086155589
 11
966.54016170083196
 21
689.48005054907924
  0
LINE
  8
_0-2_線色２__白__
  6
CONTINUOUS
 62
    7
 10
966.54016170083196
 20
689.48005054907924
 11
966.37971094370641
 21
689.30429913361365
  0
LINE
  8
_0-2_線色２__白__
  6
CONTINUOUS
 62
    7
 10
966.37971094370641
 20
689.30429913361365
 11
966.2122385626617
 21
689.13503796880775
  0
LINE
  8
_0-2_線色２__白__
  6
CONTINUOUS
 62
    7
 10
966.2122385626617
 20
689.13503796880775
 11
966.11127869601205
 21
689.04038859176296
  0
LINE
  8
_0-2_線色２__白__
  6
CONTINUOUS
 62
    7
 10
966.11127869601205
 20
689.04038859176296
 11
966.05103196429809
 21
688.98659415386135
  0
LINE
  8
_0-2_線色２__白__
  6
CONTINUOUS
 62
    7
 10
966.05103196429809
 20
688.98659415386135
 11
965.94463834607723
 21
688.89650140477158
  0
LINE
  8
_0-2_線色２__白__
  6
CONTINUOUS
 62
    7
 10
965.94463834607723
 20
688.89650140477158
 11
965.83507968152844
 21
688.81026579404704
  0
LINE
  8
_0-2_線色２__白__
  6
CONTINUOUS
 62
    7
 10
965.83507968152844
 20
688.81026579404704
 11
965.72238475525864
 21
688.728462619776
  0
LINE
  8
_0-2_線色２__白__
  6
CONTINUOUS
 62
    7
 10
965.72238475525864
 20
688.728462619776
 11
965.60658235187475
 21
688.65166718004673
  0
LINE
  8
_0-2_線色２__白__
  6
CONTINUOUS
 62
    7
 10
965.60658235187475
 20
688.65166718004673
 11
965.48770125598367
 21
688.58045477295661
  0
LINE
  8
_0-2_線色２__白__
  6
CONTINUOUS
 62
    7
 10
965.48770125598367
 20
688.58045477295661
 11
965.41735090609563
 21
688.54193641976224
  0
LINE
  8
_0-2_線色２__白__
  6
CONTINUOUS
 62
    7
 10
965.41735090609563
 20
688.54193641976224
 11
965.31756480776494
 21
688.4917718260084
  0
LINE
  8
_0-2_線色２__白__
  6
CONTINUOUS
 62
    7
 10
965.31756480776494
 20
688.4917718260084
 11
965.14140394697733
 21
688.41409035482855
  0
LINE
  8
_0-2_線色２__白__
  6
CONTINUOUS
 62
    7
 10
965.14140394697733
 20
688.41409035482855
 11
964.96085676461917
 21
688.34579695403306
  0
LINE
  8
_0-2_線色２__白__
  6
CONTINUOUS
 62
    7
 10
964.96085676461917
 20
688.34579695403306
 11
964.77688097282225
 21
688.28484182659793
  0
LINE
  8
_0-2_線色２__白__
  6
CONTINUOUS
 62
    7
 10
964.77688097282225
 20
688.28484182659793
 11
964.59043428372297
 21
688.22917517549456
  0
LINE
  8
_0-2_線色２__白__
  6
CONTINUOUS
 62
    7
 10
964.59043428372297
 20
688.22917517549456
 11
964.40247440944859
 21
688.17674720369666
  0
LINE
  8
_0-2_線色２__白__
  6
CONTINUOUS
 62
    7
 10
964.40247440944859
 20
688.17674720369666
 11
964.2931417293039
 21
688.14701521629047
  0
LINE
  8
_0-2_線色２__白__
  6
CONTINUOUS
 62
    7
 10
968.90023930377538
 20
699.06231087587855
 11
969.11205428099493
 21
692.99568437225105
  0
LINE
  8
_0-8_笠木他
  6
DASHED1
 62
    4
 10
964.39789506528541
 20
685.1470152162932
 11
954.295628299692
 21
685.1470152162932
  0
LINE
  8
_0-8_笠木他
  6
DASHED1
 62
    4
 10
954.295628299692
 20
685.64721521629224
 11
964.38042919240161
 21
685.64721521629224
  0
LINE
  8
_0-8_笠木他
  6
DASHED1
 62
    4
 10
954.295628299692
 20
688.14701521629047
 11
964.2931417293039
 21
688.14701521629047
  0
ARC
  8
_0-4_線色４__黄__
  6
CONTINUOUS
 62
    2
 10
999.65438029968936
 20
748.2083932162908
 40
129.36284800000004
 50
285.27322171557347
 51
292.10094700608238
  0
LINE
  8
_0-4_線色４__黄__
  6
CONTINUOUS
 62
    2
 10
1033.7314284788863
 20
623.41455831222163
 11
1035.051616518158
 21
618.59199536954691
  0
LINE
  8
_0-2_線色２__白__
  6
CONTINUOUS
 62
    7
 10
1024.6728122676632
 20
616.25699186946861
 11
1024.6736282996881
 21
616.18881521629135
  0
LINE
  8
_0-2_線色２__白__
  6
CONTINUOUS
 62
    7
 10
1027.8866581157672
 20
621.81453755252335
 11
1027.8804445938158
 21
621.79745271859531
  0
LINE
  8
_0-2_線色２__白__
  6
CONTINUOUS
 62
    7
 10
1024.6762675847231
 20
616.45077184859986
 11
1024.6728122676632
 21
616.25699186946861
  0
LINE
  8
_0-2_線色２__白__
  6
CONTINUOUS
 62
    7
 10
1024.6877489625786
 20
616.64346188885077
 11
1024.6762675847231
 21
616.45077184859986
  0
LINE
  8
_0-2_線色２__白__
  6
CONTINUOUS
 62
    7
 10
1024.7094983176476
 20
616.83475753802043
 11
1024.6877489625786
 21
616.64346188885077
  0
LINE
  8
_0-2_線色２__白__
  6
CONTINUOUS
 62
    7
 10
1024.7277011623964
 20
616.94495013454514
 11
1024.7094983176476
 21
616.83475753802043
  0
LINE
  8
_0-2_線色２__白__
  6
CONTINUOUS
 62
    7
 10
1024.7435433748933
 20
617.02357493703346
 11
1024.7277011623964
 21
616.94495013454514
  0
LINE
  8
_0-2_線色２__白__
  6
CONTINUOUS
 62
    7
 10
1024.7761593702535
 20
617.15826019505982
 11
1024.7435433748933
 21
617.02357493703346
  0
LINE
  8
_0-2_線色２__白__
  6
CONTINUOUS
 62
    7
 10
1024.8150215663782
 20
617.29166733844124
 11
1024.7761593702535
 21
617.15826019505982
  0
LINE
  8
_0-2_線色２__白__
  6
CONTINUOUS
 62
    7
 10
1024.8595892842923
 20
617.42359771495614
 11
1024.8150215663782
 21
617.29166733844124
  0
LINE
  8
_0-2_線色２__白__
  6
CONTINUOUS
 62
    7
 10
1024.9093218450298
 20
617.55385267239546
 11
1024.8595892842923
 21
617.42359771495614
  0
LINE
  8
_0-2_線色２__白__
  6
CONTINUOUS
 62
    7
 10
1024.9636785696293
 20
617.68223355854332
 11
1024.9093218450298
 21
617.55385267239546
  0
LINE
  8
_0-2_線色２__白__
  6
CONTINUOUS
 62
    7
 10
1024.9971112061439
 20
617.75575749374013
 11
1024.9636785696293
 21
617.68223355854332
  0
LINE
  8
_0-2_線色２__白__
  6
CONTINUOUS
 62
    7
 10
1025.0574349238741
 20
617.88030647337735
 11
1024.9971112061439
 21
617.75575749374013
  0
LINE
  8
_0-2_線色２__白__
  6
CONTINUOUS
 62
    7
 10
1025.1692015413346
 20
618.09055528679721
 11
1025.0574349238741
 21
617.88030647337735
  0
LINE
  8
_0-2_線色２__白__
  6
CONTINUOUS
 62
    7
 10
1025.2892536500804
 20
618.29603155473876
 11
1025.1692015413346
 21
618.09055528679721
  0
LINE
  8
_0-2_線色２__白__
  6
CONTINUOUS
 62
    7
 10
1025.4158033939348
 20
618.49779576544904
 11
1025.2892536500804
 21
618.29603155473876
  0
LINE
  8
_0-2_線色２__白__
  6
CONTINUOUS
 62
    7
 10
1025.5470629167439
 20
618.69690840717738
 11
1025.4158033939348
 21
618.49779576544904
  0
LINE
  8
_0-2_線色２__白__
  6
CONTINUOUS
 62
    7
 10
1025.6812443623267
 20
618.89442996817309
 11
1025.5470629167439
 21
618.69690840717738
  0
LINE
  8
_0-2_線色２__白__
  6
CONTINUOUS
 62
    7
 10
1025.759703917488
 20
619.00868132787366
 11
1025.6812443623267
 21
618.89442996817309
  0
LINE
  8
_0-2_線色２__白__
  6
CONTINUOUS
 62
    7
 10
1025.8223454751396
 20
619.09970856912366
 11
1025.759703917488
 21
619.00868132787366
  0
LINE
  8
_0-2_線色２__白__
  6
CONTINUOUS
 62
    7
 10
1025.9310026576077
 20
619.25614995536819
 11
1025.8223454751396
 21
619.09970856912366
  0
LINE
  8
_0-2_線色２__白__
  6
CONTINUOUS
 62
    7
 10
1026.041404195812
 20
619.41113241225878
 11
1025.9310026576077
 21
619.25614995536819
  0
LINE
  8
_0-2_線色２__白__
  6
CONTINUOUS
 62
    7
 10
1026.1546150649792
 20
619.56369859355334
 11
1026.041404195812
 21
619.41113241225878
  0
LINE
  8
_0-2_線色２__白__
  6
CONTINUOUS
 62
    7
 10
1026.2717002403269
 20
619.71289115301431
 11
1026.1546150649792
 21
619.56369859355334
  0
LINE
  8
_0-2_線色２__白__
  6
CONTINUOUS
 62
    7
 10
1026.3937246970727
 20
619.857752744403
 11
1026.2717002403269
 21
619.71289115301431
  0
LINE
  8
_0-2_線色２__白__
  6
CONTINUOUS
 62
    7
 10
1026.4671817163435
 20
619.93941077363331
 11
1026.3937246970727
 21
619.857752744403
  0
LINE
  8
_0-2_線色２__白__
  6
CONTINUOUS
 62
    7
 10
1026.5409385351586
 20
620.01733772587556
 11
1026.4671817163435
 21
619.93941077363331
  0
LINE
  8
_0-2_線色２__白__
  6
CONTINUOUS
 62
    7
 10
1026.6717556817821
 20
620.1484893943001
 11
1026.5409385351586
 21
620.01733772587556
  0
LINE
  8
_0-2_線色２__白__
  6
CONTINUOUS
 62
    7
 10
1026.8051728695582
 20
620.27739111769222
 11
1026.6717556817821
 21
620.1484893943001
  0
LINE
  8
_0-2_線色２__白__
  6
CONTINUOUS
 62
    7
 10
1026.9388406944063
 20
620.40614429319419
 11
1026.8051728695582
 21
620.27739111769222
  0
LINE
  8
_0-2_線色２__白__
  6
CONTINUOUS
 62
    7
 10
1027.0704097522457
 20
620.53685031793691
 11
1026.9388406944063
 21
620.40614429319419
  0
LINE
  8
_0-2_線色２__白__
  6
CONTINUOUS
 62
    7
 10
1027.1975306390004
 20
620.67161058905583
 11
1027.0704097522457
 21
620.53685031793691
  0
LINE
  8
_0-2_線色２__白__
  6
CONTINUOUS
 62
    7
 10
1027.2682968139497
 20
620.75245726173932
 11
1027.1975306390004
 21
620.67161058905583
  0
LINE
  8
_0-2_線色２__白__
  6
CONTINUOUS
 62
    7
 10
1027.3104083538783
 20
620.80324595507307
 11
1027.2682968139497
 21
620.75245726173932
  0
LINE
  8
_0-2_線色２__白__
  6
CONTINUOUS
 62
    7
 10
1027.3805854027751
 20
620.89288420757555
 11
1027.3104083538783
 21
620.80324595507307
  0
LINE
  8
_0-2_線色２__白__
  6
CONTINUOUS
 62
    7
 10
1027.447685132588
 20
620.98496008488439
 11
1027.3805854027751
 21
620.89288420757555
  0
LINE
  8
_0-2_線色２__白__
  6
CONTINUOUS
 62
    7
 10
1027.5117045588604
 20
621.07925896193649
 11
1027.447685132588
 21
620.98496008488439
  0
LINE
  8
_0-2_線色２__白__
  6
CONTINUOUS
 62
    7
 10
1027.5726406971262
 20
621.17556621367214
 11
1027.5117045588604
 21
621.07925896193649
  0
LINE
  8
_0-2_線色２__白__
  6
CONTINUOUS
 62
    7
 10
1027.6304905629377
 20
621.27366721503392
 11
1027.5726406971262
 21
621.17556621367214
  0
LINE
  8
_0-2_線色２__白__
  6
CONTINUOUS
 62
    7
 10
1027.6626281790323
 20
621.33130311846855
 11
1027.6304905629377
 21
621.27366721503392
  0
LINE
  8
_0-2_線色２__白__
  6
CONTINUOUS
 62
    7
 10
1027.7492039659228
 20
621.4993799198038
 11
1027.6626281790323
 21
621.33130311846855
  0
LINE
  8
_0-2_線色２__白__
  6
CONTINUOUS
 62
    7
 10
1027.8804445938158
 20
621.79745271859531
 11
1027.7492039659228
 21
621.4993799198038
  0
LINE
  8
_0-2_線色２__白__
  6
CONTINUOUS
 62
    7
 10
1033.7314287375102
 20
623.41455736747264
 11
1027.8866581157672
 21
621.81453755252335
  0
LINE
  8
_0-8_笠木他
  6
CONTINUOUS
 62
    4
 10
959.2976282996915
 20
589.35281521629065
 11
959.2976282996915
 21
610.35281521629088
  0
LINE
  8
_0-8_笠木他
  6
CONTINUOUS
 62
    4
 10
956.29562829969018
 20
589.35281521629065
 11
959.2976282996915
 21
589.35281521629065
  0
LINE
  8
_0-8_笠木他
  6
CONTINUOUS
 62
    3
 10
959.2976282996915
 20
610.35281521629088
 11
1004.4736282996882
 21
611.9308152162904
  0
LINE
  8
_0-8_笠木他
  6
CONTINUOUS
 62
    3
 10
959.2976282996915
 20
610.35281521629088
 11
959.2976282996915
 21
745.35321521629101
  0
LINE
  8
_0-8_笠木他
  6
CONTINUOUS
 62
    4
 10
956.29562829969018
 20
714.49241521629062
 11
956.29562829969018
 21
589.35281521629065
  0
LINE
  8
_0-8_笠木他
  6
CONTINUOUS
 62
    4
 10
956.29562829969018
 20
733.35241521629257
 11
956.29562829969018
 21
726.21281521629214
  0
LINE
  8
_0-8_笠木他
  6
CONTINUOUS
 62
    4
 10
959.2976282996915
 20
733.35241521629257
 11
956.29562829969018
 21
733.35241521629257
  0
LINE
  8
_0-8_笠木他
  6
CONTINUOUS
 62
    4
 10
1049.2926733670902
 20
623.35081521629093
 11
985.73162829969078
 21
623.35081521629093
  0
ARC
  8
_0-8_笠木他
  6
CONTINUOUS
 62
    4
 10
986.58949229969039
 20
644.09687721629041
 40
20.757428000000001
 50
183.98347799999996
 51
268.01577899999995
  0
LINE
  8
_0-8_笠木他
  6
CONTINUOUS
 62
    3
 10
1079.2976282996915
 20
623.35081521629093
 11
1049.2926733670902
 21
623.35081521629093
  0
ARC
  8
_0-8_笠木他
  6
CONTINUOUS
 62
    3
 10
999.65438029968936
 20
748.2083932162908
 40
134.36284800000004
 50
272.02554500000002
 51
291.68075553206239
  0
LINE
  8
_0-8_笠木他
  6
CONTINUOUS
 62
    3
 10
1079.2976282996915
 20
620.35081521629138
 11
1047.0667470962053
 21
620.35081521629138
  0
ARC
  8
_0-8_笠木他
  6
CONTINUOUS
 62
    3
 10
999.69048629969166
 20
748.07456721629194
 40
136.227262
 50
272.01248399999997
 51
290.3512058080475
  0
LINE
  8
_0-8_笠木他
  6
CONTINUOUS
 62
    3
 10
965.88162829968951
 20
642.65481521629056
 11
966.93162829968969
 21
612.62081521629113
  0
LINE
  8
_0-8_笠木他
  6
CONTINUOUS
 62
    3
 10
966.96562829969025
 20
612.62081521629113
 11
1004.4036282996876
 21
613.92881521629135
  0
LINE
  8
_0-8_笠木他
  6
CONTINUOUS
 62
    3
 10
959.2976282996915
 20
745.35321521629101
 11
962.29562829968927
 21
745.35321521629101
  0
LINE
  8
_0-8_笠木他
  6
CONTINUOUS
 62
    3
 10
962.29562829968927
 20
745.35321521629101
 11
965.88162829968951
 21
642.65481521629056
  0
LINE
  8
_0-8_笠木他
  6
CONTINUOUS
 62
    3
 10
1079.2976282996915
 20
623.35081521629093
 11
1079.2976282996915
 21
620.35081521629138
  0
LINE
  8
_0-8_笠木他
  6
DASHED1
 62
    4
 10
923.21242829968924
 20
715.14781521629118
 11
922.16922829969008
 21
716.19161521629337
  0
LINE
  8
_0-8_笠木他
  6
DASHED1
 62
    4
 10
922.16922829969008
 20
716.19161521629337
 11
921.18662829968798
 21
715.22001521629079
  0
LINE
  8
_0-8_笠木他
  6
DASHED1
 62
    4
 10
925.24222829968949
 20
715.07541521629207
 11
924.19762829968931
 21
716.11921521629199
  0
LINE
  8
_0-8_笠木他
  6
DASHED1
 62
    4
 10
924.19762829968931
 20
716.11921521629199
 11
923.21242829968924
 21
715.14781521629118
  0
LINE
  8
_0-8_笠木他
  6
DASHED1
 62
    4
 10
927.27062829968872
 20
715.00301521629297
 11
926.22762829968906
 21
716.04681521629288
  0
LINE
  8
_0-8_笠木他
  6
DASHED1
 62
    4
 10
926.22762829968906
 20
716.04681521629288
 11
925.24222829968949
 21
715.07541521629207
  0
LINE
  8
_0-8_笠木他
  6
DASHED1
 62
    4
 10
929.30062829968847
 20
714.93061521629386
 11
928.2560282996883
 21
715.974615216291
  0
LINE
  8
_0-8_笠木他
  6
DASHED1
 62
    4
 10
928.2560282996883
 20
715.974615216291
 11
927.27062829968872
 21
715.00301521629297
  0
LINE
  8
_0-8_笠木他
  6
DASHED1
 62
    4
 10
931.32762829969124
 20
714.85841521629197
 11
930.28442829969208
 21
715.90221521629189
  0
LINE
  8
_0-8_笠木他
  6
DASHED1
 62
    4
 10
930.28442829969208
 20
715.90221521629189
 11
929.30062829968847
 21
714.93061521629386
  0
LINE
  8
_0-8_笠木他
  6
DASHED1
 62
    4
 10
933.35482829968896
 20
714.78601521629287
 11
932.3116282996898
 21
715.82981521629279
  0
LINE
  8
_0-8_笠木他
  6
DASHED1
 62
    4
 10
932.3116282996898
 20
715.82981521629279
 11
931.32762829969124
 21
714.85841521629197
  0
LINE
  8
_0-8_笠木他
  6
DASHED1
 62
    4
 10
935.38462829968921
 20
714.71361521629149
 11
934.34002829968904
 21
715.75761521629317
  0
LINE
  8
_0-8_笠木他
  6
DASHED1
 62
    4
 10
934.34002829968904
 20
715.75761521629317
 11
933.35482829968896
 21
714.78601521629287
  0
LINE
  8
_0-8_笠木他
  6
DASHED1
 62
    4
 10
937.41322829968794
 20
714.64121521629238
 11
936.37002829968878
 21
715.6830152162928
  0
LINE
  8
_0-8_笠木他
  6
DASHED1
 62
    4
 10
936.37002829968878
 20
715.6830152162928
 11
935.38462829968921
 21
714.71361521629149
  0
LINE
  8
_0-8_笠木他
  6
DASHED1
 62
    4
 10
939.44302829968819
 20
714.56901521629277
 11
938.39702829969156
 21
715.61081521629092
  0
LINE
  8
_0-8_笠木他
  6
DASHED1
 62
    4
 10
938.39702829969156
 20
715.61081521629092
 11
937.41322829968794
 21
714.64121521629238
  0
LINE
  8
_0-8_笠木他
  6
DASHED1
 62
    4
 10
941.47002829969097
 20
714.49661521629366
 11
940.42422829968928
 21
715.53841521629181
  0
LINE
  8
_0-8_笠木他
  6
DASHED1
 62
    4
 10
940.42422829968928
 20
715.53841521629181
 11
939.44302829968819
 21
714.56901521629277
  0
LINE
  8
_0-8_笠木他
  6
DASHED1
 62
    4
 10
943.49722829968869
 20
714.42421521629228
 11
942.45402829968953
 21
715.4660152162927
  0
LINE
  8
_0-8_笠木他
  6
DASHED1
 62
    4
 10
942.45402829968953
 20
715.4660152162927
 11
941.47002829969097
 21
714.49661521629366
  0
LINE
  8
_0-8_笠木他
  6
DASHED1
 62
    4
 10
923.22622829969077
 20
607.55881521629078
 11
922.18302829969161
 21
606.51481521629137
  0
LINE
  8
_0-8_笠木他
  6
DASHED1
 62
    4
 10
922.18302829969161
 20
606.51481521629137
 11
921.19762829969204
 21
607.48281521629167
  0
LINE
  8
_0-8_笠木他
  6
DASHED1
 62
    4
 10
925.25182829968799
 20
607.63281521629153
 11
924.20862829968883
 21
606.58681521629148
  0
LINE
  8
_0-8_笠木他
  6
DASHED1
 62
    4
 10
924.20862829968883
 20
606.58681521629148
 11
923.22622829969077
 21
607.55881521629078
  0
LINE
  8
_0-8_笠木他
  6
DASHED1
 62
    4
 10
927.28182829969228
 20
607.70281521629101
 11
926.23722829969211
 21
606.6608152162911
  0
LINE
  8
_0-8_笠木他
  6
DASHED1
 62
    4
 10
926.23722829969211
 20
606.6608152162911
 11
925.25182829968799
 21
607.63281521629153
  0
LINE
  8
_0-8_笠木他
  6
DASHED1
 62
    4
 10
929.31022829969152
 20
607.77681521629177
 11
928.26702829969236
 21
606.73281521629121
  0
LINE
  8
_0-8_笠木他
  6
DASHED1
 62
    4
 10
928.26702829969236
 20
606.73281521629121
 11
927.28182829969228
 21
607.70281521629101
  0
LINE
  8
_0-8_笠木他
  6
DASHED1
 62
    4
 10
931.34002829969177
 20
607.84881521629188
 11
930.29542829969159
 21
606.80481521629133
  0
LINE
  8
_0-8_笠木他
  6
DASHED1
 62
    4
 10
930.29542829969159
 20
606.80481521629133
 11
929.31022829969152
 21
607.77681521629177
  0
LINE
  8
_0-8_笠木他
  6
DASHED1
 62
    4
 10
933.3686282996905
 20
607.92081521629086
 11
932.32402829969033
 21
606.87681521629145
  0
LINE
  8
_0-8_笠木他
  6
DASHED1
 62
    4
 10
932.32402829969033
 20
606.87681521629145
 11
931.34002829969177
 21
607.84881521629188
  0
LINE
  8
_0-8_笠木他
  6
DASHED1
 62
    4
 10
935.39702829968974
 20
607.99281521629098
 11
934.35102829968855
 21
606.94881521629156
  0
LINE
  8
_0-8_笠木他
  6
DASHED1
 62
    4
 10
934.35102829968855
 20
606.94881521629156
 11
933.3686282996905
 21
607.92081521629086
  0
LINE
  8
_0-8_笠木他
  6
DASHED1
 62
    4
 10
937.424228299692
 20
608.06681521629173
 11
936.37962829969183
 21
607.02081521629168
  0
LINE
  8
_0-8_笠木他
  6
DASHED1
 62
    4
 10
936.37962829969183
 20
607.02081521629168
 11
935.39702829968974
 21
607.99281521629098
  0
LINE
  8
_0-8_笠木他
  6
DASHED1
 62
    4
 10
939.45262829969124
 20
608.13681521629121
 11
938.40942829969208
 21
607.09481521629129
  0
LINE
  8
_0-8_笠木他
  6
DASHED1
 62
    4
 10
938.40942829969208
 20
607.09481521629129
 11
937.424228299692
 21
608.06681521629173
  0
LINE
  8
_0-8_笠木他
  6
DASHED1
 62
    4
 10
941.48242829969149
 20
608.21081521629083
 11
940.4366282996898
 21
607.16681521629141
  0
LINE
  8
_0-8_笠木他
  6
DASHED1
 62
    4
 10
940.4366282996898
 20
607.16681521629141
 11
939.45262829969124
 21
608.13681521629121
  0
LINE
  8
_0-8_笠木他
  6
DASHED1
 62
    4
 10
943.50962829968921
 20
608.28281521629094
 11
942.46362829968803
 21
607.23881521629153
  0
LINE
  8
_0-8_笠木他
  6
DASHED1
 62
    4
 10
942.46362829968803
 20
607.23881521629153
 11
941.48242829969149
 21
608.21081521629083
  0
LINE
  8
_0-8_笠木他
  6
DASHED1
 62
    4
 10
945.53762829968946
 20
608.35481521629106
 11
944.49362829969232
 21
607.31081521629164
  0
LINE
  8
_0-8_笠木他
  6
DASHED1
 62
    4
 10
944.49362829969232
 20
607.31081521629164
 11
943.50962829968921
 21
608.28281521629094
  0
LINE
  8
_0-8_笠木他
  6
DASHED1
 62
    4
 10
947.56562829968971
 20
608.42681521629117
 11
946.52162829968802
 21
607.38281521629176
  0
LINE
  8
_0-8_笠木他
  6
DASHED1
 62
    4
 10
946.52162829968802
 20
607.38281521629176
 11
945.53762829968946
 21
608.35481521629106
  0
LINE
  8
_0-8_笠木他
  6
DASHED1
 62
    4
 10
945.52762829969197
 20
714.3498152162914
 11
944.48162829969078
 21
715.3936152162936
  0
LINE
  8
_0-8_笠木他
  6
DASHED1
 62
    4
 10
944.48162829969078
 20
715.3936152162936
 11
943.49722829968869
 21
714.42421521629228
  0
LINE
  8
_0-8_笠木他
  6
DASHED1
 62
    4
 10
947.55562829969222
 20
714.2774152162923
 11
946.51162829969053
 21
715.32141521629399
  0
LINE
  8
_0-8_笠木他
  6
DASHED1
 62
    4
 10
946.51162829969053
 20
715.32141521629399
 11
945.52762829969197
 21
714.3498152162914
  0
LINE
  8
_0-8_笠木他
  6
DASHED1
 62
    4
 10
921.02542829969025
 20
715.2062152162938
 11
919.29602829969099
 21
716.99081521629239
  0
LINE
  8
_0-8_笠木他
  6
DASHED1
 62
    4
 10
921.02542829969025
 20
607.5008152162917
 11
919.29602829969099
 21
605.70881521629133
  0
LINE
  8
_0-8_笠木他
  6
DASHED1
 62
    4
 10
919.29602829969099
 20
716.99081521629239
 11
919.29602829969099
 21
605.70881521629133
  0
LINE
  8
_0-8_笠木他
  6
DASHED1
 62
    4
 10
1013.8376282996887
 20
614.59081521629116
 11
1014.295628299692
 21
623.35281521629042
  0
LINE
  8
_0-8_笠木他
  6
DASHED1
 62
    4
 10
1024.295628299692
 20
623.35281521629042
 11
1024.6736282996881
 21
616.18881521629135
  0
LINE
  8
_0-8_笠木他
  6
DASHED1
 62
    4
 10
954.295628299692
 20
611.70081521629129
 11
966.76562829969043
 21
612.3508152162907
  0
LINE
  8
_0-8_笠木他
  6
DASHED1
 62
    4
 10
954.295628299692
 20
609.18481521629076
 11
919.29522829968846
 21
607.35281521629133
  0
LINE
  8
_0-8_笠木他
  6
DASHED1
 62
    4
 10
954.295628299692
 20
713.51821521629233
 11
954.295628299692
 21
609.18481521629076
  0
LINE
  8
_0-8_笠木他
  6
DASHED1
 62
    4
 10
919.29522829968846
 20
715.35301521629151
 11
954.295628299692
 21
713.51821521629233
  0
LINE
  8
_0-8_笠木他
  6
DASHED1
 62
    4
 10
949.295628299692
 20
716.9150152162905
 11
919.29522829968846
 21
717.85221521629353
  0
LINE
  8
_0-8_笠木他
  6
DASHED1
 62
    4
 10
949.295628299692
 20
605.78881521629057
 11
949.295628299692
 21
716.9150152162905
  0
LINE
  8
_0-8_笠木他
  6
DASHED1
 62
    4
 10
919.29522829968846
 20
604.8508152162907
 11
949.295628299692
 21
605.78881521629057
  0
LINE
  8
_0-8_笠木他
  6
CONTINUOUS
 62
    4
 10
1020.7956282996884
 20
611.59681521629125
 11
1021.2996282996892
 21
611.99681521629088
  0
LINE
  8
_0-8_笠木他
  6
CONTINUOUS
 62
    4
 10
1017.7996282996901
 20
611.59681521629125
 11
1020.7956282996884
 21
611.59681521629125
  0
LINE
  8
_0-8_笠木他
  6
CONTINUOUS
 62
    4
 10
1017.2976282996888
 20
611.99681521629088
 11
1017.7996282996901
 21
611.59681521629125
  0
LINE
  8
_0-8_笠木他
  6
CONTINUOUS
 62
    4
 10
1017.2976282996888
 20
611.99681521629088
 11
1021.2996282996892
 21
611.99681521629088
  0
LINE
  8
_0-8_笠木他
  6
CONTINUOUS
 62
    4
 10
910.37442829968768
 20
721.92701521629203
 11
912.19562829969163
 21
718.77741521629048
  0
LINE
  8
_0-8_笠木他
  6
CONTINUOUS
 62
    4
 10
907.95122829968932
 20
721.92701521629203
 11
909.77022829968973
 21
718.77741521629048
  0
LINE
  8
_0-8_笠木他
  6
CONTINUOUS
 62
    4
 10
905.52582829969197
 20
721.92701521629203
 11
907.34482829968783
 21
718.77741521629048
  0
LINE
  8
_0-8_笠木他
  6
CONTINUOUS
 62
    4
 10
922.49922829968909
 20
721.92701521629203
 11
924.31822829968951
 21
718.77741521629048
  0
LINE
  8
_0-8_笠木他
  6
CONTINUOUS
 62
    4
 10
920.07382829969174
 20
721.92701521629203
 11
921.89282829969216
 21
718.77741521629048
  0
LINE
  8
_0-8_笠木他
  6
CONTINUOUS
 62
    4
 10
917.64842829968984
 20
721.92701521629203
 11
919.46742829969025
 21
718.77741521629048
  0
LINE
  8
_0-8_笠木他
  6
CONTINUOUS
 62
    4
 10
915.22522829969148
 20
721.92701521629203
 11
917.04222829968785
 21
718.77741521629048
  0
LINE
  8
_0-8_笠木他
  6
CONTINUOUS
 62
    4
 10
912.79982829968958
 20
721.92701521629203
 11
914.61882829968999
 21
718.77741521629048
  0
LINE
  8
_0-8_笠木他
  6
CONTINUOUS
 62
    4
 10
946.7476282996904
 20
721.92701521629203
 11
948.56762829968829
 21
718.77741521629048
  0
LINE
  8
_0-8_笠木他
  6
CONTINUOUS
 62
    4
 10
944.32562829968901
 20
721.92701521629203
 11
946.14362829969195
 21
718.77741521629048
  0
LINE
  8
_0-8_笠木他
  6
CONTINUOUS
 62
    4
 10
941.89942829968913
 20
721.92701521629203
 11
943.71842829968955
 21
718.77741521629048
  0
LINE
  8
_0-8_笠木他
  6
CONTINUOUS
 62
    4
 10
939.47402829969178
 20
721.92701521629203
 11
941.29302829968765
 21
718.77741521629048
  0
LINE
  8
_0-8_笠木他
  6
CONTINUOUS
 62
    4
 10
937.04862829968988
 20
721.92701521629203
 11
938.8676282996903
 21
718.77741521629048
  0
LINE
  8
_0-8_笠木他
  6
CONTINUOUS
 62
    4
 10
934.62322829968798
 20
721.92701521629203
 11
936.4422282996884
 21
718.77741521629048
  0
LINE
  8
_0-8_笠木他
  6
CONTINUOUS
 62
    4
 10
932.19922829969164
 20
721.92701521629203
 11
934.01702829969054
 21
718.77741521629048
  0
LINE
  8
_0-8_笠木他
  6
CONTINUOUS
 62
    4
 10
929.77522829969075
 20
721.92701521629203
 11
931.59302829968965
 21
718.77741521629048
  0
LINE
  8
_0-8_笠木他
  6
CONTINUOUS
 62
    4
 10
927.35002829968835
 20
721.92701521629203
 11
929.16762829968775
 21
718.77741521629048
  0
LINE
  8
_0-8_笠木他
  6
CONTINUOUS
 62
    4
 10
924.92462829969099
 20
721.92701521629203
 11
926.74362829969141
 21
718.77741521629048
  0
LINE
  8
_0-8_笠木他
  6
CONTINUOUS
 62
    4
 10
950.22362829969097
 20
722.45201521629212
 11
949.69762829969113
 21
721.92701521629203
  0
LINE
  8
_0-8_笠木他
  6
CONTINUOUS
 62
    4
 10
902.44582829969204
 20
720.35261521629252
 11
905.17442829968786
 21
721.92701521629203
  0
LINE
  8
_0-8_笠木他
  6
CONTINUOUS
 62
    4
 10
905.17442829968786
 20
721.92701521629203
 11
949.69762829969113
 21
721.92701521629203
  0
LINE
  8
_0-8_笠木他
  6
CONTINUOUS
 62
    4
 10
950.22362829969097
 20
718.2518152162919
 11
949.69762829969113
 21
718.77741521629048
  0
LINE
  8
_0-8_笠木他
  6
CONTINUOUS
 62
    4
 10
902.44582829969204
 20
720.35261521629252
 11
905.17442829968786
 21
718.77741521629048
  0
LINE
  8
_0-8_笠木他
  6
CONTINUOUS
 62
    4
 10
905.17442829968786
 20
718.77741521629048
 11
949.69762829969113
 21
718.77741521629048
  0
LINE
  8
_0-8_笠木他
  6
CONTINUOUS
 62
    4
 10
962.29762829968877
 20
720.77221521629269
 11
959.67162829968856
 21
720.77221521629269
  0
LINE
  8
_0-8_笠木他
  6
CONTINUOUS
 62
    4
 10
962.29762829968877
 20
719.93221521629209
 11
959.67162829968856
 21
719.93221521629209
  0
LINE
  8
_0-8_笠木他
  6
CONTINUOUS
 62
    4
 10
962.29762829968877
 20
724.28961521629333
 11
962.29762829968877
 21
720.35261521629252
  0
LINE
  8
_0-8_笠木他
  6
CONTINUOUS
 62
    4
 10
962.29762829968877
 20
724.28961521629333
 11
959.67162829968856
 21
722.45201521629212
  0
LINE
  8
_0-8_笠木他
  6
CONTINUOUS
 62
    4
 10
959.67162829968856
 20
718.2518152162919
 11
959.67162829968856
 21
722.45201521629212
  0
LINE
  8
_0-8_笠木他
  6
CONTINUOUS
 62
    4
 10
962.29762829968877
 20
716.41481521629146
 11
962.29762829968877
 21
720.35261521629252
  0
LINE
  8
_0-8_笠木他
  6
CONTINUOUS
 62
    4
 10
962.29762829968877
 20
716.41481521629146
 11
959.67162829968856
 21
718.2518152162919
  0
LINE
  8
_0-8_笠木他
  6
CONTINUOUS
 62
    4
 10
959.67162829968856
 20
722.45201521629212
 11
950.22362829969097
 21
722.45201521629212
  0
LINE
  8
_0-8_笠木他
  6
CONTINUOUS
 62
    4
 10
959.67162829968856
 20
718.2518152162919
 11
950.22362829969097
 21
718.2518152162919
  0
LINE
  8
_0-8_笠木他
  6
CONTINUOUS
 62
    4
 10
1057.723628299691
 20
571.34081521629071
 11
1060.8736282996915
 21
573.16081521629087
  0
LINE
  8
_0-8_笠木他
  6
CONTINUOUS
 62
    4
 10
1057.723628299691
 20
568.91881521629045
 11
1060.8736282996915
 21
570.73881521629062
  0
LINE
  8
_0-8_笠木他
  6
CONTINUOUS
 62
    4
 10
1057.723628299691
 20
566.49281521629121
 11
1060.8736282996915
 21
568.31281521629137
  0
LINE
  8
_0-8_笠木他
  6
CONTINUOUS
 62
    4
 10
1057.723628299691
 20
583.46681521629137
 11
1060.8736282996915
 21
585.28681521629039
  0
LINE
  8
_0-8_笠木他
  6
CONTINUOUS
 62
    4
 10
1057.723628299691
 20
581.04281521629048
 11
1060.8736282996915
 21
582.86081521629114
  0
LINE
  8
_0-8_笠木他
  6
CONTINUOUS
 62
    4
 10
1057.723628299691
 20
578.61681521629123
 11
1060.8736282996915
 21
580.43681521629139
  0
LINE
  8
_0-8_笠木他
  6
CONTINUOUS
 62
    4
 10
1057.723628299691
 20
576.19081521629084
 11
1060.8736282996915
 21
578.01081521629101
  0
LINE
  8
_0-8_笠木他
  6
CONTINUOUS
 62
    4
 10
1057.723628299691
 20
573.76681521629109
 11
1060.8736282996915
 21
575.58481521629062
  0
LINE
  8
_0-8_笠木他
  6
CONTINUOUS
 62
    4
 10
1057.723628299691
 20
607.71481521629141
 11
1060.8736282996915
 21
609.53281521629094
  0
LINE
  8
_0-8_笠木他
  6
CONTINUOUS
 62
    4
 10
1057.723628299691
 20
605.29281521629116
 11
1060.8736282996915
 21
607.11081521629069
  0
LINE
  8
_0-8_笠木他
  6
CONTINUOUS
 62
    4
 10
1057.723628299691
 20
602.86681521629077
 11
1060.8736282996915
 21
604.68681521629094
  0
LINE
  8
_0-8_笠木他
  6
CONTINUOUS
 62
    4
 10
1057.723628299691
 20
600.44281521629102
 11
1060.8736282996915
 21
602.26081521629055
  0
LINE
  8
_0-8_笠木他
  6
CONTINUOUS
 62
    4
 10
1057.723628299691
 20
598.01681521629064
 11
1060.8736282996915
 21
599.8348152162913
  0
LINE
  8
_0-8_笠木他
  6
CONTINUOUS
 62
    4
 10
1057.723628299691
 20
595.59081521629139
 11
1060.8736282996915
 21
597.41081521629042
  0
LINE
  8
_0-8_笠木他
  6
CONTINUOUS
 62
    4
 10
1057.723628299691
 20
593.164815216291
 11
1060.8736282996915
 21
594.98481521629117
  0
LINE
  8
_0-8_笠木他
  6
CONTINUOUS
 62
    4
 10
1057.723628299691
 20
590.74081521629125
 11
1060.8736282996915
 21
592.55881521629078
  0
LINE
  8
_0-8_笠木他
  6
CONTINUOUS
 62
    4
 10
1057.723628299691
 20
588.318815216291
 11
1060.8736282996915
 21
590.13481521629103
  0
LINE
  8
_0-8_笠木他
  6
CONTINUOUS
 62
    4
 10
1057.723628299691
 20
585.89281521629061
 11
1060.8736282996915
 21
587.71281521629078
  0
LINE
  8
_0-8_笠木他
  6
CONTINUOUS
 62
    4
 10
1057.1956282996916
 20
611.19081521629084
 11
1057.723628299691
 21
610.66281521629037
  0
LINE
  8
_0-8_笠木他
  6
CONTINUOUS
 62
    4
 10
1059.2976282996915
 20
563.41281521629128
 11
1057.723628299691
 21
566.14281521629039
  0
LINE
  8
_0-8_笠木他
  6
CONTINUOUS
 62
    4
 10
1057.723628299691
 20
566.14281521629039
 11
1057.723628299691
 21
610.66281521629037
  0
LINE
  8
_0-8_笠木他
  6
CONTINUOUS
 62
    4
 10
1061.3976282996919
 20
611.19081521629084
 11
1060.8736282996915
 21
610.66281521629037
  0
LINE
  8
_0-8_笠木他
  6
CONTINUOUS
 62
    4
 10
1059.2976282996915
 20
563.41281521629128
 11
1060.8736282996915
 21
566.14281521629039
  0
LINE
  8
_0-8_笠木他
  6
CONTINUOUS
 62
    4
 10
1060.8736282996915
 20
566.14281521629039
 11
1060.8736282996915
 21
610.66281521629037
  0
LINE
  8
_0-8_笠木他
  6
CONTINUOUS
 62
    4
 10
1058.8776282996878
 20
623.26481521629091
 11
1058.8776282996878
 21
620.64081521629134
  0
LINE
  8
_0-8_笠木他
  6
CONTINUOUS
 62
    4
 10
1059.7176282996907
 20
623.26481521629091
 11
1059.7176282996907
 21
620.64081521629134
  0
LINE
  8
_0-8_笠木他
  6
CONTINUOUS
 62
    4
 10
1055.3616282996882
 20
623.26481521629091
 11
1059.2976282996915
 21
623.26481521629091
  0
LINE
  8
_0-8_笠木他
  6
CONTINUOUS
 62
    4
 10
1055.3616282996882
 20
623.26481521629091
 11
1057.1956282996916
 21
620.64081521629134
  0
LINE
  8
_0-8_笠木他
  6
CONTINUOUS
 62
    4
 10
1061.3976282996919
 20
620.64081521629134
 11
1057.1956282996916
 21
620.64081521629134
  0
LINE
  8
_0-8_笠木他
  6
CONTINUOUS
 62
    4
 10
1063.2356282996898
 20
623.26481521629091
 11
1059.2976282996915
 21
623.26481521629091
  0
LINE
  8
_0-8_笠木他
  6
CONTINUOUS
 62
    4
 10
1063.2356282996898
 20
623.26481521629091
 11
1061.3976282996919
 21
620.64081521629134
  0
LINE
  8
_0-8_笠木他
  6
CONTINUOUS
 62
    4
 10
1057.1956282996916
 20
620.64081521629134
 11
1057.1956282996916
 21
611.19081521629084
  0
LINE
  8
_0-8_笠木他
  6
CONTINUOUS
 62
    4
 10
1061.3976282996919
 20
620.64081521629134
 11
1061.3976282996919
 21
611.19081521629084
  0
LINE
  8
_0-8_笠木他
  6
CONTINUOUS
 62
    4
 10
956.29562829969018
 20
596.35281521629111
 11
953.29762829968786
 21
596.61481521629128
  0
LINE
  8
_0-8_笠木他
  6
CONTINUOUS
 62
    4
 10
1025.0236282996912
 20
614.21881521629132
 11
1024.295628299692
 21
600.35281521629088
  0
LINE
  8
_0-8_笠木他
  6
CONTINUOUS
 62
    4
 10
1024.295628299692
 20
600.35281521629088
 11
1014.295628299692
 21
600.35281521629088
  0
LINE
  8
_0-8_笠木他
  6
CONTINUOUS
 62
    4
 10
1014.295628299692
 20
600.35281521629088
 11
1013.6576282996884
 21
612.56081521629142
  0
LINE
  8
_0-8_笠木他
  6
CONTINUOUS
 62
    4
 10
1053.2956282996884
 20
620.35081521629138
 11
1053.5596282996903
 21
605.35081521629138
  0
LINE
  8
_0-8_笠木他
  6
CONTINUOUS
 62
    4
 10
1053.5596282996903
 20
605.35081521629138
 11
1065.0356282996881
 21
605.35081521629138
  0
LINE
  8
_0-8_笠木他
  6
CONTINUOUS
 62
    4
 10
1065.0356282996881
 20
605.35081521629138
 11
1065.2956282996911
 21
620.35081521629138
  0
LINE
  8
_0-8_笠木他
  6
CONTINUOUS
 62
    4
 10
953.29762829968786
 20
596.61481521629128
 11
953.29762829968786
 21
714.54481521629248
  0
ARC
  8
_0-8_笠木他
  6
CONTINUOUS
 62
    4
 10
951.14886229969215
 20
597.64885721629128
 40
2.1531359999999999
 50
3.8270599999999813
 51
85.117989000000009
  0
LINE
  8
_0-8_笠木他
  6
CONTINUOUS
 62
    4
 10
951.33162829969024
 20
599.79481521629111
 11
919.29522829968846
 21
600.35281521629088
  0
LINE
  8
_0-8_笠木他
  6
CONTINUOUS
 62
    4
 10
919.29522829968846
 20
600.35281521629088
 11
919.29522829968846
 21
722.35361521629272
  0
LINE
  8
_0-8_笠木他
  6
CONTINUOUS
 62
    4
 10
919.29522829968846
 20
722.35361521629272
 11
944.295628299692
 21
722.78901521629166
  0
LINE
  8
_0-8_笠木他
  6
CONTINUOUS
 62
    4
 10
959.2976282996915
 20
601.35081521629047
 11
968.62162829968838
 21
610.6768152162914
  0
LINE
  8
_0-8_笠木他
  6
CENTER2
 62
    4
 10
1062.2976282996888
 20
622.35281521629133
 11
1063.2956282996884
 21
623.35281521629042
  0
LINE
  8
_0-8_笠木他
  6
CENTER2
 62
    4
 10
1056.2976282996897
 20
622.35281521629133
 11
1062.2976282996888
 21
622.35281521629133
  0
LINE
  8
_0-8_笠木他
  6
CENTER2
 62
    4
 10
1055.2976282996906
 20
623.35281521629042
 11
1056.2976282996897
 21
622.35281521629133
  0
LINE
  8
_0-8_笠木他
  6
CONTINUOUS
 62
    4
 10
944.295628299692
 20
726.00321521629155
 11
959.295628299692
 21
726.26521521629172
  0
LINE
  8
_0-8_笠木他
  6
CONTINUOUS
 62
    4
 10
944.295628299692
 20
714.70201521629349
 11
944.295628299692
 21
726.00321521629155
  0
LINE
  8
_0-8_笠木他
  6
CONTINUOUS
 62
    4
 10
959.295628299692
 20
714.44001521629104
 11
944.295628299692
 21
714.70201521629349
  0
LINE
  8
_0-8_笠木他
  6
DASHED1
 62
    4
 10
964.5556282996904
 20
680.64681521629097
 11
954.295628299692
 21
680.64681521629097
  0
LINE
  8
_0-8_笠木他
  6
DASHED1
 62
    4
 10
954.295628299692
 20
681.14681521629052
 11
964.53762829969037
 21
681.14681521629052
  0
LINE
  8
_0-8_笠木他
  6
DASHED1
 62
    4
 10
971.16162829969198
 20
683.14681521629097
 11
951.42162829969038
 21
683.14681521629097
  0
LINE
  8
_0-8_笠木他
  6
DASHED1
 62
    4
 10
956.29562829969018
 20
723.35261521629207
 11
944.295628299692
 21
723.35261521629207
  0
LINE
  8
_0-8_笠木他
  6
DASHED1
 62
    4
 10
956.29562829969018
 20
722.85301521629151
 11
956.29562829969018
 21
723.35261521629207
  0
LINE
  8
_0-8_笠木他
  6
DASHED1
 62
    4
 10
958.85162829968976
 20
722.85301521629151
 11
956.29562829969018
 21
722.85301521629151
  0
LINE
  8
_0-8_笠木他
  6
DASHED1
 62
    4
 10
960.29562829969109
 20
720.35261521629252
 11
958.85162829968976
 21
722.85301521629151
  0
LINE
  8
_0-8_笠木他
  6
DASHED1
 62
    4
 10
958.85162829968976
 20
717.85221521629353
 11
960.29562829969109
 21
720.35261521629252
  0
LINE
  8
_0-8_笠木他
  6
DASHED1
 62
    4
 10
956.29562829969018
 20
717.85221521629353
 11
958.85162829968976
 21
717.85221521629353
  0
LINE
  8
_0-8_笠木他
  6
DASHED1
 62
    4
 10
956.29562829969018
 20
717.3526152162907
 11
956.29562829969018
 21
717.85221521629353
  0
LINE
  8
_0-8_笠木他
  6
DASHED1
 62
    4
 10
944.295628299692
 20
717.3526152162907
 11
956.29562829969018
 21
717.3526152162907
  0
LINE
  8
_0-8_笠木他
  6
DASHED1
 62
    4
 10
1021.2976282996897
 20
602.50481521629069
 11
1021.2976282996897
 21
623.35281521629042
  0
LINE
  8
_0-8_笠木他
  6
DASHED1
 62
    4
 10
1019.2976282996915
 20
601.35081521629047
 11
1021.2976282996897
 21
602.50481521629069
  0
LINE
  8
_0-8_笠木他
  6
DASHED1
 62
    4
 10
1017.2976282996888
 20
602.50481521629069
 11
1019.2976282996915
 21
601.35081521629047
  0
LINE
  8
_0-8_笠木他
  6
DASHED1
 62
    4
 10
1017.2976282996888
 20
623.35281521629042
 11
1017.2976282996888
 21
602.50481521629069
  0
LINE
  8
_0-8_笠木他
  6
DASHED1
 62
    4
 10
1056.7976282996915
 20
619.91081521629042
 11
1056.7976282996915
 21
605.35081521629138
  0
LINE
  8
_0-8_笠木他
  6
DASHED1
 62
    4
 10
1059.2976282996915
 20
621.35281521629111
 11
1056.7976282996915
 21
619.91081521629042
  0
LINE
  8
_0-8_笠木他
  6
DASHED1
 62
    4
 10
1061.795628299692
 20
619.91081521629042
 11
1059.2976282996915
 21
621.35281521629111
  0
LINE
  8
_0-8_笠木他
  6
DASHED1
 62
    4
 10
1061.795628299692
 20
605.35081521629138
 11
1061.795628299692
 21
619.91081521629042
  0
LINE
  8
_0-8_笠木他
  6
DASHED1
 62
    4
 10
964.64162829969155
 20
678.14681521629097
 11
954.295628299692
 21
678.14681521629097
  0
LINE
  8
_0-5_金属
  6
CONTINUOUS
 62
    7
 10
942.69562829968891
 20
824.45281621689162
 11
942.69562829968891
 21
934.84752096441923
  0
ENDSEC
  0
EOF
