  0
SECTION
  2
HEADER
  9
$ACADVER
  1
AC1009
  9
$INSBASE
 10
0
 20
0
 30
0
  9
$EXTMIN
 10
0
 20
0
  9
$EXTMAX
 10
2100
 20
1485
  9
$LIMMIN
 10
0
 20
0
  9
$LIMMAX
 10
2100
 20
1485
  9
$LTSCALE
 40
5
  0
ENDSEC
  0
SECTION
  2
TABLES
  0
TABLE
  2
LTYPE
 70
     9
  0
LTYPE
  2
CONTINUOUS
 70
    64
  3
実線
 72
    65
 73
     0
 40
0.0
  0
LTYPE
  2
DASHED1
 70
    64
  3
--  --  --  --  --  --  --  --  
 72
    65
 73
     2
 40
2.5
 49
1.25
 49
-1.25
  0
LTYPE
  2
DASHED2
 70
    64
  3
----    ----    ----    ----    
 72
    65
 73
     2
 40
5.0
 49
2.5
 49
-2.5
  0
LTYPE
  2
DASHED3
 70
    64
  3
------  ------  ------  ------  
 72
    65
 73
     2
 40
5.0
 49
3.75
 49
-1.25
  0
LTYPE
  2
CENTER1
 70
    64
  3
----- - ----- - ----- - ----- - 
 72
    65
 73
     4
 40
10.0
 49
6.25
 49
-1.25
 49
1.25
 49
-1.25
  0
LTYPE
  2
CENTER2
 70
    64
  3
----------  --  ----------  --  
 72
    65
 73
     4
 40
20.0
 49
12.5
 49
-2.5
 49
2.5
 49
-2.5
  0
LTYPE
  2
PHANTOM1
 70
    64
  3
--- - - --- - - --- - - --- - - 
 72
    65
 73
     6
 40
10.0
 49
3.25
 49
-1.25
 49
1.25
 49
-1.25
 49
1.25
 49
-1.25
  0
LTYPE
  2
PHANTOM2
 70
    64
  3
--------  -  -  --------  -  -  
 72
    65
 73
     6
 40
20.0
 49
10.0
 49
-2.5
 49
1.25
 49
-2.5
 49
1.25
 49
-2.5
  0
LTYPE
  2
DOT
 70
    64
  3
-   -   -   -   -   -   -   -   
 72
    65
 73
     2
 40
2.5
 49
0.625
 49
-1.875
  0
LTYPE
  2
DUMMY
 70
    64
  3
ダミー
 72
    65
 73
     0
 40
0.0
  0
LTYPE
  2
RAND1
 70
    64
  3
ランダム線1
 72
    65
 73
     4
 40
10.0
 49
1.0
 49
-2.0
 49
3.0
 49
-4.0
  0
LTYPE
  2
RAND2
 70
    64
  3
ランダム線2
 72
    65
 73
     4
 40
14.0
 49
2.0
 49
-3.0
 49
4.0
 49
-5.0
  0
LTYPE
  2
RAND3
 70
    64
  3
ランダム線3
 72
    65
 73
     4
 40
18.0
 49
3.0
 49
-4.0
 49
5.0
 49
-6.0
  0
LTYPE
  2
RAND4
 70
    64
  3
ランダム線4
 72
    65
 73
     4
 40
22.0
 49
4.0
 49
-5.0
 49
6.0
 49
-7.0
  0
LTYPE
  2
RAND5
 70
    64
  3
ランダム線5
 72
    65
 73
     4
 40
26.0
 49
5.0
 49
-6.0
 49
7.0
 49
-8.0
  0
LTYPE
  2
LONG1
 70
    64
  3
----------  --  ----------  --  
 72
    65
 73
     4
 40
40.0
 49
32.5
 49
-2.5
 49
2.5
 49
-2.5
  0
LTYPE
  2
LONG2
 70
    64
  3
--------  -  -  --------  -  -  
 72
    65
 73
     6
 40
40.0
 49
30.0
 49
-2.5
 49
1.25
 49
-2.5
 49
1.25
 49
-2.5
  0
LTYPE
  2
LONG3
 70
    64
  3
+++++++++++++++..+++++++++++++++
 72
    65
 73
     2
 40
40.0
 49
37.5
 49
-2.5
  0
LTYPE
  2
LONG4
 70
    64
  3
+++++++++++++++..+++++++++++++++
 72
    65
 73
     2
 40
80.0
 49
75.0
 49
-5.0
  0
LTYPE
  2
LONG5
 70
    64
  3
----------  --  ----------  --  
 72
    65
 73
     4
 40
60.0
 49
37.5
 49
-7.5
 49
7.5
 49
-7.5
  0
LTYPE
  2
dashed
 70
   64
  3
-------   -------------   ------
 72
   65
 73
    2
 40
7.5
 49
6
 49
-1.5
  0
LTYPE
  2
dashed_spaced
 70
   64
  3
----        --------        ----
 72
   65
 73
    2
 40
12
 49
6
 49
-6
  0
LTYPE
  2
long_dashed_dotted
 70
   64
  3
------------- --- --------------
 72
   65
 73
    4
 40
15.25
 49
12
 49
-1.5
 49
0.25
 49
-1.5
  0
LTYPE
  2
long_dashed_double-dotted
 70
   64
  3
----------- --- --- ------------
 72
   65
 73
    6
 40
17
 49
12
 49
-1.5
 49
0.25
 49
-1.5
 49
0.25
 49
-1.5
  0
LTYPE
  2
long_dashed_triplicate-dotted
 70
   64
  3
--------- --- --- --- ----------
 72
   65
 73
    8
 40
18.75
 49
12
 49
-1.5
 49
0.25
 49
-1.5
 49
0.25
 49
-1.5
 49
0.25
 49
-1.5
  0
LTYPE
  2
dotted
 70
   64
  3
   -       -       -       -    
 72
   65
 73
    2
 40
1.75
 49
0.25
 49
-1.5
  0
LTYPE
  2
chain
 70
   64
  3
-------------- -- --------------
 72
   65
 73
    4
 40
18.5
 49
12
 49
-1.5
 49
3.5
 49
-1.5
  0
LTYPE
  2
chain_double_dash
 70
   64
  3
------------ -- -- -------------
 72
   65
 73
    6
 40
23.5
 49
12
 49
-1.5
 49
3.5
 49
-1.5
 49
3.5
 49
-1.5
  0
LTYPE
  2
dashed_dotted
 70
   64
  3
-----------     -     ----------
 72
   65
 73
    4
 40
9.25
 49
6
 49
-1.5
 49
0.25
 49
-1.5
  0
LTYPE
  2
double-dashed_dotted
 70
   64
  3
------   -----------   -   -----
 72
   65
 73
    6
 40
16.75
 49
6
 49
-1.5
 49
6
 49
-1.5
 49
0.25
 49
-1.5
  0
LTYPE
  2
dashed_double-dotted
 70
   64
  3
---------    -    -    ---------
 72
   65
 73
    6
 40
11
 49
6
 49
-1.5
 49
0.25
 49
-1.5
 49
0.25
 49
-1.5
  0
LTYPE
  2
double-dashed_double-dotted
 70
   64
  3
-----   ---------   -   -   ----
 72
   65
 73
    8
 40
18.5
 49
6
 49
-1.5
 49
6
 49
-1.5
 49
0.25
 49
-1.5
 49
0.25
 49
-1.5
  0
LTYPE
  2
dashed_triplicate-dotted
 70
   64
  3
-------    -    -    -    ------
 72
   65
 73
    8
 40
12.75
 49
6
 49
-1.5
 49
0.25
 49
-1.5
 49
0.25
 49
-1.5
 49
0.25
 49
-1.5
  0
LTYPE
  2
double-dashed_triplicate-dotted
 70
   64
  3
-----  ---------  -  -  -  -----
 72
   65
 73
   10
 40
20.25
 49
6
 49
-1.5
 49
6
 49
-1.5
 49
0.25
 49
-1.5
 49
0.25
 49
-1.5
 49
0.25
 49
-1.5
  0
LTYPE
  2
undefined
 70
   64
  3
--------------------------------
 72
   65
 73
    0
 40
0
  0
ENDTAB
  0
TABLE
  2
STYLE
  5
3
100
AcDbSymbolTable
 70
     1
  0
STYLE
  5
10
100
AcDbSymbolTableRecord
100
AcDbTextStyleTableRecord
  2
STANDARD
 70
     0
 40
0.0
 41
1.0
 50
0.0
 71
     0
 42
0.2
  3
txt
  4
bigfont.shx
  0
STYLE
  5
26
100
AcDbSymbolTableRecord
100
AcDbTextStyleTableRecord
  2
TATEGAKI
 70
    68
 40
0.0
 41
1.0
 50
0.0
 71
     0
 42
1.0
  3
txt
  4
bigfont.shx
  0
ENDTAB
  0
TABLE
  2
LAYER
 70
   13
  0
LAYER
  2
_0-1_線色１__水色__
 70
   64
 62
    7
  6
CONTINUOUS
  0
LAYER
  2
_0-2_線色２__白__
 70
   64
 62
    7
  6
CONTINUOUS
  0
LAYER
  2
_0-3_線色３__緑__
 70
   64
 62
    7
  6
CONTINUOUS
  0
LAYER
  2
_0-4_線色４__黄__
 70
   64
 62
    7
  6
CONTINUOUS
  0
LAYER
  2
_0-5_金属
 70
   64
 62
    7
  6
CONTINUOUS
  0
LAYER
  2
_0-6_鋼板__アングル
 70
   64
 62
    7
  6
CONTINUOUS
  0
LAYER
  2
_0-7_ビス
 70
   64
 62
    7
  6
CONTINUOUS
  0
LAYER
  2
_0-a_文字
 70
   64
 62
    7
  6
CONTINUOUS
  0
LAYER
  2
_0-b_寸法
 70
   64
 62
    7
  6
CONTINUOUS
  0
LAYER
  2
_0-d_断熱__ハッチ
 70
   64
 62
    7
  6
CONTINUOUS
  0
LAYER
  2
_f-0_
 70
   64
 62
    7
  6
CONTINUOUS
  0
LAYER
  2
_f-f_
 70
   64
 62
    7
  6
CONTINUOUS
  0
LAYER
  2
ADD_LINE
 70
   64
 62
    7
  6
CONTINUOUS
  0
ENDTAB
  0
ENDSEC
  0
SECTION
  2
BLOCKS
  0
ENDSEC
  0
SECTION
  2
ENTITIES
  0
LINE
  8
_0-2_線色２__白__
  6
CONTINUOUS
 62
    7
 10
1040.835115368357
 20
645.5206749973712
 11
1034.4483295621258
 21
645.5206749973712
  0
LINE
  8
_0-2_線色２__白__
  6
CONTINUOUS
 62
    7
 10
1034.4483295621258
 20
645.5206749973712
 11
1047.2219011745897
 21
667.64515002428027
  0
LINE
  8
_0-2_線色２__白__
  6
CONTINUOUS
 62
    7
 10
1047.2219011745897
 20
667.64515002428027
 11
1040.8351153683584
 21
667.64515002428027
  0
LINE
  8
_0-2_線色２__白__
  6
CONTINUOUS
 62
    7
 10
1053.0851153683575
 20
645.5206749973712
 11
1046.6983295621249
 21
645.5206749973712
  0
LINE
  8
_0-2_線色２__白__
  6
CONTINUOUS
 62
    7
 10
1046.6983295621249
 20
645.5206749973712
 11
1059.4719011745901
 21
667.64515002428027
  0
LINE
  8
_0-2_線色２__白__
  6
CONTINUOUS
 62
    7
 10
1059.4719011745901
 20
667.64515002428027
 11
1053.0851153683584
 21
667.64515002428027
  0
ARC
  8
_0-1_線色１__水色__
  6
CONTINUOUS
 62
    4
 10
1038.5472172623254
 20
677.5412458480406
 40
1.2083333333333581
 50
307.52351320333912
 51
232.47648680464988
  0
ARC
  8
_0-1_線色１__水色__
  6
CONTINUOUS
 62
    4
 10
1020.8836955302485
 20
677.54124584740737
 40
1.2083333333333581
 50
307.52351320333912
 51
232.47648680464988
  0
ARC
  8
_0-1_線色１__水色__
  6
CONTINUOUS
 62
    4
 10
1022.3556556747252
 20
675.62457918080725
 40
1.2083333333333179
 50
127.52351320610693
 51
52.47648680188081
  0
ARC
  8
_0-1_線色１__水色__
  6
CONTINUOUS
 62
    4
 10
1017.9397752415656
 20
677.54124584720159
 40
1.2083333333333581
 50
307.52351320333912
 51
232.47648680464988
  0
ARC
  8
_0-1_線色１__水色__
  6
CONTINUOUS
 62
    4
 10
1019.41173538604
 20
675.62457918060261
 40
1.2083333333333179
 50
127.52351320610693
 51
52.47648680188081
  0
ARC
  8
_0-1_線色１__水色__
  6
CONTINUOUS
 62
    4
 10
1014.9958549528827
 20
677.54124584699696
 40
1.2083333333333581
 50
307.52351320333912
 51
232.47648680464988
  0
ARC
  8
_0-1_線色１__水色__
  6
CONTINUOUS
 62
    4
 10
1016.4678150973572
 20
675.62457918039684
 40
1.2083333333333179
 50
127.52351320610693
 51
52.47648680188081
  0
ARC
  8
_0-1_線色１__水色__
  6
CONTINUOUS
 62
    4
 10
1013.5238948086743
 20
675.6245791801922
 40
1.2083333333333179
 50
127.52351320610693
 51
52.47648680188081
  0
ARC
  8
_0-1_線色１__水色__
  6
CONTINUOUS
 62
    4
 10
1025.2995759634082
 20
675.62457918039684
 40
1.2083333333333179
 50
127.52351320610693
 51
52.47648680188081
  0
ARC
  8
_0-1_線色１__水色__
  6
CONTINUOUS
 62
    4
 10
1023.8276158189313
 20
677.54124584699696
 40
1.2083333333333581
 50
307.52351320333912
 51
232.47648680464988
  0
ARC
  8
_0-1_線色１__水色__
  6
CONTINUOUS
 62
    4
 10
1035.6032969736652
 20
677.54124584781778
 40
1.2083333333333581
 50
307.52351320333912
 51
232.47648680464988
  0
ARC
  8
_0-1_線色１__水色__
  6
CONTINUOUS
 62
    4
 10
1032.6593766849824
 20
677.541245847612
 40
1.2083333333333581
 50
307.52351320333912
 51
232.47648680464988
  0
ARC
  8
_0-1_線色１__水色__
  6
CONTINUOUS
 62
    4
 10
1034.1313368294568
 20
675.62457918101302
 40
1.2083333333333179
 50
127.52351320610693
 51
52.47648680188081
  0
ARC
  8
_0-1_線色１__水色__
  6
CONTINUOUS
 62
    4
 10
1029.7154563962995
 20
677.54124584740737
 40
1.2083333333333581
 50
307.52351320333912
 51
232.47648680464988
  0
ARC
  8
_0-1_線色１__水色__
  6
CONTINUOUS
 62
    4
 10
1028.2434962520911
 20
675.62457918060261
 40
1.2083333333333179
 50
127.52351320610693
 51
52.47648680188081
  0
ARC
  8
_0-1_線色１__水色__
  6
CONTINUOUS
 62
    4
 10
1031.1874165407739
 20
675.62457918080725
 40
1.2083333333333179
 50
127.52351320610693
 51
52.47648680188081
  0
ARC
  8
_0-1_線色１__水色__
  6
CONTINUOUS
 62
    4
 10
1026.7715361076143
 20
677.54124584720159
 40
1.2083333333333581
 50
307.52351320333912
 51
232.47648680464988
  0
ARC
  8
_0-1_線色１__水色__
  6
CONTINUOUS
 62
    4
 10
1037.0752571181397
 20
675.62457918121765
 40
1.2083333333333179
 50
127.52351320610693
 51
52.47648680188081
  0
ARC
  8
_0-1_線色１__水色__
  6
CONTINUOUS
 62
    4
 10
1009.108014375492
 20
677.54124585031548
 40
1.2083333333333581
 50
307.52351320333912
 51
232.47648680464988
  0
ARC
  8
_0-1_線色１__水色__
  6
CONTINUOUS
 62
    4
 10
1007.6360542312835
 20
675.62457918351072
 40
1.2083333333333179
 50
127.52351320610693
 51
52.47648680188081
  0
ARC
  8
_0-1_線色１__水色__
  6
CONTINUOUS
 62
    4
 10
1010.5799745199687
 20
675.62457918371535
 40
1.2083333333333179
 50
127.52351320610693
 51
52.47648680188081
  0
ARC
  8
_0-1_線色１__水色__
  6
CONTINUOUS
 62
    4
 10
1006.1640940868091
 20
677.5412458501097
 40
1.2083333333333581
 50
307.52351320333912
 51
232.47648680464988
  0
ARC
  8
_0-1_線色１__水色__
  6
CONTINUOUS
 62
    4
 10
1003.2201737981489
 20
677.54124584988688
 40
1.2083333333333581
 50
307.52351320333912
 51
232.47648680464988
  0
ARC
  8
_0-1_線色１__水色__
  6
CONTINUOUS
 62
    4
 10
1000.2762535094661
 20
677.54124584968224
 40
1.2083333333333581
 50
307.52351320333912
 51
232.47648680464988
  0
ARC
  8
_0-1_線色１__水色__
  6
CONTINUOUS
 62
    4
 10
1001.7482136539405
 20
675.62457918308212
 40
1.2083333333333179
 50
127.52351320610693
 51
52.47648680188081
  0
ARC
  8
_0-1_線色１__水色__
  6
CONTINUOUS
 62
    4
 10
1004.6921339426234
 20
675.62457918328789
 40
1.2083333333333179
 50
127.52351320610693
 51
52.47648680188081
  0
ARC
  8
_0-1_線色１__水色__
  6
CONTINUOUS
 62
    4
 10
1012.0519346641748
 20
677.54124585052011
 40
1.2083333333333581
 50
307.52351320333912
 51
232.47648680464988
  0
ARC
  8
_0-1_線色１__水色__
  6
CONTINUOUS
 62
    4
 10
850.13631878666274
 20
677.54124584906606
 40
1.2083333333333581
 50
307.52351320333912
 51
232.47648680464988
  0
ARC
  8
_0-1_線色１__水色__
  6
CONTINUOUS
 62
    4
 10
848.66435864245432
 20
675.6245791822613
 40
1.2083333333333179
 50
127.52351320610693
 51
52.47648680188081
  0
ARC
  8
_0-1_線色１__水色__
  6
CONTINUOUS
 62
    4
 10
847.19239849797987
 20
677.54124584906606
 40
1.2083333333333581
 50
307.52351320333912
 51
232.47648680464988
  0
ARC
  8
_0-1_線色１__水色__
  6
CONTINUOUS
 62
    4
 10
845.72043835377144
 20
675.6245791822613
 40
1.2083333333333179
 50
127.52351320610693
 51
52.47648680188081
  0
ARC
  8
_0-1_線色１__水色__
  6
CONTINUOUS
 62
    4
 10
844.24847820929472
 20
677.54124584906606
 40
1.2083333333333581
 50
307.52351320333912
 51
232.47648680464988
  0
ARC
  8
_0-1_線色１__水色__
  6
CONTINUOUS
 62
    4
 10
842.77651806508629
 20
675.6245791822613
 40
1.2083333333333179
 50
127.52351320610693
 51
52.47648680188081
  0
ARC
  8
_0-1_線色１__水色__
  6
CONTINUOUS
 62
    4
 10
988.5005723547323
 20
677.54124584947647
 40
1.2083333333333581
 50
307.52351320333912
 51
232.47648680464988
  0
ARC
  8
_0-1_線色１__水色__
  6
CONTINUOUS
 62
    4
 10
989.97253249920675
 20
675.62457918287748
 40
1.2083333333333179
 50
127.52351320610693
 51
52.47648680188081
  0
ARC
  8
_0-1_線色１__水色__
  6
CONTINUOUS
 62
    4
 10
985.55665206604942
 20
677.54124584927183
 40
1.2083333333333581
 50
307.52351320333912
 51
232.47648680464988
  0
ARC
  8
_0-1_線色１__水色__
  6
CONTINUOUS
 62
    4
 10
987.02861221052387
 20
675.62457918267171
 40
1.2083333333333179
 50
127.52351320610693
 51
52.47648680188081
  0
ARC
  8
_0-1_線色１__水色__
  6
CONTINUOUS
 62
    4
 10
982.61273177736655
 20
677.54124584906606
 40
1.2083333333333581
 50
307.52351320333912
 51
232.47648680464988
  0
ARC
  8
_0-1_線色１__水色__
  6
CONTINUOUS
 62
    4
 10
984.084691921841
 20
675.62457918246707
 40
1.2083333333333179
 50
127.52351320610693
 51
52.47648680188081
  0
ARC
  8
_0-1_線色１__水色__
  6
CONTINUOUS
 62
    4
 10
979.6688114886814
 20
677.54124584886142
 40
1.2083333333333581
 50
307.52351320333912
 51
232.47648680464988
  0
ARC
  8
_0-1_線色１__水色__
  6
CONTINUOUS
 62
    4
 10
981.14077163315812
 20
675.6245791822613
 40
1.2083333333333179
 50
127.52351320610693
 51
52.47648680188081
  0
ARC
  8
_0-1_線色１__水色__
  6
CONTINUOUS
 62
    4
 10
976.72489119999852
 20
677.54124584865565
 40
1.2083333333333581
 50
307.52351320333912
 51
232.47648680464988
  0
ARC
  8
_0-1_線色１__水色__
  6
CONTINUOUS
 62
    4
 10
978.19685134447298
 20
675.62457918205666
 40
1.2083333333333179
 50
127.52351320610693
 51
52.47648680188081
  0
ARC
  8
_0-1_線色１__水色__
  6
CONTINUOUS
 62
    4
 10
973.78097091131565
 20
677.54124584845101
 40
1.2083333333333581
 50
307.52351320333912
 51
232.47648680464988
  0
ARC
  8
_0-1_線色１__水色__
  6
CONTINUOUS
 62
    4
 10
975.2529310557901
 20
675.62457918185089
 40
1.2083333333333179
 50
127.52351320610693
 51
52.47648680188081
  0
ARC
  8
_0-1_線色１__水色__
  6
CONTINUOUS
 62
    4
 10
970.83705062263277
 20
677.54124584824524
 40
1.2083333333333581
 50
307.52351320333912
 51
232.47648680464988
  0
ARC
  8
_0-1_線色１__水色__
  6
CONTINUOUS
 62
    4
 10
969.36509047842435
 20
675.62457918144048
 40
1.2083333333333179
 50
127.52351320610693
 51
52.47648680188081
  0
ARC
  8
_0-1_線色１__水色__
  6
CONTINUOUS
 62
    4
 10
972.30901076710722
 20
675.62457918164625
 40
1.2083333333333179
 50
127.52351320610693
 51
52.47648680188081
  0
ARC
  8
_0-1_線色１__水色__
  6
CONTINUOUS
 62
    4
 10
992.91645278788963
 20
675.62457918246707
 40
1.2083333333333179
 50
127.52351320610693
 51
52.47648680188081
  0
ARC
  8
_0-1_線色１__水色__
  6
CONTINUOUS
 62
    4
 10
991.44449264341517
 20
677.54124584906606
 40
1.2083333333333581
 50
307.52351320333912
 51
232.47648680464988
  0
ARC
  8
_0-1_線色１__水色__
  6
CONTINUOUS
 62
    4
 10
967.89313033394762
 20
677.5412458480406
 40
1.2083333333333581
 50
307.52351320333912
 51
232.47648680464988
  0
ARC
  8
_0-1_線色１__水色__
  6
CONTINUOUS
 62
    4
 10
997.33233322078092
 20
677.54124584947647
 40
1.2083333333333581
 50
307.52351320333912
 51
232.47648680464988
  0
ARC
  8
_0-1_線色１__水色__
  6
CONTINUOUS
 62
    4
 10
995.86037307657477
 20
675.62457918267171
 40
1.2083333333333179
 50
127.52351320610693
 51
52.47648680188081
  0
ARC
  8
_0-1_線色１__水色__
  6
CONTINUOUS
 62
    4
 10
998.80429336525765
 20
675.62457918287748
 40
1.2083333333333179
 50
127.52351320610693
 51
52.47648680188081
  0
ARC
  8
_0-1_線色１__水色__
  6
CONTINUOUS
 62
    4
 10
994.38841293209805
 20
677.54124584927183
 40
1.2083333333333581
 50
307.52351320333912
 51
232.47648680464988
  0
ARC
  8
_0-1_線色１__水色__
  6
CONTINUOUS
 62
    4
 10
950.22960860187084
 20
677.54124584740737
 40
1.2083333333333581
 50
307.52351320333912
 51
232.47648680464988
  0
ARC
  8
_0-1_線色１__水色__
  6
CONTINUOUS
 62
    4
 10
951.70156874634756
 20
675.62457918080725
 40
1.2083333333333179
 50
127.52351320610693
 51
52.47648680188081
  0
ARC
  8
_0-1_線色１__水色__
  6
CONTINUOUS
 62
    4
 10
947.28568831318796
 20
677.54124584720159
 40
1.2083333333333581
 50
307.52351320333912
 51
232.47648680464988
  0
ARC
  8
_0-1_線色１__水色__
  6
CONTINUOUS
 62
    4
 10
948.75764845766241
 20
675.62457918060261
 40
1.2083333333333179
 50
127.52351320610693
 51
52.47648680188081
  0
ARC
  8
_0-1_線色１__水色__
  6
CONTINUOUS
 62
    4
 10
944.34176802450509
 20
677.54124584699696
 40
1.2083333333333581
 50
307.52351320333912
 51
232.47648680464988
  0
ARC
  8
_0-1_線色１__水色__
  6
CONTINUOUS
 62
    4
 10
945.81372816897954
 20
675.62457918039684
 40
1.2083333333333179
 50
127.52351320610693
 51
52.47648680188081
  0
ARC
  8
_0-1_線色１__水色__
  6
CONTINUOUS
 62
    4
 10
942.86980788029723
 20
675.6245791801922
 40
1.2083333333333179
 50
127.52351320610693
 51
52.47648680188081
  0
ARC
  8
_0-1_線色１__水色__
  6
CONTINUOUS
 62
    4
 10
954.64548903503044
 20
675.62457918039684
 40
1.2083333333333179
 50
127.52351320610693
 51
52.47648680188081
  0
ARC
  8
_0-1_線色１__水色__
  6
CONTINUOUS
 62
    4
 10
953.17352889055371
 20
677.54124584699696
 40
1.2083333333333581
 50
307.52351320333912
 51
232.47648680464988
  0
ARC
  8
_0-1_線色１__水色__
  6
CONTINUOUS
 62
    4
 10
964.94921004528749
 20
677.54124584781778
 40
1.2083333333333581
 50
307.52351320333912
 51
232.47648680464988
  0
ARC
  8
_0-1_線色１__水色__
  6
CONTINUOUS
 62
    4
 10
962.00528975660461
 20
677.541245847612
 40
1.2083333333333581
 50
307.52351320333912
 51
232.47648680464988
  0
ARC
  8
_0-1_線色１__水色__
  6
CONTINUOUS
 62
    4
 10
963.47724990107906
 20
675.62457918101302
 40
1.2083333333333179
 50
127.52351320610693
 51
52.47648680188081
  0
ARC
  8
_0-1_線色１__水色__
  6
CONTINUOUS
 62
    4
 10
959.06136946792174
 20
677.54124584740737
 40
1.2083333333333581
 50
307.52351320333912
 51
232.47648680464988
  0
ARC
  8
_0-1_線色１__水色__
  6
CONTINUOUS
 62
    4
 10
957.58940932371331
 20
675.62457918060261
 40
1.2083333333333179
 50
127.52351320610693
 51
52.47648680188081
  0
ARC
  8
_0-1_線色１__水色__
  6
CONTINUOUS
 62
    4
 10
960.53332961239619
 20
675.62457918080725
 40
1.2083333333333179
 50
127.52351320610693
 51
52.47648680188081
  0
ARC
  8
_0-1_線色１__水色__
  6
CONTINUOUS
 62
    4
 10
956.11744917923886
 20
677.54124584720159
 40
1.2083333333333581
 50
307.52351320333912
 51
232.47648680464988
  0
ARC
  8
_0-1_線色１__水色__
  6
CONTINUOUS
 62
    4
 10
966.42117018976421
 20
675.62457918121765
 40
1.2083333333333179
 50
127.52351320610693
 51
52.47648680188081
  0
ARC
  8
_0-1_線色１__水色__
  6
CONTINUOUS
 62
    4
 10
938.45392744711489
 20
677.54124585031548
 40
1.2083333333333581
 50
307.52351320333912
 51
232.47648680464988
  0
ARC
  8
_0-1_線色１__水色__
  6
CONTINUOUS
 62
    4
 10
936.98196730290874
 20
675.62457918351072
 40
1.2083333333333179
 50
127.52351320610693
 51
52.47648680188081
  0
ARC
  8
_0-1_線色１__水色__
  6
CONTINUOUS
 62
    4
 10
939.92588759159162
 20
675.62457918371535
 40
1.2083333333333179
 50
127.52351320610693
 51
52.47648680188081
  0
ARC
  8
_0-1_線色１__水色__
  6
CONTINUOUS
 62
    4
 10
935.51000715843202
 20
677.5412458501097
 40
1.2083333333333581
 50
307.52351320333912
 51
232.47648680464988
  0
ARC
  8
_0-1_線色１__水色__
  6
CONTINUOUS
 62
    4
 10
917.84648542635523
 20
677.54124584947647
 40
1.2083333333333581
 50
307.52351320333912
 51
232.47648680464988
  0
ARC
  8
_0-1_線色１__水色__
  6
CONTINUOUS
 62
    4
 10
919.31844557082968
 20
675.62457918287748
 40
1.2083333333333179
 50
127.52351320610693
 51
52.47648680188081
  0
ARC
  8
_0-1_線色１__水色__
  6
CONTINUOUS
 62
    4
 10
914.90256513767235
 20
677.54124584927183
 40
1.2083333333333581
 50
307.52351320333912
 51
232.47648680464988
  0
ARC
  8
_0-1_線色１__水色__
  6
CONTINUOUS
 62
    4
 10
916.37452528214681
 20
675.62457918267171
 40
1.2083333333333179
 50
127.52351320610693
 51
52.47648680188081
  0
ARC
  8
_0-1_線色１__水色__
  6
CONTINUOUS
 62
    4
 10
911.95864484898948
 20
677.54124584906606
 40
1.2083333333333581
 50
307.52351320333912
 51
232.47648680464988
  0
ARC
  8
_0-1_線色１__水色__
  6
CONTINUOUS
 62
    4
 10
913.43060499346393
 20
675.62457918246707
 40
1.2083333333333179
 50
127.52351320610693
 51
52.47648680188081
  0
ARC
  8
_0-1_線色１__水色__
  6
CONTINUOUS
 62
    4
 10
909.01472456030433
 20
677.54124584886142
 40
1.2083333333333581
 50
307.52351320333912
 51
232.47648680464988
  0
ARC
  8
_0-1_線色１__水色__
  6
CONTINUOUS
 62
    4
 10
910.48668470478106
 20
675.6245791822613
 40
1.2083333333333179
 50
127.52351320610693
 51
52.47648680188081
  0
ARC
  8
_0-1_線色１__水色__
  6
CONTINUOUS
 62
    4
 10
906.07080427162145
 20
677.54124584865565
 40
1.2083333333333581
 50
307.52351320333912
 51
232.47648680464988
  0
ARC
  8
_0-1_線色１__水色__
  6
CONTINUOUS
 62
    4
 10
907.54276441609591
 20
675.62457918205666
 40
1.2083333333333179
 50
127.52351320610693
 51
52.47648680188081
  0
ARC
  8
_0-1_線色１__水色__
  6
CONTINUOUS
 62
    4
 10
903.12688398293858
 20
677.54124584845101
 40
1.2083333333333581
 50
307.52351320333912
 51
232.47648680464988
  0
ARC
  8
_0-1_線色１__水色__
  6
CONTINUOUS
 62
    4
 10
904.59884412741303
 20
675.62457918185089
 40
1.2083333333333179
 50
127.52351320610693
 51
52.47648680188081
  0
ARC
  8
_0-1_線色１__水色__
  6
CONTINUOUS
 62
    4
 10
900.1829636942557
 20
677.54124584824524
 40
1.2083333333333581
 50
307.52351320333912
 51
232.47648680464988
  0
ARC
  8
_0-1_線色１__水色__
  6
CONTINUOUS
 62
    4
 10
898.71100355004728
 20
675.62457918144048
 40
1.2083333333333179
 50
127.52351320610693
 51
52.47648680188081
  0
ARC
  8
_0-1_線色１__水色__
  6
CONTINUOUS
 62
    4
 10
901.65492383873016
 20
675.62457918164625
 40
1.2083333333333179
 50
127.52351320610693
 51
52.47648680188081
  0
ARC
  8
_0-1_線色１__水色__
  6
CONTINUOUS
 62
    4
 10
922.26236585951256
 20
675.62457918246707
 40
1.2083333333333179
 50
127.52351320610693
 51
52.47648680188081
  0
ARC
  8
_0-1_線色１__水色__
  6
CONTINUOUS
 62
    4
 10
920.7904057150381
 20
677.54124584906606
 40
1.2083333333333581
 50
307.52351320333912
 51
232.47648680464988
  0
ARC
  8
_0-1_線色１__水色__
  6
CONTINUOUS
 62
    4
 10
897.23904340557056
 20
677.5412458480406
 40
1.2083333333333581
 50
307.52351320333912
 51
232.47648680464988
  0
ARC
  8
_0-1_線色１__水色__
  6
CONTINUOUS
 62
    4
 10
932.56608686977188
 20
677.54124584988688
 40
1.2083333333333581
 50
307.52351320333912
 51
232.47648680464988
  0
ARC
  8
_0-1_線色１__水色__
  6
CONTINUOUS
 62
    4
 10
929.622166581089
 20
677.54124584968224
 40
1.2083333333333581
 50
307.52351320333912
 51
232.47648680464988
  0
ARC
  8
_0-1_線色１__水色__
  6
CONTINUOUS
 62
    4
 10
931.09412672556346
 20
675.62457918308212
 40
1.2083333333333179
 50
127.52351320610693
 51
52.47648680188081
  0
ARC
  8
_0-1_線色１__水色__
  6
CONTINUOUS
 62
    4
 10
926.67824629240613
 20
677.54124584947647
 40
1.2083333333333581
 50
307.52351320333912
 51
232.47648680464988
  0
ARC
  8
_0-1_線色１__水色__
  6
CONTINUOUS
 62
    4
 10
925.20628614819771
 20
675.62457918267171
 40
1.2083333333333179
 50
127.52351320610693
 51
52.47648680188081
  0
ARC
  8
_0-1_線色１__水色__
  6
CONTINUOUS
 62
    4
 10
928.15020643688058
 20
675.62457918287748
 40
1.2083333333333179
 50
127.52351320610693
 51
52.47648680188081
  0
ARC
  8
_0-1_線色１__水色__
  6
CONTINUOUS
 62
    4
 10
923.73432600372098
 20
677.54124584927183
 40
1.2083333333333581
 50
307.52351320333912
 51
232.47648680464988
  0
ARC
  8
_0-1_線色１__水色__
  6
CONTINUOUS
 62
    4
 10
934.03804701424633
 20
675.62457918328789
 40
1.2083333333333179
 50
127.52351320610693
 51
52.47648680188081
  0
ARC
  8
_0-1_線色１__水色__
  6
CONTINUOUS
 62
    4
 10
879.57552167349377
 20
677.54124584740737
 40
1.2083333333333581
 50
307.52351320333912
 51
232.47648680464988
  0
ARC
  8
_0-1_線色１__水色__
  6
CONTINUOUS
 62
    4
 10
881.04748181797049
 20
675.62457918080725
 40
1.2083333333333179
 50
127.52351320610693
 51
52.47648680188081
  0
ARC
  8
_0-1_線色１__水色__
  6
CONTINUOUS
 62
    4
 10
876.63160138481089
 20
677.54124584720159
 40
1.2083333333333581
 50
307.52351320333912
 51
232.47648680464988
  0
ARC
  8
_0-1_線色１__水色__
  6
CONTINUOUS
 62
    4
 10
878.10356152928762
 20
675.62457918060261
 40
1.2083333333333179
 50
127.52351320610693
 51
52.47648680188081
  0
ARC
  8
_0-1_線色１__水色__
  6
CONTINUOUS
 62
    4
 10
873.68768109612802
 20
677.54124584699696
 40
1.2083333333333581
 50
307.52351320333912
 51
232.47648680464988
  0
ARC
  8
_0-1_線色１__水色__
  6
CONTINUOUS
 62
    4
 10
875.15964124060247
 20
675.62457918039684
 40
1.2083333333333179
 50
127.52351320610693
 51
52.47648680188081
  0
ARC
  8
_0-1_線色１__水色__
  6
CONTINUOUS
 62
    4
 10
872.21572095191959
 20
675.6245791801922
 40
1.2083333333333179
 50
127.52351320610693
 51
52.47648680188081
  0
ARC
  8
_0-1_線色１__水色__
  6
CONTINUOUS
 62
    4
 10
883.99140210665337
 20
675.62457918039684
 40
1.2083333333333179
 50
127.52351320610693
 51
52.47648680188081
  0
ARC
  8
_0-1_線色１__水色__
  6
CONTINUOUS
 62
    4
 10
882.51944196217892
 20
677.54124584699696
 40
1.2083333333333581
 50
307.52351320333912
 51
232.47648680464988
  0
ARC
  8
_0-1_線色１__水色__
  6
CONTINUOUS
 62
    4
 10
894.29512311691042
 20
677.54124584781778
 40
1.2083333333333581
 50
307.52351320333912
 51
232.47648680464988
  0
ARC
  8
_0-1_線色１__水色__
  6
CONTINUOUS
 62
    4
 10
891.35120282822754
 20
677.541245847612
 40
1.2083333333333581
 50
307.52351320333912
 51
232.47648680464988
  0
ARC
  8
_0-1_線色１__水色__
  6
CONTINUOUS
 62
    4
 10
892.82316297270427
 20
675.62457918101302
 40
1.2083333333333179
 50
127.52351320610693
 51
52.47648680188081
  0
ARC
  8
_0-1_線色１__水色__
  6
CONTINUOUS
 62
    4
 10
888.40728253954467
 20
677.54124584740737
 40
1.2083333333333581
 50
307.52351320333912
 51
232.47648680464988
  0
ARC
  8
_0-1_線色１__水色__
  6
CONTINUOUS
 62
    4
 10
886.93532239533624
 20
675.62457918060261
 40
1.2083333333333179
 50
127.52351320610693
 51
52.47648680188081
  0
ARC
  8
_0-1_線色１__水色__
  6
CONTINUOUS
 62
    4
 10
889.87924268401912
 20
675.62457918080725
 40
1.2083333333333179
 50
127.52351320610693
 51
52.47648680188081
  0
ARC
  8
_0-1_線色１__水色__
  6
CONTINUOUS
 62
    4
 10
885.46336225086179
 20
677.54124584720159
 40
1.2083333333333581
 50
307.52351320333912
 51
232.47648680464988
  0
ARC
  8
_0-1_線色１__水色__
  6
CONTINUOUS
 62
    4
 10
895.76708326138714
 20
675.62457918121765
 40
1.2083333333333179
 50
127.52351320610693
 51
52.47648680188081
  0
ARC
  8
_0-1_線色１__水色__
  6
CONTINUOUS
 62
    4
 10
941.39784773580004
 20
677.54124585052011
 40
1.2083333333333581
 50
307.52351320333912
 51
232.47648680464988
  0
ARC
  8
_0-1_線色１__水色__
  6
CONTINUOUS
 62
    4
 10
867.79984051873726
 20
677.54124585031548
 40
1.2083333333333581
 50
307.52351320333912
 51
232.47648680464988
  0
ARC
  8
_0-1_線色１__水色__
  6
CONTINUOUS
 62
    4
 10
866.32788037453111
 20
675.62457918351072
 40
1.2083333333333179
 50
127.52351320610693
 51
52.47648680188081
  0
ARC
  8
_0-1_線色１__水色__
  6
CONTINUOUS
 62
    4
 10
869.27180066321398
 20
675.62457918371535
 40
1.2083333333333179
 50
127.52351320610693
 51
52.47648680188081
  0
ARC
  8
_0-1_線色１__水色__
  6
CONTINUOUS
 62
    4
 10
864.85592023005438
 20
677.5412458501097
 40
1.2083333333333581
 50
307.52351320333912
 51
232.47648680464988
  0
ARC
  8
_0-1_線色１__水色__
  6
CONTINUOUS
 62
    4
 10
841.30455792061184
 20
677.54124584906606
 40
1.2083333333333581
 50
307.52351320333912
 51
232.47648680464988
  0
ARC
  8
_0-1_線色１__水色__
  6
CONTINUOUS
 62
    4
 10
838.36063763192897
 20
677.54124584886142
 40
1.2083333333333581
 50
307.52351320333912
 51
232.47648680464988
  0
ARC
  8
_0-1_線色１__水色__
  6
CONTINUOUS
 62
    4
 10
839.83259777640342
 20
675.6245791822613
 40
1.2083333333333179
 50
127.52351320610693
 51
52.47648680188081
  0
ARC
  8
_0-1_線色１__水色__
  6
CONTINUOUS
 62
    4
 10
835.41671734324382
 20
677.54124584865565
 40
1.2083333333333581
 50
307.52351320333912
 51
232.47648680464988
  0
ARC
  8
_0-1_線色１__水色__
  6
CONTINUOUS
 62
    4
 10
836.88867748772054
 20
675.62457918205666
 40
1.2083333333333179
 50
127.52351320610693
 51
52.47648680188081
  0
ARC
  8
_0-1_線色１__水色__
  6
CONTINUOUS
 62
    4
 10
832.47279705456094
 20
677.54124584845101
 40
1.2083333333333581
 50
307.52351320333912
 51
232.47648680464988
  0
ARC
  8
_0-1_線色１__水色__
  6
CONTINUOUS
 62
    4
 10
833.94475719903539
 20
675.62457918185089
 40
1.2083333333333179
 50
127.52351320610693
 51
52.47648680188081
  0
ARC
  8
_0-1_線色１__水色__
  6
CONTINUOUS
 62
    4
 10
829.52887676587807
 20
677.54124584824524
 40
1.2083333333333581
 50
307.52351320333912
 51
232.47648680464988
  0
ARC
  8
_0-1_線色１__水色__
  6
CONTINUOUS
 62
    4
 10
828.05691662166964
 20
675.62457918144048
 40
1.2083333333333179
 50
127.52351320610693
 51
52.47648680188081
  0
ARC
  8
_0-1_線色１__水色__
  6
CONTINUOUS
 62
    4
 10
831.00083691035252
 20
675.62457918164625
 40
1.2083333333333179
 50
127.52351320610693
 51
52.47648680188081
  0
ARC
  8
_0-1_線色１__水色__
  6
CONTINUOUS
 62
    4
 10
851.60827893113719
 20
675.62457918246707
 40
1.2083333333333179
 50
127.52351320610693
 51
52.47648680188081
  0
ARC
  8
_0-1_線色１__水色__
  6
CONTINUOUS
 62
    4
 10
826.58495647719519
 20
677.5412458480406
 40
1.2083333333333581
 50
307.52351320333912
 51
232.47648680464988
  0
ARC
  8
_0-1_線色１__水色__
  6
CONTINUOUS
 62
    4
 10
861.91199994139424
 20
677.54124584988688
 40
1.2083333333333581
 50
307.52351320333912
 51
232.47648680464988
  0
ARC
  8
_0-1_線色１__水色__
  6
CONTINUOUS
 62
    4
 10
858.96807965271137
 20
677.54124584968224
 40
1.2083333333333581
 50
307.52351320333912
 51
232.47648680464988
  0
ARC
  8
_0-1_線色１__水色__
  6
CONTINUOUS
 62
    4
 10
860.44003979718582
 20
675.62457918308212
 40
1.2083333333333179
 50
127.52351320610693
 51
52.47648680188081
  0
ARC
  8
_0-1_線色１__水色__
  6
CONTINUOUS
 62
    4
 10
856.02415936402849
 20
677.54124584947647
 40
1.2083333333333581
 50
307.52351320333912
 51
232.47648680464988
  0
ARC
  8
_0-1_線色１__水色__
  6
CONTINUOUS
 62
    4
 10
854.55219921982007
 20
675.62457918267171
 40
1.2083333333333179
 50
127.52351320610693
 51
52.47648680188081
  0
ARC
  8
_0-1_線色１__水色__
  6
CONTINUOUS
 62
    4
 10
857.49611950850294
 20
675.62457918287748
 40
1.2083333333333179
 50
127.52351320610693
 51
52.47648680188081
  0
ARC
  8
_0-1_線色１__水色__
  6
CONTINUOUS
 62
    4
 10
853.08023907534562
 20
677.54124584927183
 40
1.2083333333333581
 50
307.52351320333912
 51
232.47648680464988
  0
ARC
  8
_0-1_線色１__水色__
  6
CONTINUOUS
 62
    4
 10
863.38396008587097
 20
675.62457918328789
 40
1.2083333333333179
 50
127.52351320610693
 51
52.47648680188081
  0
ARC
  8
_0-1_線色１__水色__
  6
CONTINUOUS
 62
    4
 10
823.64103618853505
 20
677.54124584781778
 40
1.2083333333333581
 50
307.52351320333912
 51
232.47648680464988
  0
ARC
  8
_0-1_線色１__水色__
  6
CONTINUOUS
 62
    4
 10
820.6971158998499
 20
677.541245847612
 40
1.2083333333333581
 50
307.52351320333912
 51
232.47648680464988
  0
ARC
  8
_0-1_線色１__水色__
  6
CONTINUOUS
 62
    4
 10
822.16907604432663
 20
675.62457918101302
 40
1.2083333333333179
 50
127.52351320610693
 51
52.47648680188081
  0
ARC
  8
_0-1_線色１__水色__
  6
CONTINUOUS
 62
    4
 10
817.75319561116703
 20
677.54124584740737
 40
1.2083333333333581
 50
307.52351320333912
 51
232.47648680464988
  0
ARC
  8
_0-1_線色１__水色__
  6
CONTINUOUS
 62
    4
 10
819.22515575564375
 20
675.62457918080725
 40
1.2083333333333179
 50
127.52351320610693
 51
52.47648680188081
  0
ARC
  8
_0-1_線色１__水色__
  6
CONTINUOUS
 62
    4
 10
825.11299633300951
 20
675.62457918121765
 40
1.2083333333333179
 50
127.52351320610693
 51
52.47648680188081
  0
ARC
  8
_0-1_線色１__水色__
  6
CONTINUOUS
 62
    4
 10
870.7437608074224
 20
677.54124585052011
 40
1.2083333333333581
 50
307.52351320333912
 51
232.47648680464988
  0
LINE
  8
_0-5_金属
  6
CONTINUOUS
 62
    7
 10
776.30914526836193
 20
689.08291151255582
 11
776.30914526836193
 21
514.78378074954719
  0
LINE
  8
_0-5_金属
  6
CONTINUOUS
 62
    7
 10
716.30914526836193
 20
689.08291151255582
 11
716.30914526836193
 21
514.78378074954719
  0
LINE
  8
_0-5_金属
  6
CONTINUOUS
 62
    7
 10
776.30914526836193
 20
691.38291151255601
 11
776.30914526836193
 21
689.08291151255582
  0
LINE
  8
_0-5_金属
  6
CONTINUOUS
 62
    7
 10
716.30914526836193
 20
691.38291151255601
 11
716.30914526836193
 21
689.08291151255582
  0
LINE
  8
_0-5_金属
  6
CONTINUOUS
 62
    7
 10
700.60914526836257
 20
691.38291151255601
 11
716.30914526836193
 21
691.38291151255601
  0
ARC
  8
_0-5_金属
  6
CONTINUOUS
 62
    7
 10
700.60914526836257
 20
693.38291151255646
 40
2
 50
180
 51
270
  0
LINE
  8
_0-5_金属
  6
CONTINUOUS
 62
    7
 10
698.60914526836439
 20
734.78291151255632
 11
698.60914526836439
 21
693.38291151255646
  0
ARC
  8
_0-5_金属
  6
CONTINUOUS
 62
    7
 10
700.60914526836257
 20
734.78291151255632
 40
2
 50
90
 51
180
  0
LINE
  8
_0-5_金属
  6
CONTINUOUS
 62
    7
 10
792.00914526836357
 20
736.78291151255564
 11
700.60914526836257
 21
736.78291151255564
  0
ARC
  8
_0-5_金属
  6
CONTINUOUS
 62
    7
 10
792.00914526836357
 20
734.78291151255632
 40
2
 50
0
 51
90.000000000000014
  0
LINE
  8
_0-5_金属
  6
CONTINUOUS
 62
    7
 10
792.00914526836357
 20
691.38291151255601
 11
776.30914526836193
 21
691.38291151255601
  0
ARC
  8
_0-5_金属
  6
CONTINUOUS
 62
    7
 10
792.00914526836357
 20
693.38291151255646
 40
2
 50
270
 51
0
  0
LINE
  8
_0-5_金属
  6
CONTINUOUS
 62
    7
 10
792.00914526836357
 20
689.08291151255582
 11
776.30914526836193
 21
689.08291151255582
  0
ARC
  8
_0-5_金属
  6
CONTINUOUS
 62
    7
 10
792.00914526836357
 20
693.38291151255646
 40
4.2999999999999989
 50
270
 51
0
  0
ARC
  8
_0-5_金属
  6
CONTINUOUS
 62
    7
 10
792.00914526836357
 20
734.78291151255632
 40
4.2999999999999989
 50
0
 51
90
  0
LINE
  8
_0-5_金属
  6
CONTINUOUS
 62
    7
 10
700.60914526836257
 20
739.08291151255696
 11
792.00914526836357
 21
739.08291151255696
  0
ARC
  8
_0-5_金属
  6
CONTINUOUS
 62
    7
 10
700.60914526836257
 20
734.78291151255632
 40
4.2999999999999989
 50
90
 51
180
  0
LINE
  8
_0-5_金属
  6
CONTINUOUS
 62
    7
 10
700.60914526836257
 20
689.08291151255582
 11
716.30914526836193
 21
689.08291151255582
  0
ARC
  8
_0-5_金属
  6
CONTINUOUS
 62
    7
 10
700.60914526836257
 20
693.38291151255646
 40
4.2999999999999989
 50
180
 51
270
  0
LINE
  8
_0-5_金属
  6
CONTINUOUS
 62
    7
 10
794.00914526836175
 20
693.38291151255646
 11
794.00914526836175
 21
734.78291151255632
  0
LINE
  8
_0-5_金属
  6
CONTINUOUS
 62
    7
 10
1293.6125202683634
 20
739.08316251256053
 11
1497.8818876519745
 21
739.08316251256053
  0
ARC
  8
_0-1_線色１__水色__
  6
CONTINUOUS
 62
    4
 10
1490.4388547054486
 20
777.54149585475432
 40
1.2083333333333581
 50
307.52351320333912
 51
232.47648680464988
  0
ARC
  8
_0-1_線色１__水色__
  6
CONTINUOUS
 62
    4
 10
1472.7753329733719
 20
777.54149585412108
 40
1.2083333333333581
 50
307.52351320333912
 51
232.47648680464988
  0
ARC
  8
_0-1_線色１__水色__
  6
CONTINUOUS
 62
    4
 10
1474.2472931178486
 20
775.62482918752096
 40
1.2083333333333179
 50
127.52351320610693
 51
52.47648680188081
  0
ARC
  8
_0-1_線色１__水色__
  6
CONTINUOUS
 62
    4
 10
1469.831412684689
 20
777.54149585391531
 40
1.2083333333333581
 50
307.52351320333912
 51
232.47648680464988
  0
ARC
  8
_0-1_線色１__水色__
  6
CONTINUOUS
 62
    4
 10
1471.3033728291634
 20
775.62482918731632
 40
1.2083333333333179
 50
127.52351320610693
 51
52.47648680188081
  0
ARC
  8
_0-1_線色１__水色__
  6
CONTINUOUS
 62
    4
 10
1466.8874923960061
 20
777.54149585371067
 40
1.2083333333333581
 50
307.52351320333912
 51
232.47648680464988
  0
ARC
  8
_0-1_線色１__水色__
  6
CONTINUOUS
 62
    4
 10
1468.3594525404806
 20
775.62482918711055
 40
1.2083333333333179
 50
127.52351320610693
 51
52.47648680188081
  0
ARC
  8
_0-1_線色１__水色__
  6
CONTINUOUS
 62
    4
 10
1465.4155322517977
 20
775.62482918690591
 40
1.2083333333333179
 50
127.52351320610693
 51
52.47648680188081
  0
ARC
  8
_0-1_線色１__水色__
  6
CONTINUOUS
 62
    4
 10
1477.1912134065315
 20
775.62482918711055
 40
1.2083333333333179
 50
127.52351320610693
 51
52.47648680188081
  0
ARC
  8
_0-1_線色１__水色__
  6
CONTINUOUS
 62
    4
 10
1475.7192532620547
 20
777.54149585371067
 40
1.2083333333333581
 50
307.52351320333912
 51
232.47648680464988
  0
ARC
  8
_0-1_線色１__水色__
  6
CONTINUOUS
 62
    4
 10
1487.4949344167885
 20
777.54149585453149
 40
1.2083333333333581
 50
307.52351320333912
 51
232.47648680464988
  0
ARC
  8
_0-1_線色１__水色__
  6
CONTINUOUS
 62
    4
 10
1484.5510141281056
 20
777.54149585432572
 40
1.2083333333333581
 50
307.52351320333912
 51
232.47648680464988
  0
ARC
  8
_0-1_線色１__水色__
  6
CONTINUOUS
 62
    4
 10
1486.0229742725801
 20
775.62482918772673
 40
1.2083333333333179
 50
127.52351320610693
 51
52.47648680188081
  0
ARC
  8
_0-1_線色１__水色__
  6
CONTINUOUS
 62
    4
 10
1481.6070938394228
 20
777.54149585412108
 40
1.2083333333333581
 50
307.52351320333912
 51
232.47648680464988
  0
ARC
  8
_0-1_線色１__水色__
  6
CONTINUOUS
 62
    4
 10
1480.1351336952143
 20
775.62482918731632
 40
1.2083333333333179
 50
127.52351320610693
 51
52.47648680188081
  0
ARC
  8
_0-1_線色１__水色__
  6
CONTINUOUS
 62
    4
 10
1483.0790539838972
 20
775.62482918752096
 40
1.2083333333333179
 50
127.52351320610693
 51
52.47648680188081
  0
ARC
  8
_0-1_線色１__水色__
  6
CONTINUOUS
 62
    4
 10
1478.6631735507376
 20
777.54149585391531
 40
1.2083333333333581
 50
307.52351320333912
 51
232.47648680464988
  0
ARC
  8
_0-1_線色１__水色__
  6
CONTINUOUS
 62
    4
 10
1488.966894561263
 20
775.62482918793137
 40
1.2083333333333179
 50
127.52351320610693
 51
52.47648680188081
  0
ARC
  8
_0-1_線色１__水色__
  6
CONTINUOUS
 62
    4
 10
1463.9435721072982
 20
777.54149585723383
 40
1.2083333333333581
 50
307.52351320333912
 51
232.47648680464988
  0
ARC
  8
_0-1_線色１__水色__
  6
CONTINUOUS
 62
    4
 10
1460.9996518186165
 20
777.54149585702805
 40
1.2083333333333581
 50
307.52351320333912
 51
232.47648680464988
  0
ARC
  8
_0-1_線色１__水色__
  6
CONTINUOUS
 62
    4
 10
1462.4716119630909
 20
775.62482919042907
 40
1.2083333333333179
 50
127.52351320610693
 51
52.47648680188081
  0
ARC
  8
_0-1_線色１__水色__
  6
CONTINUOUS
 62
    4
 10
1458.0557315299336
 20
777.54149585682342
 40
1.2083333333333581
 50
307.52351320333912
 51
232.47648680464988
  0
ARC
  8
_0-1_線色１__水色__
  6
CONTINUOUS
 62
    4
 10
1459.5276916744081
 20
775.62482919022329
 40
1.2083333333333179
 50
127.52351320610693
 51
52.47648680188081
  0
ARC
  8
_0-1_線色１__水色__
  6
CONTINUOUS
 62
    4
 10
1455.1118112412485
 20
777.54149585661764
 40
1.2083333333333581
 50
307.52351320333912
 51
232.47648680464988
  0
ARC
  8
_0-1_線色１__水色__
  6
CONTINUOUS
 62
    4
 10
1453.6398510970423
 20
775.62482918981289
 40
1.2083333333333179
 50
127.52351320610693
 51
52.47648680188081
  0
ARC
  8
_0-1_線色１__水色__
  6
CONTINUOUS
 62
    4
 10
1456.5837713857252
 20
775.62482919001866
 40
1.2083333333333179
 50
127.52351320610693
 51
52.47648680188081
  0
ARC
  8
_0-1_線色１__水色__
  6
CONTINUOUS
 62
    4
 10
1452.1678909525656
 20
777.54149585641301
 40
1.2083333333333581
 50
307.52351320333912
 51
232.47648680464988
  0
ARC
  8
_0-1_線色１__水色__
  6
CONTINUOUS
 62
    4
 10
1434.5043692204888
 20
777.54149585577863
 40
1.2083333333333581
 50
307.52351320333912
 51
232.47648680464988
  0
ARC
  8
_0-1_線色１__水色__
  6
CONTINUOUS
 62
    4
 10
1435.9763293649655
 20
775.62482918917965
 40
1.2083333333333179
 50
127.52351320610693
 51
52.47648680188081
  0
ARC
  8
_0-1_線色１__水色__
  6
CONTINUOUS
 62
    4
 10
1431.5604489318059
 20
777.541495855574
 40
1.2083333333333581
 50
307.52351320333912
 51
232.47648680464988
  0
ARC
  8
_0-1_線色１__水色__
  6
CONTINUOUS
 62
    4
 10
1433.0324090762804
 20
775.62482918897388
 40
1.2083333333333179
 50
127.52351320610693
 51
52.47648680188081
  0
ARC
  8
_0-1_線色１__水色__
  6
CONTINUOUS
 62
    4
 10
1428.616528643123
 20
777.54149585536823
 40
1.2083333333333581
 50
307.52351320333912
 51
232.47648680464988
  0
ARC
  8
_0-1_線色１__水色__
  6
CONTINUOUS
 62
    4
 10
1430.0884887875975
 20
775.62482918876924
 40
1.2083333333333179
 50
127.52351320610693
 51
52.47648680188081
  0
ARC
  8
_0-1_線色１__水色__
  6
CONTINUOUS
 62
    4
 10
1427.1445684989146
 20
775.62482918856347
 40
1.2083333333333179
 50
127.52351320610693
 51
52.47648680188081
  0
ARC
  8
_0-1_線色１__水色__
  6
CONTINUOUS
 62
    4
 10
1438.9202496536484
 20
775.62482918876924
 40
1.2083333333333179
 50
127.52351320610693
 51
52.47648680188081
  0
ARC
  8
_0-1_線色１__水色__
  6
CONTINUOUS
 62
    4
 10
1437.4482895091717
 20
777.54149585536823
 40
1.2083333333333581
 50
307.52351320333912
 51
232.47648680464988
  0
ARC
  8
_0-1_線色１__水色__
  6
CONTINUOUS
 62
    4
 10
1449.2239706639054
 20
777.54149585618904
 40
1.2083333333333581
 50
307.52351320333912
 51
232.47648680464988
  0
ARC
  8
_0-1_線色１__水色__
  6
CONTINUOUS
 62
    4
 10
1446.2800503752226
 20
777.54149585598441
 40
1.2083333333333581
 50
307.52351320333912
 51
232.47648680464988
  0
ARC
  8
_0-1_線色１__水色__
  6
CONTINUOUS
 62
    4
 10
1447.752010519697
 20
775.62482918938429
 40
1.2083333333333179
 50
127.52351320610693
 51
52.47648680188081
  0
ARC
  8
_0-1_線色１__水色__
  6
CONTINUOUS
 62
    4
 10
1443.3361300865397
 20
777.54149585577863
 40
1.2083333333333581
 50
307.52351320333912
 51
232.47648680464988
  0
ARC
  8
_0-1_線色１__水色__
  6
CONTINUOUS
 62
    4
 10
1441.8641699423313
 20
775.62482918897388
 40
1.2083333333333179
 50
127.52351320610693
 51
52.47648680188081
  0
ARC
  8
_0-1_線色１__水色__
  6
CONTINUOUS
 62
    4
 10
1444.8080902310141
 20
775.62482918917965
 40
1.2083333333333179
 50
127.52351320610693
 51
52.47648680188081
  0
ARC
  8
_0-1_線色１__水色__
  6
CONTINUOUS
 62
    4
 10
1440.3922097978545
 20
777.541495855574
 40
1.2083333333333581
 50
307.52351320333912
 51
232.47648680464988
  0
ARC
  8
_0-1_線色１__水色__
  6
CONTINUOUS
 62
    4
 10
1450.6959308083799
 20
775.62482918959006
 40
1.2083333333333179
 50
127.52351320610693
 51
52.47648680188081
  0
ARC
  8
_0-1_線色１__水色__
  6
CONTINUOUS
 62
    4
 10
1425.6726083544152
 20
777.54149585889252
 40
1.2083333333333581
 50
307.52351320333912
 51
232.47648680464988
  0
ARC
  8
_0-1_線色１__水色__
  6
CONTINUOUS
 62
    4
 10
1422.7286880657334
 20
777.54149585868674
 40
1.2083333333333581
 50
307.52351320333912
 51
232.47648680464988
  0
ARC
  8
_0-1_線色１__水色__
  6
CONTINUOUS
 62
    4
 10
1424.2006482102079
 20
775.62482919208776
 40
1.2083333333333179
 50
127.52351320610693
 51
52.47648680188081
  0
ARC
  8
_0-1_線色１__水色__
  6
CONTINUOUS
 62
    4
 10
1419.7847677770505
 20
777.54149585848211
 40
1.2083333333333581
 50
307.52351320333912
 51
232.47648680464988
  0
ARC
  8
_0-1_線色１__水色__
  6
CONTINUOUS
 62
    4
 10
1421.256727921525
 20
775.62482919188199
 40
1.2083333333333179
 50
127.52351320610693
 51
52.47648680188081
  0
ARC
  8
_0-1_線色１__水色__
  6
CONTINUOUS
 62
    4
 10
1416.8408474883654
 20
777.54149585827633
 40
1.2083333333333581
 50
307.52351320333912
 51
232.47648680464988
  0
ARC
  8
_0-1_線色１__水色__
  6
CONTINUOUS
 62
    4
 10
1415.3688873441592
 20
775.62482919147158
 40
1.2083333333333179
 50
127.52351320610693
 51
52.47648680188081
  0
ARC
  8
_0-1_線色１__水色__
  6
CONTINUOUS
 62
    4
 10
1418.3128076328421
 20
775.62482919167735
 40
1.2083333333333179
 50
127.52351320610693
 51
52.47648680188081
  0
ARC
  8
_0-1_線色１__水色__
  6
CONTINUOUS
 62
    4
 10
1413.8969271996825
 20
777.5414958580717
 40
1.2083333333333581
 50
307.52351320333912
 51
232.47648680464988
  0
ARC
  8
_0-1_線色１__水色__
  6
CONTINUOUS
 62
    4
 10
1396.2334054676062
 20
777.54149585743733
 40
1.2083333333333581
 50
307.52351320333912
 51
232.47648680464988
  0
ARC
  8
_0-1_線色１__水色__
  6
CONTINUOUS
 62
    4
 10
1397.7053656120829
 20
775.62482919083834
 40
1.2083333333333179
 50
127.52351320610693
 51
52.47648680188081
  0
ARC
  8
_0-1_線色１__水色__
  6
CONTINUOUS
 62
    4
 10
1393.2894851789233
 20
777.54149585723269
 40
1.2083333333333581
 50
307.52351320333912
 51
232.47648680464988
  0
ARC
  8
_0-1_線色１__水色__
  6
CONTINUOUS
 62
    4
 10
1394.7614453233978
 20
775.62482919063257
 40
1.2083333333333179
 50
127.52351320610693
 51
52.47648680188081
  0
ARC
  8
_0-1_線色１__水色__
  6
CONTINUOUS
 62
    4
 10
1390.3455648902404
 20
777.54149585702692
 40
1.2083333333333581
 50
307.52351320333912
 51
232.47648680464988
  0
ARC
  8
_0-1_線色１__水色__
  6
CONTINUOUS
 62
    4
 10
1391.8175250347149
 20
775.62482919042793
 40
1.2083333333333179
 50
127.52351320610693
 51
52.47648680188081
  0
ARC
  8
_0-1_線色１__水色__
  6
CONTINUOUS
 62
    4
 10
1388.873604746032
 20
775.62482919022216
 40
1.2083333333333179
 50
127.52351320610693
 51
52.47648680188081
  0
ARC
  8
_0-1_線色１__水色__
  6
CONTINUOUS
 62
    4
 10
1400.6492859007653
 20
775.62482919042793
 40
1.2083333333333179
 50
127.52351320610693
 51
52.47648680188081
  0
ARC
  8
_0-1_線色１__水色__
  6
CONTINUOUS
 62
    4
 10
1399.1773257562891
 20
777.54149585702692
 40
1.2083333333333581
 50
307.52351320333912
 51
232.47648680464988
  0
ARC
  8
_0-1_線色１__水色__
  6
CONTINUOUS
 62
    4
 10
1410.9530069110224
 20
777.54149585784774
 40
1.2083333333333581
 50
307.52351320333912
 51
232.47648680464988
  0
ARC
  8
_0-1_線色１__水色__
  6
CONTINUOUS
 62
    4
 10
1408.0090866223395
 20
777.5414958576431
 40
1.2083333333333581
 50
307.52351320333912
 51
232.47648680464988
  0
ARC
  8
_0-1_線色１__水色__
  6
CONTINUOUS
 62
    4
 10
1409.481046766814
 20
775.62482919104298
 40
1.2083333333333179
 50
127.52351320610693
 51
52.47648680188081
  0
ARC
  8
_0-1_線色１__水色__
  6
CONTINUOUS
 62
    4
 10
1405.0651663336566
 20
777.54149585743733
 40
1.2083333333333581
 50
307.52351320333912
 51
232.47648680464988
  0
ARC
  8
_0-1_線色１__水色__
  6
CONTINUOUS
 62
    4
 10
1403.5932061894482
 20
775.62482919063257
 40
1.2083333333333179
 50
127.52351320610693
 51
52.47648680188081
  0
ARC
  8
_0-1_線色１__水色__
  6
CONTINUOUS
 62
    4
 10
1406.5371264781311
 20
775.62482919083834
 40
1.2083333333333179
 50
127.52351320610693
 51
52.47648680188081
  0
ARC
  8
_0-1_線色１__水色__
  6
CONTINUOUS
 62
    4
 10
1402.1212460449715
 20
777.54149585723269
 40
1.2083333333333581
 50
307.52351320333912
 51
232.47648680464988
  0
ARC
  8
_0-1_線色１__水色__
  6
CONTINUOUS
 62
    4
 10
1412.4249670554968
 20
775.62482919124875
 40
1.2083333333333179
 50
127.52351320610693
 51
52.47648680188081
  0
ARC
  8
_0-1_線色１__水色__
  6
CONTINUOUS
 62
    4
 10
1387.4016446015326
 20
777.54149586055121
 40
1.2083333333333581
 50
307.52351320333912
 51
232.47648680464988
  0
ARC
  8
_0-1_線色１__水色__
  6
CONTINUOUS
 62
    4
 10
1384.457724312851
 20
777.5414958603443
 40
1.2083333333333581
 50
307.52351320333912
 51
232.47648680464988
  0
ARC
  8
_0-1_線色１__水色__
  6
CONTINUOUS
 62
    4
 10
1385.9296844573255
 20
775.62482919374531
 40
1.2083333333333179
 50
127.52351320610693
 51
52.47648680188081
  0
ARC
  8
_0-1_線色１__水色__
  6
CONTINUOUS
 62
    4
 10
1381.5138040241682
 20
777.54149586013966
 40
1.2083333333333581
 50
307.52351320333912
 51
232.47648680464988
  0
ARC
  8
_0-1_線色１__水色__
  6
CONTINUOUS
 62
    4
 10
1382.9857641686426
 20
775.62482919353954
 40
1.2083333333333179
 50
127.52351320610693
 51
52.47648680188081
  0
ARC
  8
_0-1_線色１__水色__
  6
CONTINUOUS
 62
    4
 10
1378.569883735483
 20
777.54149585993389
 40
1.2083333333333581
 50
307.52351320333912
 51
232.47648680464988
  0
ARC
  8
_0-1_線色１__水色__
  6
CONTINUOUS
 62
    4
 10
1377.0979235912769
 20
775.62482919312913
 40
1.2083333333333179
 50
127.52351320610693
 51
52.47648680188081
  0
ARC
  8
_0-1_線色１__水色__
  6
CONTINUOUS
 62
    4
 10
1380.0418438799597
 20
775.6248291933349
 40
1.2083333333333179
 50
127.52351320610693
 51
52.47648680188081
  0
ARC
  8
_0-1_線色１__水色__
  6
CONTINUOUS
 62
    4
 10
1375.6259634468001
 20
777.54149585972925
 40
1.2083333333333581
 50
307.52351320333912
 51
232.47648680464988
  0
ARC
  8
_0-1_線色１__水色__
  6
CONTINUOUS
 62
    4
 10
1357.9624417147234
 20
777.54149585909602
 40
1.2083333333333581
 50
307.52351320333912
 51
232.47648680464988
  0
ARC
  8
_0-1_線色１__水色__
  6
CONTINUOUS
 62
    4
 10
1359.4344018592001
 20
775.62482919249589
 40
1.2083333333333179
 50
127.52351320610693
 51
52.47648680188081
  0
ARC
  8
_0-1_線色１__水色__
  6
CONTINUOUS
 62
    4
 10
1355.0185214260405
 20
777.54149585889024
 40
1.2083333333333581
 50
307.52351320333912
 51
232.47648680464988
  0
ARC
  8
_0-1_線色１__水色__
  6
CONTINUOUS
 62
    4
 10
1356.4904815705149
 20
775.62482919229126
 40
1.2083333333333179
 50
127.52351320610693
 51
52.47648680188081
  0
ARC
  8
_0-1_線色１__水色__
  6
CONTINUOUS
 62
    4
 10
1352.0746011373576
 20
777.54149585868561
 40
1.2083333333333581
 50
307.52351320333912
 51
232.47648680464988
  0
ARC
  8
_0-1_線色１__水色__
  6
CONTINUOUS
 62
    4
 10
1353.5465612818321
 20
775.62482919208549
 40
1.2083333333333179
 50
127.52351320610693
 51
52.47648680188081
  0
ARC
  8
_0-1_線色１__水色__
  6
CONTINUOUS
 62
    4
 10
1350.6026409931492
 20
775.62482919188085
 40
1.2083333333333179
 50
127.52351320610693
 51
52.47648680188081
  0
ARC
  8
_0-1_線色１__水色__
  6
CONTINUOUS
 62
    4
 10
1362.378322147883
 20
775.62482919208549
 40
1.2083333333333179
 50
127.52351320610693
 51
52.47648680188081
  0
ARC
  8
_0-1_線色１__水色__
  6
CONTINUOUS
 62
    4
 10
1360.9063620034062
 20
777.54149585868561
 40
1.2083333333333581
 50
307.52351320333912
 51
232.47648680464988
  0
ARC
  8
_0-1_線色１__水色__
  6
CONTINUOUS
 62
    4
 10
1372.68204315814
 20
777.54149585950643
 40
1.2083333333333581
 50
307.52351320333912
 51
232.47648680464988
  0
ARC
  8
_0-1_線色１__水色__
  6
CONTINUOUS
 62
    4
 10
1369.7381228694571
 20
777.54149585930065
 40
1.2083333333333581
 50
307.52351320333912
 51
232.47648680464988
  0
ARC
  8
_0-1_線色１__水色__
  6
CONTINUOUS
 62
    4
 10
1371.2100830139316
 20
775.62482919270167
 40
1.2083333333333179
 50
127.52351320610693
 51
52.47648680188081
  0
ARC
  8
_0-1_線色１__水色__
  6
CONTINUOUS
 62
    4
 10
1366.7942025807743
 20
777.54149585909602
 40
1.2083333333333581
 50
307.52351320333912
 51
232.47648680464988
  0
ARC
  8
_0-1_線色１__水色__
  6
CONTINUOUS
 62
    4
 10
1365.3222424365658
 20
775.62482919229126
 40
1.2083333333333179
 50
127.52351320610693
 51
52.47648680188081
  0
ARC
  8
_0-1_線色１__水色__
  6
CONTINUOUS
 62
    4
 10
1368.2661627252487
 20
775.62482919249589
 40
1.2083333333333179
 50
127.52351320610693
 51
52.47648680188081
  0
ARC
  8
_0-1_線色１__水色__
  6
CONTINUOUS
 62
    4
 10
1363.8502822920891
 20
777.54149585889024
 40
1.2083333333333581
 50
307.52351320333912
 51
232.47648680464988
  0
ARC
  8
_0-1_線色１__水色__
  6
CONTINUOUS
 62
    4
 10
1374.1540033026145
 20
775.6248291929063
 40
1.2083333333333179
 50
127.52351320610693
 51
52.47648680188081
  0
ARC
  8
_0-1_線色１__水色__
  6
CONTINUOUS
 62
    4
 10
1349.1306808486497
 20
777.54149586220876
 40
1.2083333333333581
 50
307.52351320333912
 51
232.47648680464988
  0
ARC
  8
_0-1_線色１__水色__
  6
CONTINUOUS
 62
    4
 10
1346.1867605599678
 20
777.54149586200299
 40
1.2083333333333581
 50
307.52351320333912
 51
232.47648680464988
  0
ARC
  8
_0-1_線色１__水色__
  6
CONTINUOUS
 62
    4
 10
1347.6587207044422
 20
775.624829195404
 40
1.2083333333333179
 50
127.52351320610693
 51
52.47648680188081
  0
ARC
  8
_0-1_線色１__水色__
  6
CONTINUOUS
 62
    4
 10
1343.2428402712849
 20
777.54149586179835
 40
1.2083333333333581
 50
307.52351320333912
 51
232.47648680464988
  0
ARC
  8
_0-1_線色１__水色__
  6
CONTINUOUS
 62
    4
 10
1344.7148004157593
 20
775.62482919519823
 40
1.2083333333333179
 50
127.52351320610693
 51
52.47648680188081
  0
ARC
  8
_0-1_線色１__水色__
  6
CONTINUOUS
 62
    4
 10
1340.2989199825997
 20
777.54149586159258
 40
1.2083333333333581
 50
307.52351320333912
 51
232.47648680464988
  0
ARC
  8
_0-1_線色１__水色__
  6
CONTINUOUS
 62
    4
 10
1338.8269598383936
 20
775.62482919478782
 40
1.2083333333333179
 50
127.52351320610693
 51
52.47648680188081
  0
ARC
  8
_0-1_線色１__水色__
  6
CONTINUOUS
 62
    4
 10
1341.7708801270765
 20
775.62482919499359
 40
1.2083333333333179
 50
127.52351320610693
 51
52.47648680188081
  0
ARC
  8
_0-1_線色１__水色__
  6
CONTINUOUS
 62
    4
 10
1337.3549996939169
 20
777.54149586138794
 40
1.2083333333333581
 50
307.52351320333912
 51
232.47648680464988
  0
ARC
  8
_0-1_線色１__水色__
  6
CONTINUOUS
 62
    4
 10
1319.6914779618401
 20
777.54149586075471
 40
1.2083333333333581
 50
307.52351320333912
 51
232.47648680464988
  0
ARC
  8
_0-1_線色１__水色__
  6
CONTINUOUS
 62
    4
 10
1321.1634381063168
 20
775.62482919415459
 40
1.2083333333333179
 50
127.52351320610693
 51
52.47648680188081
  0
ARC
  8
_0-1_線色１__水色__
  6
CONTINUOUS
 62
    4
 10
1316.7475576731572
 20
777.54149586054893
 40
1.2083333333333581
 50
307.52351320333912
 51
232.47648680464988
  0
ARC
  8
_0-1_線色１__水色__
  6
CONTINUOUS
 62
    4
 10
1318.2195178176316
 20
775.62482919394995
 40
1.2083333333333179
 50
127.52351320610693
 51
52.47648680188081
  0
ARC
  8
_0-1_線色１__水色__
  6
CONTINUOUS
 62
    4
 10
1313.8036373844743
 20
777.5414958603443
 40
1.2083333333333581
 50
307.52351320333912
 51
232.47648680464988
  0
ARC
  8
_0-1_線色１__水色__
  6
CONTINUOUS
 62
    4
 10
1315.2755975289488
 20
775.62482919374418
 40
1.2083333333333179
 50
127.52351320610693
 51
52.47648680188081
  0
ARC
  8
_0-1_線色１__水色__
  6
CONTINUOUS
 62
    4
 10
1312.3316772402659
 20
775.62482919353954
 40
1.2083333333333179
 50
127.52351320610693
 51
52.47648680188081
  0
ARC
  8
_0-1_線色１__水色__
  6
CONTINUOUS
 62
    4
 10
1324.1073583949997
 20
775.62482919374418
 40
1.2083333333333179
 50
127.52351320610693
 51
52.47648680188081
  0
ARC
  8
_0-1_線色１__水色__
  6
CONTINUOUS
 62
    4
 10
1322.6353982505229
 20
777.5414958603443
 40
1.2083333333333581
 50
307.52351320333912
 51
232.47648680464988
  0
ARC
  8
_0-1_線色１__水色__
  6
CONTINUOUS
 62
    4
 10
1334.4110794052567
 20
777.54149586116512
 40
1.2083333333333581
 50
307.52351320333912
 51
232.47648680464988
  0
ARC
  8
_0-1_線色１__水色__
  6
CONTINUOUS
 62
    4
 10
1331.4671591165738
 20
777.54149586095934
 40
1.2083333333333581
 50
307.52351320333912
 51
232.47648680464988
  0
ARC
  8
_0-1_線色１__水色__
  6
CONTINUOUS
 62
    4
 10
1332.9391192610483
 20
775.62482919436036
 40
1.2083333333333179
 50
127.52351320610693
 51
52.47648680188081
  0
ARC
  8
_0-1_線色１__水色__
  6
CONTINUOUS
 62
    4
 10
1328.523238827891
 20
777.54149586075471
 40
1.2083333333333581
 50
307.52351320333912
 51
232.47648680464988
  0
ARC
  8
_0-1_線色１__水色__
  6
CONTINUOUS
 62
    4
 10
1327.0512786836825
 20
775.62482919394995
 40
1.2083333333333179
 50
127.52351320610693
 51
52.47648680188081
  0
ARC
  8
_0-1_線色１__水色__
  6
CONTINUOUS
 62
    4
 10
1329.9951989723654
 20
775.62482919415459
 40
1.2083333333333179
 50
127.52351320610693
 51
52.47648680188081
  0
ARC
  8
_0-1_線色１__水色__
  6
CONTINUOUS
 62
    4
 10
1325.5793185392058
 20
777.54149586054893
 40
1.2083333333333581
 50
307.52351320333912
 51
232.47648680464988
  0
ARC
  8
_0-1_線色１__水色__
  6
CONTINUOUS
 62
    4
 10
1335.8830395497312
 20
775.624829194565
 40
1.2083333333333179
 50
127.52351320610693
 51
52.47648680188081
  0
ARC
  8
_0-1_線色１__水色__
  6
CONTINUOUS
 62
    4
 10
1310.8597170957664
 20
777.54149586386745
 40
1.2083333333333581
 50
307.52351320333912
 51
232.47648680464988
  0
ARC
  8
_0-1_線色１__水色__
  6
CONTINUOUS
 62
    4
 10
1307.9157968070849
 20
777.54149586366168
 40
1.2083333333333581
 50
307.52351320333912
 51
232.47648680464988
  0
ARC
  8
_0-1_線色１__水色__
  6
CONTINUOUS
 62
    4
 10
1309.3877569515594
 20
775.6248291970627
 40
1.2083333333333179
 50
127.52351320610693
 51
52.47648680188081
  0
ARC
  8
_0-1_線色１__水色__
  6
CONTINUOUS
 62
    4
 10
1304.971876518402
 20
777.54149586345704
 40
1.2083333333333581
 50
307.52351320333912
 51
232.47648680464988
  0
ARC
  8
_0-1_線色１__水色__
  6
CONTINUOUS
 62
    4
 10
1306.4438366628765
 20
775.62482919685692
 40
1.2083333333333179
 50
127.52351320610693
 51
52.47648680188081
  0
ARC
  8
_0-1_線色１__水色__
  6
CONTINUOUS
 62
    4
 10
1302.0279562297169
 20
777.54149586325127
 40
1.2083333333333581
 50
307.52351320333912
 51
232.47648680464988
  0
ARC
  8
_0-1_線色１__水色__
  6
CONTINUOUS
 62
    4
 10
1300.5559960855107
 20
775.62482919644651
 40
1.2083333333333179
 50
127.52351320610693
 51
52.47648680188081
  0
ARC
  8
_0-1_線色１__水色__
  6
CONTINUOUS
 62
    4
 10
1303.4999163741936
 20
775.62482919665229
 40
1.2083333333333179
 50
127.52351320610693
 51
52.47648680188081
  0
ARC
  8
_0-1_線色１__水色__
  6
CONTINUOUS
 62
    4
 10
1299.084035941034
 20
777.54149586304663
 40
1.2083333333333581
 50
307.52351320333912
 51
232.47648680464988
  0
ARC
  8
_0-1_線色１__水色__
  6
CONTINUOUS
 62
    4
 10
1281.4205142089572
 20
777.54149586241226
 40
1.2083333333333581
 50
307.52351320333912
 51
232.47648680464988
  0
ARC
  8
_0-1_線色１__水色__
  6
CONTINUOUS
 62
    4
 10
1282.892474353434
 20
775.62482919581328
 40
1.2083333333333179
 50
127.52351320610693
 51
52.47648680188081
  0
ARC
  8
_0-1_線色１__水色__
  6
CONTINUOUS
 62
    4
 10
1278.4765939202744
 20
777.54149586220763
 40
1.2083333333333581
 50
307.52351320333912
 51
232.47648680464988
  0
ARC
  8
_0-1_線色１__水色__
  6
CONTINUOUS
 62
    4
 10
1279.9485540647488
 20
775.6248291956075
 40
1.2083333333333179
 50
127.52351320610693
 51
52.47648680188081
  0
ARC
  8
_0-1_線色１__水色__
  6
CONTINUOUS
 62
    4
 10
1275.5326736315915
 20
777.54149586200185
 40
1.2083333333333581
 50
307.52351320333912
 51
232.47648680464988
  0
ARC
  8
_0-1_線色１__水色__
  6
CONTINUOUS
 62
    4
 10
1277.0046337760659
 20
775.62482919540287
 40
1.2083333333333179
 50
127.52351320610693
 51
52.47648680188081
  0
ARC
  8
_0-1_線色１__水色__
  6
CONTINUOUS
 62
    4
 10
1274.0607134873831
 20
775.62482919519709
 40
1.2083333333333179
 50
127.52351320610693
 51
52.47648680188081
  0
ARC
  8
_0-1_線色１__水色__
  6
CONTINUOUS
 62
    4
 10
1285.8363946421168
 20
775.62482919540287
 40
1.2083333333333179
 50
127.52351320610693
 51
52.47648680188081
  0
ARC
  8
_0-1_線色１__水色__
  6
CONTINUOUS
 62
    4
 10
1284.3644344976401
 20
777.54149586200185
 40
1.2083333333333581
 50
307.52351320333912
 51
232.47648680464988
  0
ARC
  8
_0-1_線色１__水色__
  6
CONTINUOUS
 62
    4
 10
1296.1401156523739
 20
777.54149586282267
 40
1.2083333333333581
 50
307.52351320333912
 51
232.47648680464988
  0
ARC
  8
_0-1_線色１__水色__
  6
CONTINUOUS
 62
    4
 10
1293.196195363691
 20
777.54149586261804
 40
1.2083333333333581
 50
307.52351320333912
 51
232.47648680464988
  0
ARC
  8
_0-1_線色１__水色__
  6
CONTINUOUS
 62
    4
 10
1294.6681555081655
 20
775.62482919601791
 40
1.2083333333333179
 50
127.52351320610693
 51
52.47648680188081
  0
ARC
  8
_0-1_線色１__水色__
  6
CONTINUOUS
 62
    4
 10
1290.2522750750081
 20
777.54149586241226
 40
1.2083333333333581
 50
307.52351320333912
 51
232.47648680464988
  0
ARC
  8
_0-1_線色１__水色__
  6
CONTINUOUS
 62
    4
 10
1288.7803149307997
 20
775.6248291956075
 40
1.2083333333333179
 50
127.52351320610693
 51
52.47648680188081
  0
ARC
  8
_0-1_線色１__水色__
  6
CONTINUOUS
 62
    4
 10
1291.7242352194826
 20
775.62482919581328
 40
1.2083333333333179
 50
127.52351320610693
 51
52.47648680188081
  0
ARC
  8
_0-1_線色１__水色__
  6
CONTINUOUS
 62
    4
 10
1287.308354786323
 20
777.54149586220763
 40
1.2083333333333581
 50
307.52351320333912
 51
232.47648680464988
  0
ARC
  8
_0-1_線色１__水色__
  6
CONTINUOUS
 62
    4
 10
1297.6120757968483
 20
775.62482919622369
 40
1.2083333333333179
 50
127.52351320610693
 51
52.47648680188081
  0
ARC
  8
_0-1_線色１__水色__
  6
CONTINUOUS
 62
    4
 10
1272.5887533428836
 20
777.54149586552614
 40
1.2083333333333581
 50
307.52351320333912
 51
232.47648680464988
  0
ARC
  8
_0-1_線色１__水色__
  6
CONTINUOUS
 62
    4
 10
1269.6448330542016
 20
777.54149586532037
 40
1.2083333333333581
 50
307.52351320333912
 51
232.47648680464988
  0
ARC
  8
_0-1_線色１__水色__
  6
CONTINUOUS
 62
    4
 10
1271.1167931986761
 20
775.62482919872139
 40
1.2083333333333179
 50
127.52351320610693
 51
52.47648680188081
  0
ARC
  8
_0-1_線色１__水色__
  6
CONTINUOUS
 62
    4
 10
1266.7009127655188
 20
777.54149586511573
 40
1.2083333333333581
 50
307.52351320333912
 51
232.47648680464988
  0
ARC
  8
_0-1_線色１__水色__
  6
CONTINUOUS
 62
    4
 10
1268.1728729099932
 20
775.62482919851561
 40
1.2083333333333179
 50
127.52351320610693
 51
52.47648680188081
  0
ARC
  8
_0-1_線色１__水色__
  6
CONTINUOUS
 62
    4
 10
1263.7569924768336
 20
777.54149586490996
 40
1.2083333333333581
 50
307.52351320333912
 51
232.47648680464988
  0
ARC
  8
_0-1_線色１__水色__
  6
CONTINUOUS
 62
    4
 10
1262.2850323326275
 20
775.6248291981052
 40
1.2083333333333179
 50
127.52351320610693
 51
52.47648680188081
  0
ARC
  8
_0-1_線色１__水色__
  6
CONTINUOUS
 62
    4
 10
1265.2289526213103
 20
775.62482919831098
 40
1.2083333333333179
 50
127.52351320610693
 51
52.47648680188081
  0
ARC
  8
_0-1_線色１__水色__
  6
CONTINUOUS
 62
    4
 10
1260.8130721881507
 20
777.54149586470533
 40
1.2083333333333581
 50
307.52351320333912
 51
232.47648680464988
  0
ARC
  8
_0-1_線色１__水色__
  6
CONTINUOUS
 62
    4
 10
1257.8691518994906
 20
777.54149586448136
 40
1.2083333333333581
 50
307.52351320333912
 51
232.47648680464988
  0
ARC
  8
_0-1_線色１__水色__
  6
CONTINUOUS
 62
    4
 10
1254.9252316108077
 20
777.54149586427673
 40
1.2083333333333581
 50
307.52351320333912
 51
232.47648680464988
  0
ARC
  8
_0-1_線色１__水色__
  6
CONTINUOUS
 62
    4
 10
1256.3971917552822
 20
775.6248291976766
 40
1.2083333333333179
 50
127.52351320610693
 51
52.47648680188081
  0
ARC
  8
_0-1_線色１__水色__
  6
CONTINUOUS
 62
    4
 10
1259.341112043965
 20
775.62482919788238
 40
1.2083333333333179
 50
127.52351320610693
 51
52.47648680188081
  0
ARC
  8
_0-1_線色１__水色__
  6
CONTINUOUS
 62
    4
 10
1251.9813113221248
 20
777.54149586407095
 40
1.2083333333333581
 50
307.52351320333918
 51
69.092359369636583
  0
ARC
  8
_0-1_線色１__水色__
  6
CONTINUOUS
 62
    4
 10
1253.4532714665993
 20
775.62482919747197
 40
1.2083333333333179
 50
127.52351320610693
 51
149.46414004239466
  0
ARC
  8
_0-1_線色１__水色__
  6
CONTINUOUS
 62
    4
 10
1253.4532714665993
 20
775.62482919747197
 40
1.2083333333333179
 50
210.53585995760537
 51
52.47648680188081
  0
ARC
  8
_0-4_線色４__黄__
  6
CONTINUOUS
 62
    2
 10
1247.6962408104891
 20
784.53431129948683
 40
3.0000000000000004
 50
90
 51
185.00000000008285
  0
LINE
  8
_0-2_線色２__白__
  6
CONTINUOUS
 62
    7
 10
1292.4125202683631
 20
740.28316251256058
 11
1292.4125202683631
 21
774.08316251256053
  0
LINE
  8
_0-5_金属
  6
CONTINUOUS
 62
    7
 10
1293.6125202683634
 20
739.08316251256053
 11
1293.6125202683634
 21
689.08316251256053
  0
LINE
  8
_0-5_金属
  6
DASHED1
 62
    7
 10
1293.6125202683634
 20
702.0831625148918
 11
1497.8818876519745
 21
702.0831625148918
  0
LINE
  8
_0-2_線色２__白__
  6
CONTINUOUS
 62
    7
 10
1252.4125202683631
 20
779.08316251256053
 11
1497.8818876519745
 21
779.08316251256053
  0
LINE
  8
_0-2_線色２__白__
  6
CONTINUOUS
 62
    7
 10
1257.4125202683631
 20
774.08316251256053
 11
1497.8818876519745
 21
774.08316251256053
  0
LINE
  8
_0-2_線色２__白__
  6
CONTINUOUS
 62
    7
 10
1257.4125202683631
 20
774.08316251256053
 11
1257.4125202683631
 21
640.28316251256058
  0
LINE
  8
_0-2_線色２__白__
  6
CONTINUOUS
 62
    7
 10
1251.2079364633432
 20
767.34287280760384
 11
1252.4125202683631
 21
753.57441691339261
  0
LINE
  8
_0-4_線色４__黄__
  6
CONTINUOUS
 62
    2
 10
1244.7076567162135
 20
784.27284407123977
 11
1247.4125202683631
 21
753.3561121988572
  0
LINE
  8
_0-2_線色２__白__
  6
CONTINUOUS
 62
    7
 10
1194.1131288303068
 20
679.94755317433544
 11
1193.0981158774916
 21
679.08291251082517
  0
LINE
  8
_0-4_線色４__黄__
  6
CONTINUOUS
 62
    2
 10
1193.4675967569519
 20
692.53406129775101
 11
1189.4162481809958
 21
689.08291251082517
  0
LINE
  8
_0-4_線色４__黄__
  6
CONTINUOUS
 62
    2
 10
1240.7532068737391
 20
692.53406129775101
 11
1193.4675967569519
 21
692.53406129775101
  0
LINE
  8
_0-4_線色４__黄__
  6
CONTINUOUS
 62
    2
 10
1243.7076301327756
 20
695.01311676474927
 11
1244.0806233694293
 21
697.12846652662108
  0
ARC
  8
_0-4_線色４__黄__
  6
CONTINUOUS
 62
    2
 10
1240.7532068737391
 20
695.53406129775169
 40
3.0000000000000004
 50
270
 51
349.99999999998295
  0
ARC
  8
_0-2_線色２__白__
  6
CONTINUOUS
 62
    7
 10
1240.7532068737391
 20
695.53406129775169
 40
8
 50
270
 51
349.99999999998295
  0
LINE
  8
_0-2_線色２__白__
  6
CONTINUOUS
 62
    7
 10
1189.4162481809958
 20
689.08291251082517
 11
1189.3980293934719
 21
689.21381745750693
  0
LINE
  8
_0-2_線色２__白__
  6
CONTINUOUS
 62
    7
 10
1189.3980293934719
 20
689.21381745750693
 11
1189.3649626138113
 21
689.43889139252576
  0
LINE
  8
_0-2_線色２__白__
  6
CONTINUOUS
 62
    7
 10
1189.3649626138113
 20
689.43889139252576
 11
1189.327298397945
 21
689.66223130278365
  0
LINE
  8
_0-2_線色２__白__
  6
CONTINUOUS
 62
    7
 10
1189.327298397945
 20
689.66223130278365
 11
1189.2821269761221
 21
689.88273970425496
  0
LINE
  8
_0-2_線色２__白__
  6
CONTINUOUS
 62
    7
 10
1189.2821269761221
 20
689.88273970425496
 11
1189.2265385785909
 21
690.09931911291289
  0
LINE
  8
_0-2_線色２__白__
  6
CONTINUOUS
 62
    7
 10
1189.2265385785909
 20
690.09931911291289
 11
1189.1576234356016
 21
690.31087204473181
  0
LINE
  8
_0-2_線色２__白__
  6
CONTINUOUS
 62
    7
 10
1189.1576234356016
 20
690.31087204473181
 11
1189.1103997373098
 21
690.43083714772422
  0
LINE
  8
_0-2_線色２__白__
  6
CONTINUOUS
 62
    7
 10
1189.1103997373098
 20
690.43083714772422
 11
1189.0694586760465
 21
690.52295398731474
  0
LINE
  8
_0-2_線色２__白__
  6
CONTINUOUS
 62
    7
 10
1189.0694586760465
 20
690.52295398731474
 11
1188.9910435033648
 21
690.67866829032766
  0
LINE
  8
_0-2_線色２__白__
  6
CONTINUOUS
 62
    7
 10
1188.9910435033648
 20
690.67866829032766
 11
1188.9039364890373
 21
690.83067189320843
  0
LINE
  8
_0-2_線色２__白__
  6
CONTINUOUS
 62
    7
 10
1188.9039364890373
 20
690.83067189320843
 11
1188.809551499889
 21
690.97922440900845
  0
LINE
  8
_0-2_線色２__白__
  6
CONTINUOUS
 62
    7
 10
1188.809551499889
 20
690.97922440900845
 11
1188.7093024027449
 21
691.12458545078027
  0
LINE
  8
_0-2_線色２__白__
  6
CONTINUOUS
 62
    7
 10
1188.7093024027449
 20
691.12458545078027
 11
1188.6046030644279
 21
691.26701463157644
  0
LINE
  8
_0-2_線色２__白__
  6
CONTINUOUS
 62
    7
 10
1188.6046030644279
 20
691.26701463157644
 11
1188.5423954847492
 21
691.34838247878122
  0
LINE
  8
_0-2_線色２__白__
  6
CONTINUOUS
 62
    7
 10
1188.5423954847492
 20
691.34838247878122
 11
1188.4681792108136
 21
691.44306607158398
  0
LINE
  8
_0-2_線色２__白__
  6
CONTINUOUS
 62
    7
 10
1188.4681792108136
 20
691.44306607158398
 11
1188.3379542707094
 21
691.60378486544516
  0
LINE
  8
_0-2_線色２__白__
  6
CONTINUOUS
 62
    7
 10
1188.3379542707094
 20
691.60378486544516
 11
1188.205102451489
 21
691.76165162783661
  0
LINE
  8
_0-2_線色２__白__
  6
CONTINUOUS
 62
    7
 10
1188.205102451489
 20
691.76165162783661
 11
1188.0699043133604
 21
691.91707212130211
  0
LINE
  8
_0-2_線色２__白__
  6
CONTINUOUS
 62
    7
 10
1188.0699043133604
 20
691.91707212130211
 11
1187.9326404165381
 21
692.07045210838999
  0
LINE
  8
_0-2_線色２__白__
  6
CONTINUOUS
 62
    7
 10
1187.9326404165381
 20
692.07045210838999
 11
1187.7935913212291
 21
692.22219735164515
  0
LINE
  8
_0-2_線色２__白__
  6
CONTINUOUS
 62
    7
 10
1187.7935913212291
 20
692.22219735164515
 11
1187.7122354233161
 21
692.30962044465116
  0
LINE
  8
_0-2_線色２__白__
  6
CONTINUOUS
 62
    7
 10
1187.7122354233161
 20
692.30962044465116
 11
1187.6266003499022
 21
692.4006906190499
  0
LINE
  8
_0-2_線色２__白__
  6
CONTINUOUS
 62
    7
 10
1187.6266003499022
 20
692.4006906190499
 11
1187.4774029915948
 21
692.5563923678834
  0
LINE
  8
_0-2_線色２__白__
  6
CONTINUOUS
 62
    7
 10
1187.4774029915948
 20
692.5563923678834
 11
1187.3256527780241
 21
692.70973834628251
  0
LINE
  8
_0-2_線色２__白__
  6
CONTINUOUS
 62
    7
 10
1187.3256527780241
 20
692.70973834628251
 11
1187.1706636985214
 21
692.85992598520295
  0
LINE
  8
_0-2_線色２__白__
  6
CONTINUOUS
 62
    7
 10
1187.1706636985214
 20
692.85992598520295
 11
1187.0117497424148
 21
693.00615271560048
  0
LINE
  8
_0-2_線色２__白__
  6
CONTINUOUS
 62
    7
 10
1187.0117497424148
 20
693.00615271560048
 11
1186.8482248990331
 21
693.14761596842857
  0
LINE
  8
_0-2_線色２__白__
  6
CONTINUOUS
 62
    7
 10
1186.8482248990331
 20
693.14761596842857
 11
1186.7509974574473
 21
693.2271657757093
  0
LINE
  8
_0-2_線色２__白__
  6
CONTINUOUS
 62
    7
 10
1186.7509974574473
 20
693.2271657757093
 11
1186.6633437579044
 21
693.29589112820543
  0
LINE
  8
_0-2_線色２__白__
  6
CONTINUOUS
 62
    7
 10
1186.6633437579044
 20
693.29589112820543
 11
1186.508730657984
 21
693.41010389600513
  0
LINE
  8
_0-2_線色２__白__
  6
CONTINUOUS
 62
    7
 10
1186.508730657984
 20
693.41010389600513
 11
1186.3497655147939
 21
693.51807658493669
  0
LINE
  8
_0-2_線色２__白__
  6
CONTINUOUS
 62
    7
 10
1186.3497655147939
 20
693.51807658493669
 11
1186.1865188575684
 21
693.61885181636296
  0
LINE
  8
_0-2_線色２__白__
  6
CONTINUOUS
 62
    7
 10
1186.1865188575684
 20
693.61885181636296
 11
1186.0190612155366
 21
693.71147221164904
  0
LINE
  8
_0-2_線色２__白__
  6
CONTINUOUS
 62
    7
 10
1186.0190612155366
 20
693.71147221164904
 11
1185.8474631179338
 21
693.79498039216003
  0
LINE
  8
_0-2_線色２__白__
  6
CONTINUOUS
 62
    7
 10
1185.8474631179338
 20
693.79498039216003
 11
1185.7460668567642
 21
693.83886266308139
  0
LINE
  8
_0-2_線色２__白__
  6
CONTINUOUS
 62
    7
 10
1185.7460668567642
 20
693.83886266308139
 11
1185.6321613640257
 21
693.88339137634432
  0
LINE
  8
_0-2_線色２__白__
  6
CONTINUOUS
 62
    7
 10
1185.6321613640257
 20
693.88339137634432
 11
1185.4322729061705
 21
693.950702004758
  0
LINE
  8
_0-2_線色２__白__
  6
CONTINUOUS
 62
    7
 10
1185.4322729061705
 20
693.950702004758
 11
1185.2285708073118
 21
694.00730555625671
  0
LINE
  8
_0-2_線色２__白__
  6
CONTINUOUS
 62
    7
 10
1185.2285708073118
 20
694.00730555625671
 11
1185.0217717305036
 21
694.05468042998734
  0
LINE
  8
_0-2_線色２__白__
  6
CONTINUOUS
 62
    7
 10
1185.0217717305036
 20
694.05468042998734
 11
1184.8125923387947
 21
694.09430502509679
  0
LINE
  8
_0-2_線色２__白__
  6
CONTINUOUS
 62
    7
 10
1184.8125923387947
 20
694.09430502509679
 11
1184.6017492952383
 21
694.12765774073193
  0
LINE
  8
_0-2_線色２__白__
  6
CONTINUOUS
 62
    7
 10
1184.6017492952383
 20
694.12765774073193
 11
1184.4789804472084
 21
694.14471110676629
  0
LINE
  8
_0-2_線色２__白__
  6
CONTINUOUS
 62
    7
 10
1184.4789804472084
 20
694.14471110676629
 11
1184.330523477126
 21
694.16342810603339
  0
LINE
  8
_0-2_線色２__白__
  6
CONTINUOUS
 62
    7
 10
1184.330523477126
 20
694.16342810603339
 11
1184.0742032118414
 21
694.19033486712294
  0
LINE
  8
_0-2_線色２__白__
  6
CONTINUOUS
 62
    7
 10
1184.0742032118414
 20
694.19033486712294
 11
1183.8178078832602
 21
694.20919311442219
  0
LINE
  8
_0-2_線色２__白__
  6
CONTINUOUS
 62
    7
 10
1183.8178078832602
 20
694.20919311442219
 11
1183.5617800466293
 21
694.21853920560864
  0
LINE
  8
_0-2_線色２__白__
  6
CONTINUOUS
 62
    7
 10
1183.5617800466293
 20
694.21853920560864
 11
1183.3065622571944
 21
694.21690949836204
  0
LINE
  8
_0-2_線色２__白__
  6
CONTINUOUS
 62
    7
 10
1183.3065622571944
 20
694.21690949836204
 11
1183.0525970702029
 21
694.20284035035877
  0
LINE
  8
_0-2_線色２__白__
  6
CONTINUOUS
 62
    7
 10
1183.0525970702029
 20
694.20284035035877
 11
1182.9060455939675
 21
694.18840374157924
  0
LINE
  8
_0-2_線色２__白__
  6
CONTINUOUS
 62
    7
 10
1182.9060455939675
 20
694.18840374157924
 11
1182.7987014024002
 21
694.17471395549398
  0
LINE
  8
_0-2_線色２__白__
  6
CONTINUOUS
 62
    7
 10
1182.7987014024002
 20
694.17471395549398
 11
1182.6142513416307
 21
694.14575432425238
  0
LINE
  8
_0-2_線色２__白__
  6
CONTINUOUS
 62
    7
 10
1182.6142513416307
 20
694.14575432425238
 11
1182.4302804841905
 21
694.11143884271439
  0
LINE
  8
_0-2_線色２__白__
  6
CONTINUOUS
 62
    7
 10
1182.4302804841905
 20
694.11143884271439
 11
1182.2464244483326
 21
694.073424016687
  0
LINE
  8
_0-2_線色２__白__
  6
CONTINUOUS
 62
    7
 10
1182.2464244483326
 20
694.073424016687
 11
1182.0623188523127
 21
694.03336635198059
  0
LINE
  8
_0-2_線色２__白__
  6
CONTINUOUS
 62
    7
 10
1182.0623188523127
 20
694.03336635198059
 11
1181.877599314384
 21
693.99292235440441
  0
LINE
  8
_0-2_線色２__白__
  6
CONTINUOUS
 62
    7
 10
1181.877599314384
 20
693.99292235440441
 11
1181.7700370888479
 21
693.96994056751794
  0
LINE
  8
_0-2_線色２__白__
  6
CONTINUOUS
 62
    7
 10
1181.7700370888479
 20
693.96994056751794
 11
1181.6479258575196
 21
693.94466684601923
  0
LINE
  8
_0-2_線色２__白__
  6
CONTINUOUS
 62
    7
 10
1181.6479258575196
 20
693.94466684601923
 11
1181.4371278339563
 21
693.90131732978432
  0
LINE
  8
_0-2_線色２__白__
  6
CONTINUOUS
 62
    7
 10
1181.4371278339563
 20
693.90131732978432
 11
1181.2274226101185
 21
693.8551841716361
  0
LINE
  8
_0-2_線色２__白__
  6
CONTINUOUS
 62
    7
 10
1181.2274226101185
 20
693.8551841716361
 11
1181.0204656608512
 21
693.80269812993276
  0
LINE
  8
_0-2_線色２__白__
  6
CONTINUOUS
 62
    7
 10
1181.0204656608512
 20
693.80269812993276
 11
1180.817912460996
 21
693.74028996303366
  0
LINE
  8
_0-2_線色２__白__
  6
CONTINUOUS
 62
    7
 10
1180.817912460996
 20
693.74028996303366
 11
1180.6214184853975
 21
693.66439042929926
  0
LINE
  8
_0-2_線色２__白__
  6
CONTINUOUS
 62
    7
 10
1180.6214184853975
 20
693.66439042929926
 11
1180.5108806592757
 21
693.61278048864335
  0
LINE
  8
_0-2_線色２__白__
  6
CONTINUOUS
 62
    7
 10
1180.5108806592757
 20
693.61278048864335
 11
1180.4115584280971
 21
693.5596950167195
  0
LINE
  8
_0-2_線色２__白__
  6
CONTINUOUS
 62
    7
 10
1180.4115584280971
 20
693.5596950167195
 11
1180.2461345129059
 21
693.4564087356199
  0
LINE
  8
_0-2_線色２__白__
  6
CONTINUOUS
 62
    7
 10
1180.2461345129059
 20
693.4564087356199
 11
1180.0880829415469
 21
693.3398591038889
  0
LINE
  8
_0-2_線色２__白__
  6
CONTINUOUS
 62
    7
 10
1180.0880829415469
 20
693.3398591038889
 11
1179.9374078951296
 21
693.21193243057394
  0
LINE
  8
_0-2_線色２__白__
  6
CONTINUOUS
 62
    7
 10
1179.9374078951296
 20
693.21193243057394
 11
1179.7941135547644
 21
693.07451502472702
  0
LINE
  8
_0-2_線色２__白__
  6
CONTINUOUS
 62
    7
 10
1179.7941135547644
 20
693.07451502472702
 11
1179.6582041015604
 21
692.92949319539787
  0
LINE
  8
_0-2_線色２__白__
  6
CONTINUOUS
 62
    7
 10
1179.6582041015604
 20
692.92949319539787
 11
1179.5827620215737
 21
692.84263949139984
  0
LINE
  8
_0-2_線色２__白__
  6
CONTINUOUS
 62
    7
 10
1179.5827620215737
 20
692.84263949139984
 11
1179.4984669972023
 21
692.74007210340926
  0
LINE
  8
_0-2_線色２__白__
  6
CONTINUOUS
 62
    7
 10
1179.4984669972023
 20
692.74007210340926
 11
1179.3602951379348
 21
692.55878709367323
  0
LINE
  8
_0-2_線色２__白__
  6
CONTINUOUS
 62
    7
 10
1179.3602951379348
 20
692.55878709367323
 11
1179.2301848709149
 21
692.372562419053
  0
LINE
  8
_0-2_線色２__白__
  6
CONTINUOUS
 62
    7
 10
1179.2301848709149
 20
692.372562419053
 11
1179.1069649689284
 21
692.18219635796288
  0
LINE
  8
_0-2_線色２__白__
  6
CONTINUOUS
 62
    7
 10
1179.1069649689284
 20
692.18219635796288
 11
1178.9894642047598
 21
691.98848718881948
  0
LINE
  8
_0-2_線色２__白__
  6
CONTINUOUS
 62
    7
 10
1178.9894642047598
 20
691.98848718881948
 11
1178.8765113511904
 21
691.79223319003711
  0
LINE
  8
_0-2_線色２__白__
  6
CONTINUOUS
 62
    7
 10
1178.8765113511904
 20
691.79223319003711
 11
1178.8126210243304
 21
691.67755439300834
  0
LINE
  8
_0-2_線色２__白__
  6
CONTINUOUS
 62
    7
 10
1178.8126210243304
 20
691.67755439300834
 11
1178.7453536568246
 21
691.5544878008717
  0
LINE
  8
_0-2_線色２__白__
  6
CONTINUOUS
 62
    7
 10
1178.7453536568246
 20
691.5544878008717
 11
1178.6313724156166
 21
691.34128104450326
  0
LINE
  8
_0-2_線色２__白__
  6
CONTINUOUS
 62
    7
 10
1178.6313724156166
 20
691.34128104450326
 11
1178.5192578672531
 21
691.12698404496712
  0
LINE
  8
_0-2_線色２__白__
  6
CONTINUOUS
 62
    7
 10
1178.5192578672531
 20
691.12698404496712
 11
1178.4082412580046
 21
690.91183478389269
  0
LINE
  8
_0-2_線色２__白__
  6
CONTINUOUS
 62
    7
 10
1178.4082412580046
 20
690.91183478389269
 11
1178.297553834147
 21
690.69607124291167
  0
LINE
  8
_0-2_線色２__白__
  6
CONTINUOUS
 62
    7
 10
1178.297553834147
 20
690.69607124291167
 11
1178.186426841949
 21
690.47993140365577
  0
LINE
  8
_0-2_線色２__白__
  6
CONTINUOUS
 62
    7
 10
1178.186426841949
 20
690.47993140365577
 11
1178.1214688473183
 21
690.35449165415514
  0
LINE
  8
_0-2_線色２__白__
  6
CONTINUOUS
 62
    7
 10
1178.1214688473183
 20
690.35449165415514
 11
1178.0330553931431
 21
690.18566347114927
  0
LINE
  8
_0-2_線色２__白__
  6
CONTINUOUS
 62
    7
 10
1178.0330553931431
 20
690.18566347114927
 11
1177.8765505772135
 21
689.89626770526172
  0
LINE
  8
_0-2_線色２__白__
  6
CONTINUOUS
 62
    7
 10
1177.8765505772135
 20
689.89626770526172
 11
1177.7123289839851
 21
689.61155952901038
  0
LINE
  8
_0-2_線色２__白__
  6
CONTINUOUS
 62
    7
 10
1177.7123289839851
 20
689.61155952901038
 11
1177.5374049966008
 21
689.33450610099214
  0
LINE
  8
_0-2_線色２__白__
  6
CONTINUOUS
 62
    7
 10
1177.5374049966008
 20
689.33450610099214
 11
1177.3487929981998
 21
689.06807457980619
  0
LINE
  8
_0-2_線色２__白__
  6
CONTINUOUS
 62
    7
 10
1177.3487929981998
 20
689.06807457980619
 11
1177.1435073719244
 21
688.81523212404829
  0
LINE
  8
_0-2_線色２__白__
  6
CONTINUOUS
 62
    7
 10
1177.1435073719244
 20
688.81523212404829
 11
1177.0156253640989
 21
688.67597922426796
  0
LINE
  8
_0-2_線色２__白__
  6
CONTINUOUS
 62
    7
 10
1177.0156253640989
 20
688.67597922426796
 11
1176.969410191793
 21
688.62887421835751
  0
LINE
  8
_0-2_線色２__白__
  6
CONTINUOUS
 62
    7
 10
1176.969410191793
 20
688.62887421835751
 11
1176.887710930253
 21
688.5495291233218
  0
LINE
  8
_0-2_線色２__白__
  6
CONTINUOUS
 62
    7
 10
1176.887710930253
 20
688.5495291233218
 11
1176.8035085379229
 21
688.47272901388067
  0
LINE
  8
_0-2_線色２__白__
  6
CONTINUOUS
 62
    7
 10
1176.8035085379229
 20
688.47272901388067
 11
1176.7168625624272
 21
688.39868011055444
  0
LINE
  8
_0-2_線色２__白__
  6
CONTINUOUS
 62
    7
 10
1176.7168625624272
 20
688.39868011055444
 11
1176.6278325513913
 21
688.32758863386459
  0
LINE
  8
_0-2_線色２__白__
  6
CONTINUOUS
 62
    7
 10
1176.6278325513913
 20
688.32758863386459
 11
1176.5364780524401
 21
688.25966080433489
  0
LINE
  8
_0-2_線色２__白__
  6
CONTINUOUS
 62
    7
 10
1176.5364780524401
 20
688.25966080433489
 11
1176.4824508275451
 21
688.22179350794443
  0
LINE
  8
_0-2_線色２__白__
  6
CONTINUOUS
 62
    7
 10
1176.4824508275451
 20
688.22179350794443
 11
1176.3928494164584
 21
688.16250081756664
  0
LINE
  8
_0-2_線色２__白__
  6
CONTINUOUS
 62
    7
 10
1176.3928494164584
 20
688.16250081756664
 11
1176.2346579722866
 21
688.06608755337209
  0
LINE
  8
_0-2_線色２__白__
  6
CONTINUOUS
 62
    7
 10
1176.2346579722866
 20
688.06608755337209
 11
1176.0732466852546
 21
687.97475914430095
  0
LINE
  8
_0-2_線色２__白__
  6
CONTINUOUS
 62
    7
 10
1176.0732466852546
 20
687.97475914430095
 11
1175.9103267369615
 21
687.88586843585051
  0
LINE
  8
_0-2_線色２__白__
  6
CONTINUOUS
 62
    7
 10
1175.9103267369615
 20
687.88586843585051
 11
1175.7476093090081
 21
687.79676827351466
  0
LINE
  8
_0-2_線色２__白__
  6
CONTINUOUS
 62
    7
 10
1175.7476093090081
 20
687.79676827351466
 11
1175.586805582996
 21
687.7048115027884
  0
LINE
  8
_0-2_線色２__白__
  6
CONTINUOUS
 62
    7
 10
1175.586805582996
 20
687.7048115027884
 11
1175.49509057467
 21
687.64912456127774
  0
LINE
  8
_0-2_線色２__白__
  6
CONTINUOUS
 62
    7
 10
1175.49509057467
 20
687.64912456127774
 11
1175.4026795822715
 21
687.5897597914053
  0
LINE
  8
_0-2_線色２__白__
  6
CONTINUOUS
 62
    7
 10
1175.4026795822715
 20
687.5897597914053
 11
1175.2467365801176
 21
687.48225802963759
  0
LINE
  8
_0-2_線色２__白__
  6
CONTINUOUS
 62
    7
 10
1175.2467365801176
 20
687.48225802963759
 11
1175.0944140378961
 21
687.36927483966895
  0
LINE
  8
_0-2_線色２__白__
  6
CONTINUOUS
 62
    7
 10
1175.0944140378961
 20
687.36927483966895
 11
1174.9449375491618
 21
687.25201478727342
  0
LINE
  8
_0-2_線色２__白__
  6
CONTINUOUS
 62
    7
 10
1174.9449375491618
 20
687.25201478727342
 11
1174.7975327074682
 21
687.13168243822508
  0
LINE
  8
_0-2_線色２__白__
  6
CONTINUOUS
 62
    7
 10
1174.7975327074682
 20
687.13168243822508
 11
1174.6514251063713
 21
687.00948235830026
  0
LINE
  8
_0-2_線色２__白__
  6
CONTINUOUS
 62
    7
 10
1174.6514251063713
 20
687.00948235830026
 11
1174.566971936968
 21
686.93822517920751
  0
LINE
  8
_0-2_線色２__白__
  6
CONTINUOUS
 62
    7
 10
1174.566971936968
 20
686.93822517920751
 11
1174.46113007335
 21
686.84874459530704
  0
LINE
  8
_0-2_線色２__白__
  6
CONTINUOUS
 62
    7
 10
1174.46113007335
 20
686.84874459530704
 11
1174.2795572950395
 21
686.69366154151191
  0
LINE
  8
_0-2_線色２__白__
  6
CONTINUOUS
 62
    7
 10
1174.2795572950395
 20
686.69366154151191
 11
1174.1003826424158
 21
686.53627237327044
  0
LINE
  8
_0-2_線色２__白__
  6
CONTINUOUS
 62
    7
 10
1174.1003826424158
 20
686.53627237327044
 11
1173.9250505161904
 21
686.37508217534389
  0
LINE
  8
_0-2_線色２__白__
  6
CONTINUOUS
 62
    7
 10
1173.9250505161904
 20
686.37508217534389
 11
1173.7550053170803
 21
686.20859603249471
  0
LINE
  8
_0-2_線色２__白__
  6
CONTINUOUS
 62
    7
 10
1173.7550053170803
 20
686.20859603249471
 11
1173.5916914458021
 21
686.03531902948532
  0
LINE
  8
_0-2_線色２__白__
  6
CONTINUOUS
 62
    7
 10
1173.5916914458021
 20
686.03531902948532
 11
1173.5006228638626
 21
685.93111772127429
  0
LINE
  8
_0-2_線色２__白__
  6
CONTINUOUS
 62
    7
 10
1173.5006228638626
 20
685.93111772127429
 11
1173.4489635912264
 21
685.86903044575195
  0
LINE
  8
_0-2_線色２__白__
  6
CONTINUOUS
 62
    7
 10
1173.4489635912264
 20
685.86903044575195
 11
1173.3626384809209
 21
685.75955770591406
  0
LINE
  8
_0-2_線色２__白__
  6
CONTINUOUS
 62
    7
 10
1173.3626384809209
 20
685.75955770591406
 11
1173.2802786087877
 21
685.64705644815433
  0
LINE
  8
_0-2_線色２__白__
  6
CONTINUOUS
 62
    7
 10
1173.2802786087877
 20
685.64705644815433
 11
1173.2024579180434
 21
685.53157551544302
  0
LINE
  8
_0-2_線色２__白__
  6
CONTINUOUS
 62
    7
 10
1173.2024579180434
 20
685.53157551544302
 11
1173.1297503518995
 21
685.41316375075041
  0
LINE
  8
_0-2_線色２__白__
  6
CONTINUOUS
 62
    7
 10
1173.1297503518995
 20
685.41316375075041
 11
1173.0627298535701
 21
685.29186999704677
  0
LINE
  8
_0-2_線色２__白__
  6
CONTINUOUS
 62
    7
 10
1173.0627298535701
 20
685.29186999704677
 11
1173.0266899424823
 21
685.22021833920519
  0
LINE
  8
_0-2_線色２__白__
  6
CONTINUOUS
 62
    7
 10
1173.0266899424823
 20
685.22021833920519
 11
1172.9800380891247
 21
685.11874244815488
  0
LINE
  8
_0-2_線色２__白__
  6
CONTINUOUS
 62
    7
 10
1172.9800380891247
 20
685.11874244815488
 11
1172.9085513307741
 21
684.93997806910386
  0
LINE
  8
_0-2_線色２__白__
  6
CONTINUOUS
 62
    7
 10
1172.9085513307741
 20
684.93997806910386
 11
1172.8465999921509
 21
684.75715765095572
  0
LINE
  8
_0-2_線色２__白__
  6
CONTINUOUS
 62
    7
 10
1172.8465999921509
 20
684.75715765095572
 11
1172.7921021038828
 21
684.57116679176522
  0
LINE
  8
_0-2_線色２__白__
  6
CONTINUOUS
 62
    7
 10
1172.7921021038828
 20
684.57116679176522
 11
1172.7429756965948
 21
684.38289108959054
  0
LINE
  8
_0-2_線色２__白__
  6
CONTINUOUS
 62
    7
 10
1172.7429756965948
 20
684.38289108959054
 11
1172.6971388009174
 21
684.19321614248645
  0
LINE
  8
_0-2_線色２__白__
  6
CONTINUOUS
 62
    7
 10
1172.6971388009174
 20
684.19321614248645
 11
1172.6712402514472
 21
684.08291251082517
  0
LINE
  8
_0-4_線色４__黄__
  6
CONTINUOUS
 62
    2
 10
1183.4191161140625
 20
689.08291251082517
 11
1189.4162481809958
 21
689.08291251082517
  0
LINE
  8
_0-2_線色２__白__
  6
CONTINUOUS
 62
    7
 10
1183.4191161140625
 20
684.08291251082517
 11
1191.2571820292437
 21
684.08291251082517
  0
LINE
  8
_0-2_線色２__白__
  6
CONTINUOUS
 62
    7
 10
1195.3085306051998
 20
687.53406129775101
 11
1191.2571820292437
 21
684.08291251082517
  0
LINE
  8
_0-2_線色２__白__
  6
CONTINUOUS
 62
    7
 10
1240.7532068737391
 20
687.53406129775101
 11
1195.3085306051998
 21
687.53406129775101
  0
LINE
  8
_0-2_線色２__白__
  6
CONTINUOUS
 62
    7
 10
1239.0324723390181
 20
687.53406129775101
 11
1239.0324723390181
 21
682.53406129775101
  0
LINE
  8
_0-2_線色２__白__
  6
CONTINUOUS
 62
    7
 10
1251.524592180288
 20
700.34126865054702
 11
1252.4125202683631
 21
701.31798954742806
  0
LINE
  8
_0-4_線色４__黄__
  6
CONTINUOUS
 62
    2
 10
1247.4125202683631
 20
753.3561121988572
 11
1247.4125202683631
 21
703.25102392108931
  0
LINE
  8
_0-4_線色４__黄__
  6
CONTINUOUS
 62
    2
 10
1246.7007075413248
 20
702.46802992134747
 11
1247.4125202683631
 21
703.25102392108931
  0
ARC
  8
_0-4_線色４__黄__
  6
CONTINUOUS
 62
    2
 10
1254.6180663266573
 20
695.27043102558366
 40
10.700000000000003
 50
137.72631099387618
 51
169.9999999999998
  0
LINE
  8
_0-2_線色２__白__
  6
CONTINUOUS
 62
    7
 10
1252.4125202683631
 20
779.08316251256053
 11
1252.4125202683631
 21
679.08291251082517
  0
LINE
  8
_0-4_線色４__黄__
  6
CONTINUOUS
 62
    2
 10
1183.4191161140625
 20
689.08291251082517
 11
1183.4191161140625
 21
684.08291251082517
  0
LINE
  8
_0-2_線色２__白__
  6
CONTINUOUS
 62
    7
 10
1053.0851153683575
 20
679.08291251082517
 11
1252.4125202683631
 21
679.08291251082517
  0
LINE
  8
_0-4_線色４__黄__
  6
CONTINUOUS
 62
    2
 10
1053.0851153683575
 20
684.08291251082517
 11
1183.4191161140625
 21
684.08291251082517
  0
LINE
  8
_0-2_線色２__白__
  6
CONTINUOUS
 62
    7
 10
1053.0851153683575
 20
674.08291251082517
 11
1257.4125202683631
 21
674.08291251082517
  0
LINE
  8
_0-2_線色２__白__
  6
CONTINUOUS
 62
    7
 10
1053.0851153683575
 20
592.03583348114364
 11
1053.0851153683575
 21
645.5206749973712
  0
LINE
  8
_0-2_線色２__白__
  6
CONTINUOUS
 62
    7
 10
1040.835115368357
 20
592.03583348114364
 11
1040.835115368357
 21
645.5206749973712
  0
ARC
  8
_0-1_線色１__水色__
  6
CONTINUOUS
 62
    4
 10
1493.3827749941088
 20
777.5414958549419
 40
1.2083333333333581
 50
307.52351320333912
 51
232.47648680464988
  0
ARC
  8
_0-1_線色１__水色__
  6
CONTINUOUS
 62
    4
 10
1494.8547351385855
 20
775.62482918834178
 40
1.2083333333333179
 50
127.52351320610693
 51
52.47648680188081
  0
ARC
  8
_0-1_線色１__水色__
  6
CONTINUOUS
 62
    4
 10
1491.9108148499004
 20
775.62482918813714
 40
1.2083333333333179
 50
127.52351320610693
 51
52.47648680188081
  0
ARC
  8
_0-1_線色１__水色__
  6
CONTINUOUS
 62
    4
 10
1496.3266952827917
 20
777.54149585453149
 40
1.2083333333333581
 50
307.52351320333912
 51
232.47648680464988
  0
ARC
  8
_0-1_線色１__水色__
  6
CONTINUOUS
 62
    4
 10
1497.7986554272684
 20
775.62482918793137
 40
1.2083333333333179
 50
127.52351320610693
 51
273.94976640609366
  0
LINE
  8
_0-d_断熱__ハッチ
  6
CONTINUOUS
 62
    4
 10
1484.5980137972504
 20
739.08316251256167
 11
1497.8818876519745
 21
752.36703636728578
  0
LINE
  8
_0-d_断熱__ハッチ
  6
CONTINUOUS
 62
    4
 10
1456.3137425497837
 20
739.08316251256167
 11
1491.3137425497837
 21
774.08316251256167
  0
LINE
  8
_0-d_断熱__ハッチ
  6
CONTINUOUS
 62
    4
 10
1428.0294713023238
 20
739.0831625125594
 11
1463.029471302325
 21
774.08316251256053
  0
LINE
  8
_0-d_断熱__ハッチ
  6
CONTINUOUS
 62
    4
 10
1399.7452000548594
 20
739.08316251256167
 11
1434.7452000548594
 21
774.08316251256167
  0
LINE
  8
_0-d_断熱__ハッチ
  6
CONTINUOUS
 62
    4
 10
1272.660928807403
 20
640.28316251256285
 11
1292.4125202683622
 21
660.03475397352133
  0
LINE
  8
_0-d_断熱__ハッチ
  6
CONTINUOUS
 62
    4
 10
1372.6609288074023
 20
740.28316251256172
 11
1406.4609288074007
 21
774.08316251256053
  0
LINE
  8
_0-d_断熱__ハッチ
  6
CONTINUOUS
 62
    4
 10
1344.376657559937
 20
740.28316251256285
 11
1378.1766575599358
 21
774.08316251256167
  0
LINE
  8
_0-d_断熱__ハッチ
  6
CONTINUOUS
 62
    4
 10
1257.4125202683638
 20
681.60329646844787
 11
1292.4125202683645
 21
716.603296468449
  0
LINE
  8
_0-d_断熱__ハッチ
  6
CONTINUOUS
 62
    4
 10
1316.0923863124754
 20
740.28316251255944
 11
1349.8923863124769
 21
774.08316251256053
  0
LINE
  8
_0-d_断熱__ハッチ
  6
CONTINUOUS
 62
    4
 10
1257.4125202683638
 20
709.88756771591454
 11
1321.6081150650116
 21
774.08316251256167
  0
LINE
  8
_0-d_断熱__ハッチ
  6
CONTINUOUS
 62
    4
 10
1257.4125202683631
 20
738.17183896337099
 11
1293.323843817554
 21
774.08316251256167
  0
LINE
  8
_0-d_断熱__ハッチ
  6
CONTINUOUS
 62
    4
 10
1257.4125202683654
 20
766.45611021083994
 11
1265.0395725700844
 21
774.0831625125594
  0
LINE
  8
_0-d_断熱__ハッチ
  6
CONTINUOUS
 62
    4
 10
1073.4707800734254
 20
639.08291251082403
 11
1108.4707800734259
 21
674.08291251082517
  0
LINE
  8
_0-d_断熱__ハッチ
  6
CONTINUOUS
 62
    4
 10
933.2494238361204
 20
640.28291251082521
 11
967.04942383612035
 21
674.08291251082517
  0
LINE
  8
_0-d_断熱__ハッチ
  6
CONTINUOUS
 62
    4
 10
904.96515258866509
 20
640.28291251082749
 11
938.76515258866277
 21
674.08291251082517
  0
LINE
  8
_0-d_断熱__ハッチ
  6
CONTINUOUS
 62
    4
 10
876.680881341195
 20
640.28291251082408
 11
910.48088134119382
 21
674.08291251082289
  0
LINE
  8
_0-d_断熱__ハッチ
  6
CONTINUOUS
 62
    4
 10
848.39661009373742
 20
640.28291251082408
 11
882.19661009373851
 21
674.08291251082517
  0
LINE
  8
_0-d_断熱__ハッチ
  6
CONTINUOUS
 62
    4
 10
820.11233884627018
 20
640.28291251082408
 11
853.91233884626956
 21
674.08291251082289
  0
LINE
  8
_0-d_断熱__ハッチ
  6
CONTINUOUS
 62
    4
 10
814.30914526836375
 20
662.76399018037466
 11
825.62806759881425
 21
674.08291251082517
  0
LINE
  8
_0-d_断熱__ハッチ
  6
CONTINUOUS
 62
    4
 10
814.30914526836659
 20
651.55858910613745
 11
825.58482186367598
 21
640.28291251082862
  0
LINE
  8
_0-d_断熱__ハッチ
  6
CONTINUOUS
 62
    4
 10
820.06909311114612
 20
674.08291251082403
 11
853.8690931111455
 21
640.28291251082521
  0
LINE
  8
_0-d_断熱__ハッチ
  6
CONTINUOUS
 62
    4
 10
848.35336435860086
 20
674.08291251082744
 11
882.15336435860308
 21
640.28291251082521
  0
LINE
  8
_0-d_断熱__ハッチ
  6
CONTINUOUS
 62
    4
 10
876.63763560607038
 20
674.08291251082403
 11
910.43763560607033
 21
640.28291251082408
  0
LINE
  8
_0-d_断熱__ハッチ
  6
CONTINUOUS
 62
    4
 10
989.77472059591889
 20
674.08291251082403
 11
1024.7747205959213
 21
639.08291251082289
  0
LINE
  8
_0-d_断熱__ハッチ
  6
CONTINUOUS
 62
    4
 10
1244.3331618230759
 20
674.08291251082289
 11
1278.132911821338
 21
640.28316251255944
  0
LINE
  8
_0-d_断熱__ハッチ
  6
CONTINUOUS
 62
    4
 10
1257.4125202683626
 20
689.28782531300214
 11
1292.4125202683615
 21
654.28782531300328
  0
LINE
  8
_0-d_断熱__ハッチ
  6
CONTINUOUS
 62
    4
 10
1257.4125202683608
 20
717.57209656046086
 11
1292.4125202683645
 21
682.57209656045859
  0
LINE
  8
_0-d_断熱__ハッチ
  6
CONTINUOUS
 62
    4
 10
1257.4125202683622
 20
745.85636780792186
 11
1292.4125202683631
 21
710.85636780792072
  0
LINE
  8
_0-d_断熱__ハッチ
  6
CONTINUOUS
 62
    4
 10
1257.4699968111868
 20
774.0831625125594
 11
1292.4125202683608
 21
739.14063905538512
  0
LINE
  8
_0-d_断熱__ハッチ
  6
CONTINUOUS
 62
    4
 10
1285.7542680586444
 20
774.0831625125594
 11
1319.5542680586441
 21
740.28316251256058
  0
LINE
  8
_0-d_断熱__ハッチ
  6
CONTINUOUS
 62
    4
 10
1314.038539306111
 20
774.08316251256053
 11
1347.8385393061092
 21
740.28316251256172
  0
LINE
  8
_0-d_断熱__ハッチ
  6
CONTINUOUS
 62
    4
 10
1342.3228105535686
 20
774.0831625125594
 11
1376.1228105535697
 21
740.28316251255831
  0
LINE
  8
_0-d_断熱__ハッチ
  6
CONTINUOUS
 62
    4
 10
1370.6070818010339
 20
774.08316251256053
 11
1405.6070818010346
 21
739.0831625125594
  0
LINE
  8
_0-d_断熱__ハッチ
  6
CONTINUOUS
 62
    4
 10
1398.8913530484929
 20
774.0831625125594
 11
1433.8913530484933
 21
739.0831625125594
  0
LINE
  8
_0-d_断熱__ハッチ
  6
CONTINUOUS
 62
    4
 10
1427.1756242959577
 20
774.08316251256167
 11
1462.1756242959589
 21
739.08316251256053
  0
LINE
  8
_0-d_断熱__ハッチ
  6
CONTINUOUS
 62
    4
 10
1455.4598955434165
 20
774.0831625125594
 11
1490.4598955434176
 21
739.08316251255826
  0
LINE
  8
_0-d_断熱__ハッチ
  6
CONTINUOUS
 62
    4
 10
1483.7441667908809
 20
774.08316251256167
 11
1497.8818876519745
 21
759.94544165146806
  0
LINE
  8
_0-d_断熱__ハッチ
  6
CONTINUOUS
 62
    4
 10
809.50573712847188
 20
640.28291251082521
 11
814.30914526836489
 21
645.08632065071936
  0
LINE
  8
_0-d_断熱__ハッチ
  6
CONTINUOUS
 62
    4
 10
798.89913541068211
 20
640.28291251082635
 11
814.30914526836375
 21
655.69292236850799
  0
LINE
  8
_0-d_断熱__ハッチ
  6
CONTINUOUS
 62
    4
 10
797.50914526836539
 20
649.49952408630963
 11
814.30914526836546
 21
666.29952408631027
  0
LINE
  8
_0-d_断熱__ハッチ
  6
CONTINUOUS
 62
    4
 10
797.50914526836198
 20
660.10612580410623
 11
814.30914526836204
 21
676.90612580410686
  0
LINE
  8
_0-d_断熱__ハッチ
  6
CONTINUOUS
 62
    4
 10
797.50914526836368
 20
670.7127275219085
 11
814.30914526836602
 21
687.51272752191142
  0
LINE
  8
_0-d_断熱__ハッチ
  6
CONTINUOUS
 62
    4
 10
797.50914526836198
 20
681.31932923970624
 11
814.30914526836489
 21
698.11932923970915
  0
LINE
  8
_0-d_断熱__ハッチ
  6
CONTINUOUS
 62
    4
 10
797.50914526836425
 20
691.92593095749942
 11
814.30914526836375
 21
708.72593095749892
  0
LINE
  8
_0-d_断熱__ハッチ
  6
CONTINUOUS
 62
    4
 10
797.50914526836596
 20
702.5325326753017
 11
814.30914526836546
 21
719.3325326753012
  0
LINE
  8
_0-d_断熱__ハッチ
  6
CONTINUOUS
 62
    4
 10
797.50914526836198
 20
713.13913439309715
 11
814.30914526836261
 21
729.93913439309779
  0
LINE
  8
_0-d_断熱__ハッチ
  6
CONTINUOUS
 62
    4
 10
797.50914526836425
 20
723.74573611089943
 11
814.30914526836602
 21
740.5457361109012
  0
LINE
  8
_0-d_断熱__ハッチ
  6
CONTINUOUS
 62
    4
 10
797.50914526836084
 20
734.35233782869602
 11
814.30914526836489
 21
751.15233782870007
  0
LINE
  8
_0-d_断熱__ハッチ
  6
CONTINUOUS
 62
    4
 10
796.30914526836477
 20
743.75893954649143
 11
814.30914526836375
 21
761.75893954648984
  0
LINE
  8
_0-d_断熱__ハッチ
  6
CONTINUOUS
 62
    4
 10
796.30914526836648
 20
754.36554126429257
 11
814.30914526836546
 21
772.36554126429212
  0
LINE
  8
_0-d_断熱__ハッチ
  6
CONTINUOUS
 62
    4
 10
796.30914526836307
 20
764.97214298208917
 11
814.30914526836318
 21
782.97214298208985
  0
LINE
  8
_0-d_断熱__ハッチ
  6
CONTINUOUS
 62
    4
 10
796.3091452683642
 20
775.57874469989031
 11
814.30914526836602
 21
793.57874469989213
  0
LINE
  8
_0-d_断熱__ハッチ
  6
CONTINUOUS
 62
    4
 10
796.30914526836193
 20
786.18534641768804
 11
814.30914526836489
 21
804.18534641769213
  0
LINE
  8
_0-d_断熱__ハッチ
  6
CONTINUOUS
 62
    4
 10
796.30914526836477
 20
796.7919481354869
 11
814.30914526836489
 21
814.79194813548645
  0
LINE
  8
_0-d_断熱__ハッチ
  6
CONTINUOUS
 62
    4
 10
796.30914526836534
 20
807.39854985328236
 11
814.30914526836375
 21
825.39854985328077
  0
LINE
  8
_0-d_断熱__ハッチ
  6
CONTINUOUS
 62
    4
 10
796.30914526836364
 20
818.00515157108123
 11
814.30914526836375
 21
836.00515157108077
  0
LINE
  8
_0-d_断熱__ハッチ
  6
CONTINUOUS
 62
    4
 10
796.3091452683642
 20
828.61175328888123
 11
814.30914526836602
 21
846.61175328888305
  0
LINE
  8
_0-d_断熱__ハッチ
  6
CONTINUOUS
 62
    4
 10
796.30914526836193
 20
839.21835500667896
 11
814.30914526836546
 21
857.21835500668305
  0
LINE
  8
_0-d_断熱__ハッチ
  6
CONTINUOUS
 62
    4
 10
796.3091452683625
 20
849.8249567244801
 11
814.30914526836489
 21
867.82495672448192
  0
LINE
  8
_0-d_断熱__ハッチ
  6
CONTINUOUS
 62
    4
 10
796.3091452683642
 20
860.43155844227215
 11
814.30914526836318
 21
878.43155844227169
  0
LINE
  8
_0-d_断熱__ハッチ
  6
CONTINUOUS
 62
    4
 10
796.3091452683642
 20
871.03816016007215
 11
814.30914526836375
 21
889.0381601600717
  0
LINE
  8
_0-d_断熱__ハッチ
  6
CONTINUOUS
 62
    4
 10
796.3091452683642
 20
881.64476187787216
 11
814.30914526836375
 21
899.6447618778717
  0
LINE
  8
_0-d_断熱__ハッチ
  6
CONTINUOUS
 62
    4
 10
796.3091452683625
 20
892.25136359567102
 11
814.30914526836546
 21
910.25136359567398
  0
LINE
  8
_0-d_断熱__ハッチ
  6
CONTINUOUS
 62
    4
 10
796.30914526836193
 20
902.85796531346989
 11
814.30914526836489
 21
920.85796531347285
  0
LINE
  8
_0-d_断熱__ハッチ
  6
CONTINUOUS
 62
    4
 10
796.30914526836307
 20
913.46456703126194
 11
814.00216227631915
 21
931.15758403921802
  0
LINE
  8
_0-2_線色２__白__
  6
CONTINUOUS
 62
    7
 10
1053.0851153683575
 20
667.64515002428027
 11
1053.0851153683575
 21
721.12999154050783
  0
LINE
  8
_0-2_線色２__白__
  6
CONTINUOUS
 62
    7
 10
1040.835115368357
 20
667.64515002428027
 11
1040.835115368357
 21
721.12999154050783
  0
ARC
  8
_0-1_線色１__水色__
  6
CONTINUOUS
 62
    4
 10
1088.5938621699192
 20
677.5412458480406
 40
1.2083333333333581
 50
307.52351320333912
 51
232.47648680464988
  0
ARC
  8
_0-1_線色１__水色__
  6
CONTINUOUS
 62
    4
 10
1070.9303404378425
 20
677.54124584740737
 40
1.2083333333333581
 50
307.52351320333912
 51
232.47648680464988
  0
ARC
  8
_0-1_線色１__水色__
  6
CONTINUOUS
 62
    4
 10
1072.4023005823192
 20
675.62457918080725
 40
1.2083333333333179
 50
127.52351320610693
 51
52.47648680188081
  0
ARC
  8
_0-1_線色１__水色__
  6
CONTINUOUS
 62
    4
 10
1067.9864201491596
 20
677.54124584720159
 40
1.2083333333333581
 50
307.52351320333912
 51
232.47648680464988
  0
ARC
  8
_0-1_線色１__水色__
  6
CONTINUOUS
 62
    4
 10
1069.458380293634
 20
675.62457918060261
 40
1.2083333333333179
 50
127.52351320610693
 51
52.47648680188081
  0
ARC
  8
_0-1_線色１__水色__
  6
CONTINUOUS
 62
    4
 10
1065.0424998604767
 20
677.54124584699696
 40
1.2083333333333581
 50
307.52351320333912
 51
232.47648680464988
  0
ARC
  8
_0-1_線色１__水色__
  6
CONTINUOUS
 62
    4
 10
1066.5144600049512
 20
675.62457918039684
 40
1.2083333333333179
 50
127.52351320610693
 51
52.47648680188081
  0
ARC
  8
_0-1_線色１__水色__
  6
CONTINUOUS
 62
    4
 10
1063.5705397162683
 20
675.6245791801922
 40
1.2083333333333179
 50
127.52351320610693
 51
52.47648680188081
  0
ARC
  8
_0-1_線色１__水色__
  6
CONTINUOUS
 62
    4
 10
1075.3462208710021
 20
675.62457918039684
 40
1.2083333333333179
 50
127.52351320610693
 51
52.47648680188081
  0
ARC
  8
_0-1_線色１__水色__
  6
CONTINUOUS
 62
    4
 10
1073.8742607265253
 20
677.54124584699696
 40
1.2083333333333581
 50
307.52351320333912
 51
232.47648680464988
  0
ARC
  8
_0-1_線色１__水色__
  6
CONTINUOUS
 62
    4
 10
1085.6499418812591
 20
677.54124584781778
 40
1.2083333333333581
 50
307.52351320333912
 51
232.47648680464988
  0
ARC
  8
_0-1_線色１__水色__
  6
CONTINUOUS
 62
    4
 10
1082.7060215925762
 20
677.541245847612
 40
1.2083333333333581
 50
307.52351320333912
 51
232.47648680464988
  0
ARC
  8
_0-1_線色１__水色__
  6
CONTINUOUS
 62
    4
 10
1084.1779817370507
 20
675.62457918101302
 40
1.2083333333333179
 50
127.52351320610693
 51
52.47648680188081
  0
ARC
  8
_0-1_線色１__水色__
  6
CONTINUOUS
 62
    4
 10
1079.7621013038934
 20
677.54124584740737
 40
1.2083333333333581
 50
307.52351320333912
 51
232.47648680464988
  0
ARC
  8
_0-1_線色１__水色__
  6
CONTINUOUS
 62
    4
 10
1078.2901411596849
 20
675.62457918060261
 40
1.2083333333333179
 50
127.52351320610693
 51
52.47648680188081
  0
ARC
  8
_0-1_線色１__水色__
  6
CONTINUOUS
 62
    4
 10
1081.2340614483678
 20
675.62457918080725
 40
1.2083333333333179
 50
127.52351320610693
 51
52.47648680188081
  0
ARC
  8
_0-1_線色１__水色__
  6
CONTINUOUS
 62
    4
 10
1076.8181810152082
 20
677.54124584720159
 40
1.2083333333333581
 50
307.52351320333912
 51
232.47648680464988
  0
ARC
  8
_0-1_線色１__水色__
  6
CONTINUOUS
 62
    4
 10
1087.1219020257336
 20
675.62457918121765
 40
1.2083333333333179
 50
127.52351320610693
 51
52.47648680188081
  0
ARC
  8
_0-1_線色１__水色__
  6
CONTINUOUS
 62
    4
 10
1059.1546592830859
 20
677.54124585031548
 40
1.2083333333333581
 50
307.52351320333912
 51
232.47648680464988
  0
ARC
  8
_0-1_線色１__水色__
  6
CONTINUOUS
 62
    4
 10
1057.6826991388775
 20
675.62457918351072
 40
1.2083333333333179
 50
127.52351320610693
 51
52.47648680188081
  0
ARC
  8
_0-1_線色１__水色__
  6
CONTINUOUS
 62
    4
 10
1060.6266194275627
 20
675.62457918371535
 40
1.2083333333333179
 50
127.52351320610693
 51
52.47648680188081
  0
ARC
  8
_0-1_線色１__水色__
  6
CONTINUOUS
 62
    4
 10
1056.2107389944031
 20
677.5412458501097
 40
1.2083333333333581
 50
307.52351320333912
 51
232.47648680464988
  0
ARC
  8
_0-1_線色１__水色__
  6
CONTINUOUS
 62
    4
 10
1054.7387788502174
 20
675.62457918328789
 40
1.2083333333333179
 50
127.52351320610693
 51
52.47648680188081
  0
ARC
  8
_0-1_線色１__水色__
  6
CONTINUOUS
 62
    4
 10
1062.0985795717688
 20
677.54124585052011
 40
1.2083333333333581
 50
307.52351320333912
 51
232.47648680464988
  0
ARC
  8
_0-1_線色１__水色__
  6
CONTINUOUS
 62
    4
 10
1138.6405070775136
 20
677.5412458480406
 40
1.2083333333333581
 50
307.52351320333912
 51
232.47648680464988
  0
ARC
  8
_0-1_線色１__水色__
  6
CONTINUOUS
 62
    4
 10
1120.9769853454368
 20
677.54124584740737
 40
1.2083333333333581
 50
307.52351320333912
 51
232.47648680464988
  0
ARC
  8
_0-1_線色１__水色__
  6
CONTINUOUS
 62
    4
 10
1122.4489454899135
 20
675.62457918080725
 40
1.2083333333333179
 50
127.52351320610693
 51
52.47648680188081
  0
ARC
  8
_0-1_線色１__水色__
  6
CONTINUOUS
 62
    4
 10
1118.0330650567539
 20
677.54124584720159
 40
1.2083333333333581
 50
307.52351320333912
 51
232.47648680464988
  0
ARC
  8
_0-1_線色１__水色__
  6
CONTINUOUS
 62
    4
 10
1119.5050252012284
 20
675.62457918060261
 40
1.2083333333333179
 50
127.52351320610693
 51
52.47648680188081
  0
ARC
  8
_0-1_線色１__水色__
  6
CONTINUOUS
 62
    4
 10
1115.089144768071
 20
677.54124584699696
 40
1.2083333333333581
 50
307.52351320333912
 51
232.47648680464988
  0
ARC
  8
_0-1_線色１__水色__
  6
CONTINUOUS
 62
    4
 10
1116.5611049125455
 20
675.62457918039684
 40
1.2083333333333179
 50
127.52351320610693
 51
52.47648680188081
  0
ARC
  8
_0-1_線色１__水色__
  6
CONTINUOUS
 62
    4
 10
1113.6171846238626
 20
675.6245791801922
 40
1.2083333333333179
 50
127.52351320610693
 51
52.47648680188081
  0
ARC
  8
_0-1_線色１__水色__
  6
CONTINUOUS
 62
    4
 10
1125.3928657785964
 20
675.62457918039684
 40
1.2083333333333179
 50
127.52351320610693
 51
52.47648680188081
  0
ARC
  8
_0-1_線色１__水色__
  6
CONTINUOUS
 62
    4
 10
1123.9209056341197
 20
677.54124584699696
 40
1.2083333333333581
 50
307.52351320333912
 51
232.47648680464988
  0
ARC
  8
_0-1_線色１__水色__
  6
CONTINUOUS
 62
    4
 10
1135.6965867888534
 20
677.54124584781778
 40
1.2083333333333581
 50
307.52351320333912
 51
232.47648680464988
  0
ARC
  8
_0-1_線色１__水色__
  6
CONTINUOUS
 62
    4
 10
1132.7526665001706
 20
677.541245847612
 40
1.2083333333333581
 50
307.52351320333912
 51
232.47648680464988
  0
ARC
  8
_0-1_線色１__水色__
  6
CONTINUOUS
 62
    4
 10
1134.224626644645
 20
675.62457918101302
 40
1.2083333333333179
 50
127.52351320610693
 51
52.47648680188081
  0
ARC
  8
_0-1_線色１__水色__
  6
CONTINUOUS
 62
    4
 10
1129.8087462114877
 20
677.54124584740737
 40
1.2083333333333581
 50
307.52351320333912
 51
232.47648680464988
  0
ARC
  8
_0-1_線色１__水色__
  6
CONTINUOUS
 62
    4
 10
1128.3367860672793
 20
675.62457918060261
 40
1.2083333333333179
 50
127.52351320610693
 51
52.47648680188081
  0
ARC
  8
_0-1_線色１__水色__
  6
CONTINUOUS
 62
    4
 10
1131.2807063559621
 20
675.62457918080725
 40
1.2083333333333179
 50
127.52351320610693
 51
52.47648680188081
  0
ARC
  8
_0-1_線色１__水色__
  6
CONTINUOUS
 62
    4
 10
1126.8648259228025
 20
677.54124584720159
 40
1.2083333333333581
 50
307.52351320333912
 51
232.47648680464988
  0
ARC
  8
_0-1_線色１__水色__
  6
CONTINUOUS
 62
    4
 10
1137.1685469333279
 20
675.62457918121765
 40
1.2083333333333179
 50
127.52351320610693
 51
52.47648680188081
  0
ARC
  8
_0-1_線色１__水色__
  6
CONTINUOUS
 62
    4
 10
1109.2013041906803
 20
677.54124585031548
 40
1.2083333333333581
 50
307.52351320333912
 51
232.47648680464988
  0
ARC
  8
_0-1_線色１__水色__
  6
CONTINUOUS
 62
    4
 10
1107.7293440464719
 20
675.62457918351072
 40
1.2083333333333179
 50
127.52351320610693
 51
52.47648680188081
  0
ARC
  8
_0-1_線色１__水色__
  6
CONTINUOUS
 62
    4
 10
1110.673264335157
 20
675.62457918371535
 40
1.2083333333333179
 50
127.52351320610693
 51
52.47648680188081
  0
ARC
  8
_0-1_線色１__水色__
  6
CONTINUOUS
 62
    4
 10
1106.2573839019974
 20
677.5412458501097
 40
1.2083333333333581
 50
307.52351320333912
 51
232.47648680464988
  0
ARC
  8
_0-1_線色１__水色__
  6
CONTINUOUS
 62
    4
 10
1103.3134636133373
 20
677.54124584988688
 40
1.2083333333333581
 50
307.52351320333912
 51
232.47648680464988
  0
ARC
  8
_0-1_線色１__水色__
  6
CONTINUOUS
 62
    4
 10
1100.3695433246544
 20
677.54124584968224
 40
1.2083333333333581
 50
307.52351320333912
 51
232.47648680464988
  0
ARC
  8
_0-1_線色１__水色__
  6
CONTINUOUS
 62
    4
 10
1101.8415034691288
 20
675.62457918308212
 40
1.2083333333333179
 50
127.52351320610693
 51
52.47648680188081
  0
ARC
  8
_0-1_線色１__水色__
  6
CONTINUOUS
 62
    4
 10
1104.7854237578117
 20
675.62457918328789
 40
1.2083333333333179
 50
127.52351320610693
 51
52.47648680188081
  0
ARC
  8
_0-1_線色１__水色__
  6
CONTINUOUS
 62
    4
 10
1112.1452244793632
 20
677.54124585052011
 40
1.2083333333333581
 50
307.52351320333912
 51
232.47648680464988
  0
ARC
  8
_0-1_線色１__水色__
  6
CONTINUOUS
 62
    4
 10
1093.0097426030779
 20
675.62457918246707
 40
1.2083333333333179
 50
127.52351320610693
 51
52.47648680188081
  0
ARC
  8
_0-1_線色１__水色__
  6
CONTINUOUS
 62
    4
 10
1091.5377824586035
 20
677.54124584906606
 40
1.2083333333333581
 50
307.52351320333912
 51
232.47648680464988
  0
ARC
  8
_0-1_線色１__水色__
  6
CONTINUOUS
 62
    4
 10
1097.4256230359692
 20
677.54124584947647
 40
1.2083333333333581
 50
307.52351320333912
 51
232.47648680464988
  0
ARC
  8
_0-1_線色１__水色__
  6
CONTINUOUS
 62
    4
 10
1095.9536628917631
 20
675.62457918267171
 40
1.2083333333333179
 50
127.52351320610693
 51
52.47648680188081
  0
ARC
  8
_0-1_線色１__水色__
  6
CONTINUOUS
 62
    4
 10
1098.897583180446
 20
675.62457918287748
 40
1.2083333333333179
 50
127.52351320610693
 51
52.47648680188081
  0
ARC
  8
_0-1_線色１__水色__
  6
CONTINUOUS
 62
    4
 10
1094.4817027472864
 20
677.54124584927183
 40
1.2083333333333581
 50
307.52351320333912
 51
232.47648680464988
  0
ARC
  8
_0-1_線色１__水色__
  6
CONTINUOUS
 62
    4
 10
1090.0658223143951
 20
675.62457918287748
 40
1.2083333333333179
 50
127.52351320610693
 51
52.47648680188081
  0
ARC
  8
_0-1_線色１__水色__
  6
CONTINUOUS
 62
    4
 10
1188.687151985107
 20
677.5412458480406
 40
1.2083333333333581
 50
307.52351320333912
 51
232.47648680464988
  0
ARC
  8
_0-1_線色１__水色__
  6
CONTINUOUS
 62
    4
 10
1171.0236302530302
 20
677.54124584740737
 40
1.2083333333333581
 50
307.52351320333912
 51
232.47648680464988
  0
ARC
  8
_0-1_線色１__水色__
  6
CONTINUOUS
 62
    4
 10
1172.4955903975069
 20
675.62457918080725
 40
1.2083333333333179
 50
127.52351320610693
 51
52.47648680188081
  0
ARC
  8
_0-1_線色１__水色__
  6
CONTINUOUS
 62
    4
 10
1168.0797099643473
 20
677.54124584720159
 40
1.2083333333333581
 50
307.52351320333912
 51
232.47648680464988
  0
ARC
  8
_0-1_線色１__水色__
  6
CONTINUOUS
 62
    4
 10
1169.5516701088218
 20
675.62457918060261
 40
1.2083333333333179
 50
127.52351320610693
 51
52.47648680188081
  0
ARC
  8
_0-1_線色１__水色__
  6
CONTINUOUS
 62
    4
 10
1165.1357896756645
 20
677.54124584699696
 40
1.2083333333333581
 50
307.52351320333912
 51
232.47648680464988
  0
ARC
  8
_0-1_線色１__水色__
  6
CONTINUOUS
 62
    4
 10
1166.6077498201389
 20
675.62457918039684
 40
1.2083333333333179
 50
127.52351320610693
 51
52.47648680188081
  0
ARC
  8
_0-1_線色１__水色__
  6
CONTINUOUS
 62
    4
 10
1163.663829531456
 20
675.6245791801922
 40
1.2083333333333179
 50
127.52351320610693
 51
52.47648680188081
  0
ARC
  8
_0-1_線色１__水色__
  6
CONTINUOUS
 62
    4
 10
1175.4395106861898
 20
675.62457918039684
 40
1.2083333333333179
 50
127.52351320610693
 51
52.47648680188081
  0
ARC
  8
_0-1_線色１__水色__
  6
CONTINUOUS
 62
    4
 10
1173.9675505417131
 20
677.54124584699696
 40
1.2083333333333581
 50
307.52351320333912
 51
232.47648680464988
  0
ARC
  8
_0-1_線色１__水色__
  6
CONTINUOUS
 62
    4
 10
1185.7432316964469
 20
677.54124584781778
 40
1.2083333333333581
 50
307.52351320333912
 51
232.47648680464988
  0
ARC
  8
_0-1_線色１__水色__
  6
CONTINUOUS
 62
    4
 10
1182.799311407764
 20
677.541245847612
 40
1.2083333333333581
 50
307.52351320333912
 51
232.47648680464988
  0
ARC
  8
_0-1_線色１__水色__
  6
CONTINUOUS
 62
    4
 10
1184.2712715522384
 20
675.62457918101302
 40
1.2083333333333179
 50
127.52351320610693
 51
52.47648680188081
  0
ARC
  8
_0-1_線色１__水色__
  6
CONTINUOUS
 62
    4
 10
1179.8553911190811
 20
677.54124584740737
 40
1.2083333333333581
 50
307.52351320333912
 51
232.47648680464988
  0
ARC
  8
_0-1_線色１__水色__
  6
CONTINUOUS
 62
    4
 10
1178.3834309748727
 20
675.62457918060261
 40
1.2083333333333179
 50
127.52351320610693
 51
52.47648680188081
  0
ARC
  8
_0-1_線色１__水色__
  6
CONTINUOUS
 62
    4
 10
1181.3273512635556
 20
675.62457918080725
 40
1.2083333333333179
 50
127.52351320610693
 51
52.47648680188081
  0
ARC
  8
_0-1_線色１__水色__
  6
CONTINUOUS
 62
    4
 10
1176.911470830396
 20
677.54124584720159
 40
1.2083333333333581
 50
307.52351320333912
 51
232.47648680464988
  0
ARC
  8
_0-1_線色１__水色__
  6
CONTINUOUS
 62
    4
 10
1187.2151918409213
 20
675.62457918121765
 40
1.2083333333333179
 50
127.52351320610693
 51
52.47648680188081
  0
ARC
  8
_0-1_線色１__水色__
  6
CONTINUOUS
 62
    4
 10
1159.2479490982737
 20
677.54124585031548
 40
1.2083333333333581
 50
307.52351320333912
 51
232.47648680464988
  0
ARC
  8
_0-1_線色１__水色__
  6
CONTINUOUS
 62
    4
 10
1157.7759889540653
 20
675.62457918351072
 40
1.2083333333333179
 50
127.52351320610693
 51
52.47648680188081
  0
ARC
  8
_0-1_線色１__水色__
  6
CONTINUOUS
 62
    4
 10
1160.7199092427504
 20
675.62457918371535
 40
1.2083333333333179
 50
127.52351320610693
 51
52.47648680188081
  0
ARC
  8
_0-1_線色１__水色__
  6
CONTINUOUS
 62
    4
 10
1156.3040288095908
 20
677.5412458501097
 40
1.2083333333333581
 50
307.52351320333912
 51
232.47648680464988
  0
ARC
  8
_0-1_線色１__水色__
  6
CONTINUOUS
 62
    4
 10
1153.3601085209307
 20
677.54124584988688
 40
1.2083333333333581
 50
307.52351320333912
 51
232.47648680464988
  0
ARC
  8
_0-1_線色１__水色__
  6
CONTINUOUS
 62
    4
 10
1150.4161882322478
 20
677.54124584968224
 40
1.2083333333333581
 50
307.52351320333912
 51
232.47648680464988
  0
ARC
  8
_0-1_線色１__水色__
  6
CONTINUOUS
 62
    4
 10
1151.8881483767223
 20
675.62457918308212
 40
1.2083333333333179
 50
127.52351320610693
 51
52.47648680188081
  0
ARC
  8
_0-1_線色１__水色__
  6
CONTINUOUS
 62
    4
 10
1154.8320686654051
 20
675.62457918328789
 40
1.2083333333333179
 50
127.52351320610693
 51
52.47648680188081
  0
ARC
  8
_0-1_線色１__水色__
  6
CONTINUOUS
 62
    4
 10
1162.1918693869566
 20
677.54124585052011
 40
1.2083333333333581
 50
307.52351320333912
 51
232.47648680464988
  0
ARC
  8
_0-1_線色１__水色__
  6
CONTINUOUS
 62
    4
 10
1143.0563875106714
 20
675.62457918246707
 40
1.2083333333333179
 50
127.52351320610693
 51
52.47648680188081
  0
ARC
  8
_0-1_線色１__水色__
  6
CONTINUOUS
 62
    4
 10
1141.5844273661969
 20
677.54124584906606
 40
1.2083333333333581
 50
307.52351320333912
 51
232.47648680464988
  0
ARC
  8
_0-1_線色１__水色__
  6
CONTINUOUS
 62
    4
 10
1147.4722679435627
 20
677.54124584947647
 40
1.2083333333333581
 50
307.52351320333912
 51
232.47648680464988
  0
ARC
  8
_0-1_線色１__水色__
  6
CONTINUOUS
 62
    4
 10
1146.0003077993565
 20
675.62457918267171
 40
1.2083333333333179
 50
127.52351320610693
 51
52.47648680188081
  0
ARC
  8
_0-1_線色１__水色__
  6
CONTINUOUS
 62
    4
 10
1148.9442280880394
 20
675.62457918287748
 40
1.2083333333333179
 50
127.52351320610693
 51
52.47648680188081
  0
ARC
  8
_0-1_線色１__水色__
  6
CONTINUOUS
 62
    4
 10
1144.5283476548798
 20
677.54124584927183
 40
1.2083333333333581
 50
307.52351320333912
 51
232.47648680464988
  0
ARC
  8
_0-1_線色１__水色__
  6
CONTINUOUS
 62
    4
 10
1140.1124672219885
 20
675.62457918287748
 40
1.2083333333333179
 50
127.52351320610693
 51
52.47648680188081
  0
ARC
  8
_0-1_線色１__水色__
  6
CONTINUOUS
 62
    4
 10
1238.7337968927004
 20
677.5412458480406
 40
1.2083333333333581
 50
307.52351320333912
 51
232.47648680464988
  0
ARC
  8
_0-1_線色１__水色__
  6
CONTINUOUS
 62
    4
 10
1221.0702751606236
 20
677.54124584740737
 40
1.2083333333333581
 50
307.52351320333912
 51
232.47648680464988
  0
ARC
  8
_0-1_線色１__水色__
  6
CONTINUOUS
 62
    4
 10
1222.5422353051003
 20
675.62457918080725
 40
1.2083333333333179
 50
127.52351320610693
 51
52.47648680188081
  0
ARC
  8
_0-1_線色１__水色__
  6
CONTINUOUS
 62
    4
 10
1218.1263548719407
 20
677.54124584720159
 40
1.2083333333333581
 50
307.52351320333912
 51
232.47648680464988
  0
ARC
  8
_0-1_線色１__水色__
  6
CONTINUOUS
 62
    4
 10
1219.5983150164152
 20
675.62457918060261
 40
1.2083333333333179
 50
127.52351320610693
 51
52.47648680188081
  0
ARC
  8
_0-1_線色１__水色__
  6
CONTINUOUS
 62
    4
 10
1215.1824345832579
 20
677.54124584699696
 40
1.2083333333333581
 50
307.52351320333912
 51
232.47648680464988
  0
ARC
  8
_0-1_線色１__水色__
  6
CONTINUOUS
 62
    4
 10
1216.6543947277323
 20
675.62457918039684
 40
1.2083333333333179
 50
127.52351320610693
 51
52.47648680188081
  0
ARC
  8
_0-1_線色１__水色__
  6
CONTINUOUS
 62
    4
 10
1213.7104744390494
 20
675.6245791801922
 40
1.2083333333333179
 50
127.52351320610693
 51
52.47648680188081
  0
ARC
  8
_0-1_線色１__水色__
  6
CONTINUOUS
 62
    4
 10
1225.4861555937832
 20
675.62457918039684
 40
1.2083333333333179
 50
127.52351320610693
 51
52.47648680188081
  0
ARC
  8
_0-1_線色１__水色__
  6
CONTINUOUS
 62
    4
 10
1224.0141954493065
 20
677.54124584699696
 40
1.2083333333333581
 50
307.52351320333912
 51
232.47648680464988
  0
ARC
  8
_0-1_線色１__水色__
  6
CONTINUOUS
 62
    4
 10
1235.7898766040403
 20
677.54124584781778
 40
1.2083333333333581
 50
307.52351320333912
 51
232.47648680464988
  0
ARC
  8
_0-1_線色１__水色__
  6
CONTINUOUS
 62
    4
 10
1232.8459563153574
 20
677.541245847612
 40
1.2083333333333581
 50
307.52351320333912
 51
232.47648680464988
  0
ARC
  8
_0-1_線色１__水色__
  6
CONTINUOUS
 62
    4
 10
1234.3179164598318
 20
675.62457918101302
 40
1.2083333333333179
 50
127.52351320610693
 51
52.47648680188081
  0
ARC
  8
_0-1_線色１__水色__
  6
CONTINUOUS
 62
    4
 10
1229.9020360266745
 20
677.54124584740737
 40
1.2083333333333581
 50
307.52351320333912
 51
232.47648680464988
  0
ARC
  8
_0-1_線色１__水色__
  6
CONTINUOUS
 62
    4
 10
1228.4300758824661
 20
675.62457918060261
 40
1.2083333333333179
 50
127.52351320610693
 51
52.47648680188081
  0
ARC
  8
_0-1_線色１__水色__
  6
CONTINUOUS
 62
    4
 10
1231.373996171149
 20
675.62457918080725
 40
1.2083333333333179
 50
127.52351320610693
 51
52.47648680188081
  0
ARC
  8
_0-1_線色１__水色__
  6
CONTINUOUS
 62
    4
 10
1226.9581157379894
 20
677.54124584720159
 40
1.2083333333333581
 50
307.52351320333912
 51
232.47648680464988
  0
ARC
  8
_0-1_線色１__水色__
  6
CONTINUOUS
 62
    4
 10
1237.2618367485147
 20
675.62457918121765
 40
1.2083333333333179
 50
127.52351320610693
 51
52.47648680188081
  0
ARC
  8
_0-1_線色１__水色__
  6
CONTINUOUS
 62
    4
 10
1209.2945940058671
 20
677.54124585031548
 40
1.2083333333333581
 50
307.52351320333912
 51
232.47648680464988
  0
ARC
  8
_0-1_線色１__水色__
  6
CONTINUOUS
 62
    4
 10
1207.8226338616587
 20
675.62457918351072
 40
1.2083333333333179
 50
127.52351320610693
 51
52.47648680188081
  0
ARC
  8
_0-1_線色１__水色__
  6
CONTINUOUS
 62
    4
 10
1210.7665541503438
 20
675.62457918371535
 40
1.2083333333333179
 50
127.52351320610693
 51
52.47648680188081
  0
ARC
  8
_0-1_線色１__水色__
  6
CONTINUOUS
 62
    4
 10
1206.3506737171842
 20
677.5412458501097
 40
1.2083333333333581
 50
307.52351320333912
 51
232.47648680464988
  0
ARC
  8
_0-1_線色１__水色__
  6
CONTINUOUS
 62
    4
 10
1203.4067534285241
 20
677.54124584988688
 40
1.2083333333333581
 50
307.52351320333912
 51
232.47648680464988
  0
ARC
  8
_0-1_線色１__水色__
  6
CONTINUOUS
 62
    4
 10
1200.4628331398412
 20
677.54124584968224
 40
1.2083333333333581
 50
307.52351320333912
 51
232.47648680464988
  0
ARC
  8
_0-1_線色１__水色__
  6
CONTINUOUS
 62
    4
 10
1201.9347932843157
 20
675.62457918308212
 40
1.2083333333333179
 50
127.52351320610693
 51
52.47648680188081
  0
ARC
  8
_0-1_線色１__水色__
  6
CONTINUOUS
 62
    4
 10
1204.8787135729985
 20
675.62457918328789
 40
1.2083333333333179
 50
127.52351320610693
 51
52.47648680188081
  0
ARC
  8
_0-1_線色１__水色__
  6
CONTINUOUS
 62
    4
 10
1212.23851429455
 20
677.54124585052011
 40
1.2083333333333581
 50
307.52351320333912
 51
232.47648680464988
  0
ARC
  8
_0-1_線色１__水色__
  6
CONTINUOUS
 62
    4
 10
1193.1030324182648
 20
675.62457918246707
 40
1.2083333333333179
 50
127.52351320610693
 51
52.47648680188081
  0
ARC
  8
_0-1_線色１__水色__
  6
CONTINUOUS
 62
    4
 10
1191.6310722737903
 20
677.54124584906606
 40
1.2083333333333581
 50
307.52351320333912
 51
232.47648680464988
  0
ARC
  8
_0-1_線色１__水色__
  6
CONTINUOUS
 62
    4
 10
1197.5189128511561
 20
677.54124584947647
 40
1.2083333333333581
 50
307.52351320333912
 51
232.47648680464988
  0
ARC
  8
_0-1_線色１__水色__
  6
CONTINUOUS
 62
    4
 10
1196.0469527069499
 20
675.62457918267171
 40
1.2083333333333179
 50
127.52351320610693
 51
52.47648680188081
  0
ARC
  8
_0-1_線色１__水色__
  6
CONTINUOUS
 62
    4
 10
1198.9908729956328
 20
675.62457918287748
 40
1.2083333333333179
 50
127.52351320610693
 51
52.47648680188081
  0
ARC
  8
_0-1_線色１__水色__
  6
CONTINUOUS
 62
    4
 10
1194.5749925624732
 20
677.54124584927183
 40
1.2083333333333581
 50
307.52351320333912
 51
232.47648680464988
  0
ARC
  8
_0-1_線色１__水色__
  6
CONTINUOUS
 62
    4
 10
1190.1591121295819
 20
675.62457918287748
 40
1.2083333333333179
 50
127.52351320610693
 51
52.47648680188081
  0
ARC
  8
_0-1_線色１__水色__
  6
CONTINUOUS
 62
    4
 10
1253.4533983361184
 20
677.54124584988688
 40
1.2083333333333581
 50
307.52351320333912
 51
232.47648680464988
  0
ARC
  8
_0-1_線色１__水色__
  6
CONTINUOUS
 62
    4
 10
1250.5094780474356
 20
677.54124584968224
 40
1.2083333333333581
 50
307.52351320333912
 51
232.47648680464988
  0
ARC
  8
_0-1_線色１__水色__
  6
CONTINUOUS
 62
    4
 10
1251.98143819191
 20
675.62457918308212
 40
1.2083333333333179
 50
127.52351320610693
 51
52.47648680188081
  0
ARC
  8
_0-1_線色１__水色__
  6
CONTINUOUS
 62
    4
 10
1254.9253584805929
 20
675.62457918328789
 40
1.2083333333333179
 50
127.52351320610693
 51
52.47648680188081
  0
ARC
  8
_0-1_線色１__水色__
  6
CONTINUOUS
 62
    4
 10
1243.1496773258591
 20
675.62457918246707
 40
1.2083333333333179
 50
127.52351320610693
 51
52.47648680188081
  0
ARC
  8
_0-1_線色１__水色__
  6
CONTINUOUS
 62
    4
 10
1241.6777171813847
 20
677.54124584906606
 40
1.2083333333333581
 50
307.52351320333912
 51
232.47648680464988
  0
ARC
  8
_0-1_線色１__水色__
  6
CONTINUOUS
 62
    4
 10
1247.5655577587504
 20
677.54124584947647
 40
1.2083333333333581
 50
307.52351320333912
 51
232.47648680464988
  0
ARC
  8
_0-1_線色１__水色__
  6
CONTINUOUS
 62
    4
 10
1246.0935976145443
 20
675.62457918267171
 40
1.2083333333333179
 50
127.52351320610693
 51
52.47648680188081
  0
ARC
  8
_0-1_線色１__水色__
  6
CONTINUOUS
 62
    4
 10
1249.0375179032271
 20
675.62457918287748
 40
1.2083333333333179
 50
127.52351320610693
 51
52.47648680188081
  0
ARC
  8
_0-1_線色１__水色__
  6
CONTINUOUS
 62
    4
 10
1244.6216374700675
 20
677.54124584927183
 40
1.2083333333333581
 50
307.52351320333912
 51
232.47648680464988
  0
ARC
  8
_0-1_線色１__水色__
  6
CONTINUOUS
 62
    4
 10
1240.2057570371762
 20
675.62457918287748
 40
1.2083333333333179
 50
127.52351320610693
 51
52.47648680188081
  0
ARC
  8
_0-1_線色１__水色__
  6
CONTINUOUS
 62
    4
 10
1257.869278769253
 20
675.62457918351072
 40
1.2083333333333179
 50
127.52351320610693
 51
247.78971164985913
  0
ARC
  8
_0-1_線色１__水色__
  6
CONTINUOUS
 62
    4
 10
1256.3973186247786
 20
677.5412458501097
 40
1.2083333333333581
 50
307.52351320333918
 51
327.15774566393463
  0
ARC
  8
_0-1_線色１__水色__
  6
CONTINUOUS
 62
    4
 10
1256.3973186247786
 20
677.5412458501097
 40
1.2083333333333581
 50
32.842254336065366
 51
232.47648680464988
  0
ARC
  8
_0-1_線色１__水色__
  6
CONTINUOUS
 62
    4
 10
1053.2668187057429
 20
677.54124584988688
 40
1.2083333333333581
 50
307.52351320333918
 51
98.648669161934251
  0
ARC
  8
_0-1_線色１__水色__
  6
CONTINUOUS
 62
    4
 10
1041.4911375510092
 20
677.54124584906606
 40
1.2083333333333581
 50
122.88229071198967
 51
232.47648680464988
  0
ARC
  8
_0-1_線色１__水色__
  6
CONTINUOUS
 62
    4
 10
1040.0191774068007
 20
675.62457918287748
 40
1.2083333333333179
 50
127.52351320610693
 51
312.47426647857435
  0
ARC
  8
_0-1_線色１__水色__
  6
CONTINUOUS
 62
    4
 10
1040.0191774068007
 20
675.62457918287748
 40
1.2083333333333179
 50
47.525733521425693
 51
52.476486801880846
  0
LINE
  8
_0-d_断熱__ハッチ
  6
CONTINUOUS
 62
    4
 10
1018.0589918433759
 20
674.08291251082517
 11
1038.9039201247097
 21
653.23798422949096
  0
LINE
  8
_0-d_断熱__ハッチ
  6
CONTINUOUS
 62
    4
 10
1016.9022375785016
 20
639.08291251082517
 11
1045.4644750919574
 21
667.64515002428027
  0
LINE
  8
_0-d_断熱__ハッチ
  6
CONTINUOUS
 62
    4
 10
1057.0228707324527
 20
663.40330486921459
 11
1081.3432630908455
 21
639.08291251082289
  0
LINE
  8
_0-d_断熱__ハッチ
  6
CONTINUOUS
 62
    4
 10
1051.6242713125148
 20
645.5206749973712
 11
1080.1865088259688
 21
674.08291251082517
  0
LINE
  8
_0-2_線色２__白__
  6
CONTINUOUS
 62
    7
 10
814.30914526836432
 20
674.08291251082517
 11
1040.835115368357
 21
674.08291251082517
  0
LINE
  8
_0-2_線色２__白__
  6
CONTINUOUS
 62
    7
 10
814.30914526836432
 20
679.08291251082517
 11
1040.835115368357
 21
679.08291251082517
  0
ARC
  8
_0-1_線色１__水色__
  6
CONTINUOUS
 62
    4
 10
816.28123546698305
 20
675.62457918058442
 40
1.2083333333333179
 50
127.52351320610693
 51
52.47648680188081
  0
ARC
  8
_0-1_線色１__水色__
  6
CONTINUOUS
 62
    4
 10
814.80927532250632
 20
677.5412458471834
 40
1.2083333333333581
 50
307.52351320333918
 51
114.45010955482826
  0
ARC
  8
_0-1_線色１__水色__
  6
CONTINUOUS
 62
    4
 10
813.33731517832177
 20
675.62457918036046
 40
1.2083333333333179
 50
323.54012038735516
 51
36.459879612644848
  0
LINE
  8
_0-4_線色４__黄__
  6
CONTINUOUS
 62
    2
 10
873.25406877977343
 20
692.53406129775101
 11
877.30541735572842
 21
689.08291251082517
  0
LINE
  8
_0-4_線色４__黄__
  6
CONTINUOUS
 62
    2
 10
825.9684586629885
 20
692.53406129775101
 11
873.25406877977343
 21
692.53406129775101
  0
LINE
  8
_0-4_線色４__黄__
  6
CONTINUOUS
 62
    2
 10
823.01403540395086
 20
695.01311676474927
 11
822.64104216729834
 21
697.12846652661995
  0
ARC
  8
_0-4_線色４__黄__
  6
CONTINUOUS
 62
    2
 10
825.9684586629885
 20
695.53406129775055
 40
3.0000000000000004
 50
190.00000000000517
 51
270
  0
LINE
  8
_0-2_線色２__白__
  6
CONTINUOUS
 62
    7
 10
877.30541735572842
 20
689.08291251082517
 11
877.32363614325209
 21
689.2138174575058
  0
LINE
  8
_0-2_線色２__白__
  6
CONTINUOUS
 62
    7
 10
877.32363614325209
 20
689.2138174575058
 11
877.35670292291275
 21
689.43889139252462
  0
LINE
  8
_0-2_線色２__白__
  6
CONTINUOUS
 62
    7
 10
877.35670292291275
 20
689.43889139252462
 11
877.39436713877922
 21
689.66223130278252
  0
LINE
  8
_0-2_線色２__白__
  6
CONTINUOUS
 62
    7
 10
877.39436713877922
 20
689.66223130278252
 11
877.43953856060216
 21
689.88273970425382
  0
LINE
  8
_0-2_線色２__白__
  6
CONTINUOUS
 62
    7
 10
877.43953856060216
 20
689.88273970425382
 11
877.49512695813337
 21
690.09931911291176
  0
LINE
  8
_0-2_線色２__白__
  6
CONTINUOUS
 62
    7
 10
877.49512695813337
 20
690.09931911291176
 11
877.56404210112237
 21
690.31087204473067
  0
LINE
  8
_0-2_線色２__白__
  6
CONTINUOUS
 62
    7
 10
877.56404210112237
 20
690.31087204473067
 11
877.61126579941447
 21
690.43083714772308
  0
LINE
  8
_0-2_線色２__白__
  6
CONTINUOUS
 62
    7
 10
877.61126579941447
 20
690.43083714772308
 11
877.65220686067778
 21
690.5229539873136
  0
LINE
  8
_0-2_線色２__白__
  6
CONTINUOUS
 62
    7
 10
877.65220686067778
 20
690.5229539873136
 11
877.7306220333594
 21
690.67866829032653
  0
LINE
  8
_0-2_線色２__白__
  6
CONTINUOUS
 62
    7
 10
877.7306220333594
 20
690.67866829032653
 11
877.81772904768786
 21
690.8306718932073
  0
LINE
  8
_0-2_線色２__白__
  6
CONTINUOUS
 62
    7
 10
877.81772904768786
 20
690.8306718932073
 11
877.91211403683519
 21
690.97922440900845
  0
LINE
  8
_0-2_線色２__白__
  6
CONTINUOUS
 62
    7
 10
877.91211403683519
 20
690.97922440900845
 11
878.01236313398022
 21
691.12458545078027
  0
LINE
  8
_0-2_線色２__白__
  6
CONTINUOUS
 62
    7
 10
878.01236313398022
 20
691.12458545078027
 11
878.11706247229608
 21
691.26701463157644
  0
LINE
  8
_0-2_線色２__白__
  6
CONTINUOUS
 62
    7
 10
878.11706247229608
 20
691.26701463157644
 11
878.17927005197475
 21
691.34838247878122
  0
LINE
  8
_0-2_線色２__白__
  6
CONTINUOUS
 62
    7
 10
878.17927005197475
 20
691.34838247878122
 11
878.25348632591044
 21
691.44306607158285
  0
LINE
  8
_0-2_線色２__白__
  6
CONTINUOUS
 62
    7
 10
878.25348632591044
 20
691.44306607158285
 11
878.38371126601487
 21
691.60378486544516
  0
LINE
  8
_0-2_線色２__白__
  6
CONTINUOUS
 62
    7
 10
878.38371126601487
 20
691.60378486544516
 11
878.51656308523616
 21
691.76165162783548
  0
LINE
  8
_0-2_線色２__白__
  6
CONTINUOUS
 62
    7
 10
878.51656308523616
 20
691.76165162783548
 11
878.65176122336379
 21
691.91707212130211
  0
LINE
  8
_0-2_線色２__白__
  6
CONTINUOUS
 62
    7
 10
878.65176122336379
 20
691.91707212130211
 11
878.78902512018612
 21
692.07045210838885
  0
LINE
  8
_0-2_線色２__白__
  6
CONTINUOUS
 62
    7
 10
878.78902512018612
 20
692.07045210838885
 11
878.92807421549605
 21
692.22219735164401
  0
LINE
  8
_0-2_線色２__白__
  6
CONTINUOUS
 62
    7
 10
878.92807421549605
 20
692.22219735164401
 11
879.00943011340814
 21
692.30962044465116
  0
LINE
  8
_0-2_線色２__白__
  6
CONTINUOUS
 62
    7
 10
879.00943011340814
 20
692.30962044465116
 11
879.09506518682178
 21
692.40069061904876
  0
LINE
  8
_0-2_線色２__白__
  6
CONTINUOUS
 62
    7
 10
879.09506518682178
 20
692.40069061904876
 11
879.24426254513037
 21
692.55639236788227
  0
LINE
  8
_0-2_線色２__白__
  6
CONTINUOUS
 62
    7
 10
879.24426254513037
 20
692.55639236788227
 11
879.39601275870018
 21
692.70973834628137
  0
LINE
  8
_0-2_線色２__白__
  6
CONTINUOUS
 62
    7
 10
879.39601275870018
 20
692.70973834628137
 11
879.55100183820264
 21
692.85992598520295
  0
LINE
  8
_0-2_線色２__白__
  6
CONTINUOUS
 62
    7
 10
879.55100183820264
 20
692.85992598520295
 11
879.70991579431029
 21
693.00615271559934
  0
LINE
  8
_0-2_線色２__白__
  6
CONTINUOUS
 62
    7
 10
879.70991579431029
 20
693.00615271559934
 11
879.87344063769115
 21
693.14761596842743
  0
LINE
  8
_0-2_線色２__白__
  6
CONTINUOUS
 62
    7
 10
879.87344063769115
 20
693.14761596842743
 11
879.97066807927695
 21
693.22716577570816
  0
LINE
  8
_0-2_線色２__白__
  6
CONTINUOUS
 62
    7
 10
879.97066807927695
 20
693.22716577570816
 11
880.05832177881985
 21
693.29589112820429
  0
LINE
  8
_0-2_線色２__白__
  6
CONTINUOUS
 62
    7
 10
880.05832177881985
 20
693.29589112820429
 11
880.21293487874004
 21
693.41010389600513
  0
LINE
  8
_0-2_線色２__白__
  6
CONTINUOUS
 62
    7
 10
880.21293487874004
 20
693.41010389600513
 11
880.37190002193029
 21
693.51807658493556
  0
LINE
  8
_0-2_線色２__白__
  6
CONTINUOUS
 62
    7
 10
880.37190002193029
 20
693.51807658493556
 11
880.53514667915579
 21
693.61885181636183
  0
LINE
  8
_0-2_線色２__白__
  6
CONTINUOUS
 62
    7
 10
880.53514667915579
 20
693.61885181636183
 11
880.70260432118744
 21
693.71147221164904
  0
LINE
  8
_0-2_線色２__白__
  6
CONTINUOUS
 62
    7
 10
880.70260432118744
 20
693.71147221164904
 11
880.87420241879045
 21
693.79498039216003
  0
LINE
  8
_0-2_線色２__白__
  6
CONTINUOUS
 62
    7
 10
880.87420241879045
 20
693.79498039216003
 11
880.97559867995983
 21
693.83886266308025
  0
LINE
  8
_0-2_線色２__白__
  6
CONTINUOUS
 62
    7
 10
880.97559867995983
 20
693.83886266308025
 11
881.08950417269853
 21
693.88339137634318
  0
LINE
  8
_0-2_線色２__白__
  6
CONTINUOUS
 62
    7
 10
881.08950417269853
 20
693.88339137634318
 11
881.28939263055372
 21
693.950702004758
  0
LINE
  8
_0-2_線色２__白__
  6
CONTINUOUS
 62
    7
 10
881.28939263055372
 20
693.950702004758
 11
881.49309472941241
 21
694.00730555625557
  0
LINE
  8
_0-2_線色２__白__
  6
CONTINUOUS
 62
    7
 10
881.49309472941241
 20
694.00730555625557
 11
881.69989380622155
 21
694.05468042998621
  0
LINE
  8
_0-2_線色２__白__
  6
CONTINUOUS
 62
    7
 10
881.69989380622155
 20
694.05468042998621
 11
881.90907319792927
 21
694.09430502509565
  0
LINE
  8
_0-2_線色２__白__
  6
CONTINUOUS
 62
    7
 10
881.90907319792927
 20
694.09430502509565
 11
882.11991624148595
 21
694.12765774073193
  0
LINE
  8
_0-2_線色２__白__
  6
CONTINUOUS
 62
    7
 10
882.11991624148595
 20
694.12765774073193
 11
882.24268508951582
 21
694.14471110676629
  0
LINE
  8
_0-2_線色２__白__
  6
CONTINUOUS
 62
    7
 10
882.24268508951582
 20
694.14471110676629
 11
882.39114205959822
 21
694.16342810603226
  0
LINE
  8
_0-2_線色２__白__
  6
CONTINUOUS
 62
    7
 10
882.39114205959822
 20
694.16342810603226
 11
882.64746232488278
 21
694.19033486712294
  0
LINE
  8
_0-2_線色２__白__
  6
CONTINUOUS
 62
    7
 10
882.64746232488278
 20
694.19033486712294
 11
882.903857653464
 21
694.20919311442219
  0
LINE
  8
_0-2_線色２__白__
  6
CONTINUOUS
 62
    7
 10
882.903857653464
 20
694.20919311442219
 11
883.15988549009489
 21
694.21853920560864
  0
LINE
  8
_0-2_線色２__白__
  6
CONTINUOUS
 62
    7
 10
883.15988549009489
 20
694.21853920560864
 11
883.4151032795296
 21
694.21690949836091
  0
LINE
  8
_0-2_線色２__白__
  6
CONTINUOUS
 62
    7
 10
883.4151032795296
 20
694.21690949836091
 11
883.66906846652114
 21
694.20284035035877
  0
LINE
  8
_0-2_線色２__白__
  6
CONTINUOUS
 62
    7
 10
883.66906846652114
 20
694.20284035035877
 11
883.81561994275671
 21
694.1884037415781
  0
LINE
  8
_0-2_線色２__白__
  6
CONTINUOUS
 62
    7
 10
883.81561994275671
 20
694.1884037415781
 11
883.92296413432405
 21
694.17471395549285
  0
LINE
  8
_0-2_線色２__白__
  6
CONTINUOUS
 62
    7
 10
883.92296413432405
 20
694.17471395549285
 11
884.1074141950935
 21
694.14575432425238
  0
LINE
  8
_0-2_線色２__白__
  6
CONTINUOUS
 62
    7
 10
884.1074141950935
 20
694.14575432425238
 11
884.29138505253377
 21
694.11143884271326
  0
LINE
  8
_0-2_線色２__白__
  6
CONTINUOUS
 62
    7
 10
884.29138505253377
 20
694.11143884271326
 11
884.47524108839161
 21
694.07342401668586
  0
LINE
  8
_0-2_線色２__白__
  6
CONTINUOUS
 62
    7
 10
884.47524108839161
 20
694.07342401668586
 11
884.6593466844115
 21
694.03336635197945
  0
LINE
  8
_0-2_線色２__白__
  6
CONTINUOUS
 62
    7
 10
884.6593466844115
 20
694.03336635197945
 11
884.84406622234019
 21
693.99292235440441
  0
LINE
  8
_0-2_線色２__白__
  6
CONTINUOUS
 62
    7
 10
884.84406622234019
 20
693.99292235440441
 11
884.95162844787615
 21
693.9699405675168
  0
LINE
  8
_0-2_線色２__白__
  6
CONTINUOUS
 62
    7
 10
884.95162844787615
 20
693.9699405675168
 11
885.07373967920444
 21
693.94466684601923
  0
LINE
  8
_0-2_線色２__白__
  6
CONTINUOUS
 62
    7
 10
885.07373967920444
 20
693.94466684601923
 11
885.28453770276883
 21
693.90131732978432
  0
LINE
  8
_0-2_線色２__白__
  6
CONTINUOUS
 62
    7
 10
885.28453770276883
 20
693.90131732978432
 11
885.49424292660547
 21
693.85518417163496
  0
LINE
  8
_0-2_線色２__白__
  6
CONTINUOUS
 62
    7
 10
885.49424292660547
 20
693.85518417163496
 11
885.70119987587304
 21
693.80269812993163
  0
LINE
  8
_0-2_線色２__白__
  6
CONTINUOUS
 62
    7
 10
885.70119987587304
 20
693.80269812993163
 11
885.90375307572799
 21
693.74028996303366
  0
LINE
  8
_0-2_線色２__白__
  6
CONTINUOUS
 62
    7
 10
885.90375307572799
 20
693.74028996303366
 11
886.10024705132673
 21
693.66439042929926
  0
LINE
  8
_0-2_線色２__白__
  6
CONTINUOUS
 62
    7
 10
886.10024705132673
 20
693.66439042929926
 11
886.21078487744853
 21
693.61278048864222
  0
LINE
  8
_0-2_線色２__白__
  6
CONTINUOUS
 62
    7
 10
886.21078487744853
 20
693.61278048864222
 11
886.31010710862711
 21
693.55969501671836
  0
LINE
  8
_0-2_線色２__白__
  6
CONTINUOUS
 62
    7
 10
886.31010710862711
 20
693.55969501671836
 11
886.47553102381835
 21
693.4564087356199
  0
LINE
  8
_0-2_線色２__白__
  6
CONTINUOUS
 62
    7
 10
886.47553102381835
 20
693.4564087356199
 11
886.63358259517736
 21
693.33985910388776
  0
LINE
  8
_0-2_線色２__白__
  6
CONTINUOUS
 62
    7
 10
886.63358259517736
 20
693.33985910388776
 11
886.78425764159442
 21
693.21193243057394
  0
LINE
  8
_0-2_線色２__白__
  6
CONTINUOUS
 62
    7
 10
886.78425764159442
 20
693.21193243057394
 11
886.92755198195982
 21
693.07451502472702
  0
LINE
  8
_0-2_線色２__白__
  6
CONTINUOUS
 62
    7
 10
886.92755198195982
 20
693.07451502472702
 11
887.06346143516384
 21
692.92949319539673
  0
LINE
  8
_0-2_線色２__白__
  6
CONTINUOUS
 62
    7
 10
887.06346143516384
 20
692.92949319539673
 11
887.13890351515147
 21
692.84263949139984
  0
LINE
  8
_0-2_線色２__白__
  6
CONTINUOUS
 62
    7
 10
887.13890351515147
 20
692.84263949139984
 11
887.22319853952172
 21
692.74007210340812
  0
LINE
  8
_0-2_線色２__白__
  6
CONTINUOUS
 62
    7
 10
887.22319853952172
 20
692.74007210340812
 11
887.3613703987894
 21
692.55878709367209
  0
LINE
  8
_0-2_線色２__白__
  6
CONTINUOUS
 62
    7
 10
887.3613703987894
 20
692.55878709367209
 11
887.49148066580915
 21
692.37256241905186
  0
LINE
  8
_0-2_線色２__白__
  6
CONTINUOUS
 62
    7
 10
887.49148066580915
 20
692.37256241905186
 11
887.61470056779558
 21
692.18219635796288
  0
LINE
  8
_0-2_線色２__白__
  6
CONTINUOUS
 62
    7
 10
887.61470056779558
 20
692.18219635796288
 11
887.73220133196446
 21
691.98848718881948
  0
LINE
  8
_0-2_線色２__白__
  6
CONTINUOUS
 62
    7
 10
887.73220133196446
 20
691.98848718881948
 11
887.84515418553383
 21
691.79223319003597
  0
LINE
  8
_0-2_線色２__白__
  6
CONTINUOUS
 62
    7
 10
887.84515418553383
 20
691.79223319003597
 11
887.90904451239385
 21
691.6775543930072
  0
LINE
  8
_0-2_線色２__白__
  6
CONTINUOUS
 62
    7
 10
887.90904451239385
 20
691.6775543930072
 11
887.97631187989964
 21
691.5544878008717
  0
LINE
  8
_0-2_線色２__白__
  6
CONTINUOUS
 62
    7
 10
887.97631187989964
 20
691.5544878008717
 11
888.09029312110852
 21
691.34128104450326
  0
LINE
  8
_0-2_線色２__白__
  6
CONTINUOUS
 62
    7
 10
888.09029312110852
 20
691.34128104450326
 11
888.20240766947109
 21
691.12698404496598
  0
LINE
  8
_0-2_線色２__白__
  6
CONTINUOUS
 62
    7
 10
888.20240766947109
 20
691.12698404496598
 11
888.31342427871959
 21
690.91183478389155
  0
LINE
  8
_0-2_線色２__白__
  6
CONTINUOUS
 62
    7
 10
888.31342427871959
 20
690.91183478389155
 11
888.42411170257719
 21
690.69607124291167
  0
LINE
  8
_0-2_線色２__白__
  6
CONTINUOUS
 62
    7
 10
888.42411170257719
 20
690.69607124291167
 11
888.53523869477499
 21
690.47993140365577
  0
LINE
  8
_0-2_線色２__白__
  6
CONTINUOUS
 62
    7
 10
888.53523869477499
 20
690.47993140365577
 11
888.60019668940595
 21
690.354491654154
  0
LINE
  8
_0-2_線色２__白__
  6
CONTINUOUS
 62
    7
 10
888.60019668940595
 20
690.354491654154
 11
888.68861014358117
 21
690.18566347114813
  0
LINE
  8
_0-2_線色２__白__
  6
CONTINUOUS
 62
    7
 10
888.68861014358117
 20
690.18566347114813
 11
888.84511495951074
 21
689.89626770526058
  0
LINE
  8
_0-2_線色２__白__
  6
CONTINUOUS
 62
    7
 10
888.84511495951074
 20
689.89626770526058
 11
889.00933655273889
 21
689.61155952900924
  0
LINE
  8
_0-2_線色２__白__
  6
CONTINUOUS
 62
    7
 10
889.00933655273889
 20
689.61155952900924
 11
889.18426054012343
 21
689.33450610099214
  0
LINE
  8
_0-2_線色２__白__
  6
CONTINUOUS
 62
    7
 10
889.18426054012343
 20
689.33450610099214
 11
889.37287253852446
 21
689.06807457980506
  0
LINE
  8
_0-2_線色２__白__
  6
CONTINUOUS
 62
    7
 10
889.37287253852446
 20
689.06807457980506
 11
889.57815816479979
 21
688.81523212404716
  0
LINE
  8
_0-2_線色２__白__
  6
CONTINUOUS
 62
    7
 10
889.57815816479979
 20
688.81523212404716
 11
889.70604017262531
 21
688.67597922426683
  0
LINE
  8
_0-2_線色２__白__
  6
CONTINUOUS
 62
    7
 10
889.70604017262531
 20
688.67597922426683
 11
889.7522553449312
 21
688.62887421835637
  0
LINE
  8
_0-2_線色２__白__
  6
CONTINUOUS
 62
    7
 10
889.7522553449312
 20
688.62887421835637
 11
889.83395460647102
 21
688.5495291233218
  0
LINE
  8
_0-2_線色２__白__
  6
CONTINUOUS
 62
    7
 10
889.83395460647102
 20
688.5495291233218
 11
889.91815699880135
 21
688.47272901387953
  0
LINE
  8
_0-2_線色２__白__
  6
CONTINUOUS
 62
    7
 10
889.91815699880135
 20
688.47272901387953
 11
890.00480297429704
 21
688.3986801105533
  0
LINE
  8
_0-2_線色２__白__
  6
CONTINUOUS
 62
    7
 10
890.00480297429704
 20
688.3986801105533
 11
890.09383298533294
 21
688.32758863386459
  0
LINE
  8
_0-2_線色２__白__
  6
CONTINUOUS
 62
    7
 10
890.09383298533294
 20
688.32758863386459
 11
890.18518748428392
 21
688.25966080433489
  0
LINE
  8
_0-2_線色２__白__
  6
CONTINUOUS
 62
    7
 10
890.18518748428392
 20
688.25966080433489
 11
890.23921470917912
 21
688.22179350794443
  0
LINE
  8
_0-2_線色２__白__
  6
CONTINUOUS
 62
    7
 10
890.23921470917912
 20
688.22179350794443
 11
890.32881612026586
 21
688.16250081756664
  0
LINE
  8
_0-2_線色２__白__
  6
CONTINUOUS
 62
    7
 10
890.32881612026586
 20
688.16250081756664
 11
890.48700756443736
 21
688.06608755337095
  0
LINE
  8
_0-2_線色２__白__
  6
CONTINUOUS
 62
    7
 10
890.48700756443736
 20
688.06608755337095
 11
890.64841885146961
 21
687.97475914430095
  0
LINE
  8
_0-2_線色２__白__
  6
CONTINUOUS
 62
    7
 10
890.64841885146961
 20
687.97475914430095
 11
890.81133879976278
 21
687.88586843584937
  0
LINE
  8
_0-2_線色２__白__
  6
CONTINUOUS
 62
    7
 10
890.81133879976278
 20
687.88586843584937
 11
890.97405622771589
 21
687.79676827351352
  0
LINE
  8
_0-2_線色２__白__
  6
CONTINUOUS
 62
    7
 10
890.97405622771589
 20
687.79676827351352
 11
891.13485995372798
 21
687.7048115027884
  0
LINE
  8
_0-2_線色２__白__
  6
CONTINUOUS
 62
    7
 10
891.13485995372798
 20
687.7048115027884
 11
891.2265749620542
 21
687.64912456127661
  0
LINE
  8
_0-2_線色２__白__
  6
CONTINUOUS
 62
    7
 10
891.2265749620542
 20
687.64912456127661
 11
891.3189859544525
 21
687.5897597914053
  0
LINE
  8
_0-2_線色２__白__
  6
CONTINUOUS
 62
    7
 10
891.3189859544525
 20
687.5897597914053
 11
891.47492895660662
 21
687.48225802963645
  0
LINE
  8
_0-2_線色２__白__
  6
CONTINUOUS
 62
    7
 10
891.47492895660662
 20
687.48225802963645
 11
891.62725149882817
 21
687.36927483966781
  0
LINE
  8
_0-2_線色２__白__
  6
CONTINUOUS
 62
    7
 10
891.62725149882817
 20
687.36927483966781
 11
891.77672798756248
 21
687.25201478727229
  0
LINE
  8
_0-2_線色２__白__
  6
CONTINUOUS
 62
    7
 10
891.77672798756248
 20
687.25201478727229
 11
891.924132829256
 21
687.13168243822508
  0
LINE
  8
_0-2_線色２__白__
  6
CONTINUOUS
 62
    7
 10
891.924132829256
 20
687.13168243822508
 11
892.0702404303529
 21
687.00948235829912
  0
LINE
  8
_0-2_線色２__白__
  6
CONTINUOUS
 62
    7
 10
892.0702404303529
 20
687.00948235829912
 11
892.154693599756
 21
686.93822517920637
  0
LINE
  8
_0-2_線色２__白__
  6
CONTINUOUS
 62
    7
 10
892.154693599756
 20
686.93822517920637
 11
892.26053546337425
 21
686.8487445953059
  0
LINE
  8
_0-2_線色２__白__
  6
CONTINUOUS
 62
    7
 10
892.26053546337425
 20
686.8487445953059
 11
892.44210824168476
 21
686.69366154151078
  0
LINE
  8
_0-2_線色２__白__
  6
CONTINUOUS
 62
    7
 10
892.44210824168476
 20
686.69366154151078
 11
892.62128289430848
 21
686.5362723732693
  0
LINE
  8
_0-2_線色２__白__
  6
CONTINUOUS
 62
    7
 10
892.62128289430848
 20
686.5362723732693
 11
892.79661502053386
 21
686.37508217534275
  0
LINE
  8
_0-2_線色２__白__
  6
CONTINUOUS
 62
    7
 10
892.79661502053386
 20
686.37508217534275
 11
892.9666602196437
 21
686.20859603249471
  0
LINE
  8
_0-2_線色２__白__
  6
CONTINUOUS
 62
    7
 10
892.9666602196437
 20
686.20859603249471
 11
893.12997409092304
 21
686.03531902948419
  0
LINE
  8
_0-2_線色２__白__
  6
CONTINUOUS
 62
    7
 10
893.12997409092304
 20
686.03531902948419
 11
893.22104267286136
 21
685.93111772127429
  0
LINE
  8
_0-2_線色２__白__
  6
CONTINUOUS
 62
    7
 10
893.22104267286136
 20
685.93111772127429
 11
893.27270194549783
 21
685.86903044575081
  0
LINE
  8
_0-2_線色２__白__
  6
CONTINUOUS
 62
    7
 10
893.27270194549783
 20
685.86903044575081
 11
893.35902705580338
 21
685.75955770591406
  0
LINE
  8
_0-2_線色２__白__
  6
CONTINUOUS
 62
    7
 10
893.35902705580338
 20
685.75955770591406
 11
893.44138692793649
 21
685.64705644815433
  0
LINE
  8
_0-2_線色２__白__
  6
CONTINUOUS
 62
    7
 10
893.44138692793649
 20
685.64705644815433
 11
893.51920761868087
 21
685.53157551544189
  0
LINE
  8
_0-2_線色２__白__
  6
CONTINUOUS
 62
    7
 10
893.51920761868087
 20
685.53157551544189
 11
893.59191518482476
 21
685.41316375074928
  0
LINE
  8
_0-2_線色２__白__
  6
CONTINUOUS
 62
    7
 10
893.59191518482476
 20
685.41316375074928
 11
893.65893568315414
 21
685.29186999704677
  0
LINE
  8
_0-2_線色２__白__
  6
CONTINUOUS
 62
    7
 10
893.65893568315414
 20
685.29186999704677
 11
893.6949755942419
 21
685.22021833920405
  0
LINE
  8
_0-2_線色２__白__
  6
CONTINUOUS
 62
    7
 10
893.6949755942419
 20
685.22021833920405
 11
893.74162744759929
 21
685.11874244815374
  0
LINE
  8
_0-2_線色２__白__
  6
CONTINUOUS
 62
    7
 10
893.74162744759929
 20
685.11874244815374
 11
893.81311420595011
 21
684.93997806910272
  0
LINE
  8
_0-2_線色２__白__
  6
CONTINUOUS
 62
    7
 10
893.81311420595011
 20
684.93997806910272
 11
893.87506554457332
 21
684.75715765095458
  0
LINE
  8
_0-2_線色２__白__
  6
CONTINUOUS
 62
    7
 10
893.87506554457332
 20
684.75715765095458
 11
893.92956343284141
 21
684.57116679176522
  0
LINE
  8
_0-2_線色２__白__
  6
CONTINUOUS
 62
    7
 10
893.92956343284141
 20
684.57116679176522
 11
893.97868984012916
 21
684.38289108958941
  0
LINE
  8
_0-2_線色２__白__
  6
CONTINUOUS
 62
    7
 10
893.97868984012916
 20
684.38289108958941
 11
894.02452673580683
 21
684.19321614248645
  0
LINE
  8
_0-2_線色２__白__
  6
CONTINUOUS
 62
    7
 10
894.02452673580683
 20
684.19321614248645
 11
894.05042528527702
 21
684.08291251082517
  0
LINE
  8
_0-4_線色４__黄__
  6
CONTINUOUS
 62
    2
 10
877.30541735572842
 20
689.08291251082517
 11
883.30254942266151
 21
689.08291251082517
  0
LINE
  8
_0-2_線色２__白__
  6
CONTINUOUS
 62
    7
 10
827.68919319770816
 20
687.53406129775101
 11
827.68919319770816
 21
682.53406129775101
  0
LINE
  8
_0-2_線色２__白__
  6
CONTINUOUS
 62
    7
 10
825.9684586629885
 20
687.53406129775101
 11
871.41313493152666
 21
687.53406129775101
  0
LINE
  8
_0-2_線色２__白__
  6
CONTINUOUS
 62
    7
 10
871.41313493152666
 20
687.53406129775101
 11
875.46448350748165
 21
684.08291251082517
  0
LINE
  8
_0-2_線色２__白__
  6
CONTINUOUS
 62
    7
 10
875.46448350748165
 20
684.08291251082517
 11
883.30254942266151
 21
684.08291251082517
  0
LINE
  8
_0-2_線色２__白__
  6
CONTINUOUS
 62
    7
 10
872.6085367064195
 20
679.9475531743343
 11
873.62354965923487
 21
679.08291251082517
  0
ARC
  8
_0-2_線色２__白__
  6
CONTINUOUS
 62
    7
 10
825.9684586629885
 20
695.53406129775055
 40
8
 50
190.00000000000517
 51
270
  0
ARC
  8
_0-4_線色４__黄__
  6
CONTINUOUS
 62
    2
 10
812.10359921006898
 20
695.27043102558252
 40
10.700000000000003
 50
10.000000000005956
 51
42.273689006096653
  0
LINE
  8
_0-2_線色２__白__
  6
CONTINUOUS
 62
    7
 10
815.19707335643943
 20
700.34126865054589
 11
814.30914526836318
 21
701.31798954742919
  0
LINE
  8
_0-4_線色４__黄__
  6
CONTINUOUS
 62
    2
 10
883.30254942266151
 20
689.08291251082517
 11
883.30254942266151
 21
684.08291251082517
  0
LINE
  8
_0-4_線色４__黄__
  6
CONTINUOUS
 62
    2
 10
883.30254942266151
 20
684.08291251082517
 11
1040.835115368357
 21
684.08291251082517
  0
LINE
  8
_0-4_線色４__黄__
  6
CONTINUOUS
 62
    2
 10
820.02095799540484
 20
702.46802992134405
 11
819.30914526836659
 21
703.2510239210859
  0
LINE
  8
ADD_LINE
  6
DOT
 62
    4
 10
846.83037695969915
 20
599.41469663579994
 11
846.83037695969915
 21
689.0314163784177
  0
LINE
  8
_0-7_ビス
  6
CONTINUOUS
 62
    7
 10
852.83037695969938
 20
682.14944591313554
 11
852.83037695969938
 21
682.53406129775101
  0
LINE
  8
_0-7_ビス
  6
DASHED3
 62
    7
 10
848.29784507595434
 20
679.98469176692367
 11
849.38039279584814
 21
682.53406129775101
  0
LINE
  8
_0-7_ビス
  6
CONTINUOUS
 62
    7
 10
840.83037695969949
 20
682.14944591313554
 11
840.83037695969949
 21
682.53406129775101
  0
LINE
  8
_0-7_ビス
  6
DASHED3
 62
    7
 10
845.36290884344453
 20
679.98469176692367
 11
844.28036112355073
 21
682.53406129775101
  0
LINE
  8
_0-7_ビス
  6
CONTINUOUS
 62
    7
 10
852.83037695969938
 20
682.14944591313554
 11
840.83037695969949
 21
682.14944591313554
  0
LINE
  8
_0-7_ビス
  6
CONTINUOUS
 62
    7
 10
852.83037695969938
 20
682.53406129775101
 11
840.83037695969949
 21
682.53406129775101
  0
ARC
  8
_0-7_ビス
  6
DASHED3
 62
    7
 10
846.83037695969915
 20
681.09523486519095
 40
1.8403175392666382
 50
217.11750793457031
 51
322.88247680664062
  0
LINE
  8
_0-7_ビス
  6
CONTINUOUS
 62
    7
 10
850.91616339732582
 20
680.23523235076198
 11
852.83037695969938
 21
682.14944591313554
  0
ARC
  8
_0-7_ビス
  6
CONTINUOUS
 62
    7
 10
852.3303769596987
 20
678.8210187883891
 40
2
 50
135.00000000000153
 51
180.00000000000003
  0
LINE
  8
_0-7_ビス
  6
CONTINUOUS
 62
    7
 10
842.74459052207249
 20
680.23523235076198
 11
840.83037695969892
 21
682.14944591313554
  0
ARC
  8
_0-7_ビス
  6
CONTINUOUS
 62
    7
 10
841.33037695969961
 20
678.8210187883891
 40
2
 50
0
 51
44.999999999998501
  0
LINE
  8
_0-7_ビス
  6
CONTINUOUS
 62
    7
 10
850.33037695969938
 20
678.53406129775124
 11
843.33037695969892
 21
678.53406129775124
  0
LINE
  8
_0-7_ビス
  6
CONTINUOUS
 62
    7
 10
843.33037695969892
 20
609.55478723991462
 11
846.83037695969915
 21
607.53406129775101
  0
LINE
  8
_0-7_ビス
  6
CONTINUOUS
 62
    7
 10
843.33037695969892
 20
678.8210187883891
 11
843.33037695969892
 21
609.55478723991462
  0
LINE
  8
_0-7_ビス
  6
CONTINUOUS
 62
    7
 10
850.33037695969938
 20
613.03406129775169
 11
843.33037695969892
 21
613.03406129775169
  0
LINE
  8
_0-7_ビス
  6
CONTINUOUS
 62
    7
 10
850.33037695969938
 20
609.55478723991462
 11
846.83037695969915
 21
607.53406129775101
  0
LINE
  8
_0-7_ビス
  6
CONTINUOUS
 62
    7
 10
850.33037695969938
 20
678.8210187883891
 11
850.33037695969938
 21
609.55478723991462
  0
LINE
  8
_0-7_ビス
  6
CONTINUOUS
 62
    7
 10
850.33037695969938
 20
667.53406129775101
 11
843.33037695969892
 21
667.53406129775101
  0
LINE
  8
_0-7_ビス
  6
CONTINUOUS
 62
    4
 10
843.33037695969892
 20
666.33425793835784
 11
847.80795740163967
 21
667.53406129775101
  0
LINE
  8
_0-7_ビス
  6
CONTINUOUS
 62
    4
 10
843.33037695969892
 20
654.02803740898037
 11
850.33037695969938
 21
655.90374318906868
  0
LINE
  8
_0-7_ビス
  6
CONTINUOUS
 62
    4
 10
843.33037695969892
 20
656.02803740898082
 11
850.33037695969938
 21
657.90374318906913
  0
LINE
  8
_0-7_ビス
  6
CONTINUOUS
 62
    4
 10
843.33037695969892
 20
658.02803740898014
 11
850.33037695969938
 21
659.90374318906845
  0
LINE
  8
_0-7_ビス
  6
CONTINUOUS
 62
    4
 10
843.33037695969892
 20
660.02803740898059
 11
850.33037695969938
 21
661.9037431890689
  0
LINE
  8
_0-7_ビス
  6
CONTINUOUS
 62
    4
 10
843.33037695969892
 20
662.02803740897991
 11
850.33037695969938
 21
663.90374318906936
  0
LINE
  8
_0-7_ビス
  6
CONTINUOUS
 62
    4
 10
843.33037695969892
 20
664.02803740898037
 11
850.33037695969938
 21
665.90374318906981
  0
LINE
  8
_0-7_ビス
  6
CONTINUOUS
 62
    4
 10
843.33037695969892
 20
641.72181687960403
 11
850.33037695969938
 21
643.59752265969234
  0
LINE
  8
_0-7_ビス
  6
CONTINUOUS
 62
    4
 10
843.33037695969892
 20
643.72181687960335
 11
850.33037695969938
 21
645.59752265969166
  0
LINE
  8
_0-7_ビス
  6
CONTINUOUS
 62
    4
 10
843.33037695969892
 20
645.72181687960381
 11
850.33037695969938
 21
647.59752265969212
  0
LINE
  8
_0-7_ビス
  6
CONTINUOUS
 62
    4
 10
843.33037695969892
 20
647.72181687960313
 11
850.33037695969938
 21
649.59752265969257
  0
LINE
  8
_0-7_ビス
  6
CONTINUOUS
 62
    4
 10
843.33037695969892
 20
649.72181687960358
 11
850.33037695969938
 21
651.59752265969189
  0
LINE
  8
_0-7_ビス
  6
CONTINUOUS
 62
    4
 10
843.33037695969892
 20
651.72181687960403
 11
850.33037695969938
 21
653.59752265969234
  0
LINE
  8
_0-7_ビス
  6
CONTINUOUS
 62
    4
 10
843.33037695969892
 20
629.41559635022656
 11
850.33037695969938
 21
631.29130213031488
  0
LINE
  8
_0-7_ビス
  6
CONTINUOUS
 62
    4
 10
843.33037695969892
 20
631.41559635022702
 11
850.33037695969938
 21
633.29130213031533
  0
LINE
  8
_0-7_ビス
  6
CONTINUOUS
 62
    4
 10
843.33037695969892
 20
633.41559635022634
 11
850.33037695969938
 21
635.29130213031465
  0
LINE
  8
_0-7_ビス
  6
CONTINUOUS
 62
    4
 10
843.33037695969892
 20
635.41559635022679
 11
850.33037695969938
 21
637.2913021303151
  0
LINE
  8
_0-7_ビス
  6
CONTINUOUS
 62
    4
 10
843.33037695969892
 20
637.41559635022611
 11
850.33037695969938
 21
639.29130213031556
  0
LINE
  8
_0-7_ビス
  6
CONTINUOUS
 62
    4
 10
843.33037695969892
 20
639.41559635022656
 11
850.33037695969938
 21
641.29130213031601
  0
LINE
  8
_0-7_ビス
  6
CONTINUOUS
 62
    4
 10
843.33037695969892
 20
617.10937582085023
 11
850.33037695969938
 21
618.98508160093854
  0
LINE
  8
_0-7_ビス
  6
CONTINUOUS
 62
    4
 10
843.33037695969892
 20
619.10937582084955
 11
850.33037695969938
 21
620.98508160093786
  0
LINE
  8
_0-7_ビス
  6
CONTINUOUS
 62
    4
 10
843.33037695969892
 20
621.10937582085
 11
850.33037695969938
 21
622.98508160093832
  0
LINE
  8
_0-7_ビス
  6
CONTINUOUS
 62
    4
 10
843.33037695969892
 20
623.10937582084932
 11
850.33037695969938
 21
624.98508160093877
  0
LINE
  8
_0-7_ビス
  6
CONTINUOUS
 62
    4
 10
843.33037695969892
 20
625.10937582084978
 11
850.33037695969938
 21
626.98508160093809
  0
LINE
  8
_0-7_ビス
  6
CONTINUOUS
 62
    4
 10
843.33037695969892
 20
627.10937582085023
 11
850.33037695969938
 21
628.98508160093854
  0
LINE
  8
_0-7_ビス
  6
CONTINUOUS
 62
    4
 10
843.33037695969892
 20
614.80315529147276
 11
850.33037695969938
 21
616.67886107156221
  0
LINE
  8
_0-7_ビス
  6
CONTINUOUS
 62
    4
 10
844.19210168279164
 20
613.03406129775169
 11
850.33037695969938
 21
614.67886107156176
  0
LINE
  8
ADD_LINE
  6
DOT
 62
    4
 10
1219.8912885770278
 20
599.41469663579994
 11
1219.8912885770278
 21
689.0314163784177
  0
LINE
  8
_0-7_ビス
  6
CONTINUOUS
 62
    7
 10
1225.891288577028
 20
682.14944591313554
 11
1225.891288577028
 21
682.53406129775101
  0
LINE
  8
_0-7_ビス
  6
DASHED3
 62
    7
 10
1221.3587566932829
 20
679.98469176692367
 11
1222.4413044131768
 21
682.53406129775101
  0
LINE
  8
_0-7_ビス
  6
CONTINUOUS
 62
    7
 10
1213.8912885770283
 20
682.14944591313554
 11
1213.8912885770283
 21
682.53406129775101
  0
LINE
  8
_0-7_ビス
  6
DASHED3
 62
    7
 10
1218.4238204607732
 20
679.98469176692367
 11
1217.3412727408795
 21
682.53406129775101
  0
LINE
  8
_0-7_ビス
  6
CONTINUOUS
 62
    7
 10
1225.891288577028
 20
682.14944591313554
 11
1213.8912885770283
 21
682.14944591313554
  0
LINE
  8
_0-7_ビス
  6
CONTINUOUS
 62
    7
 10
1225.891288577028
 20
682.53406129775101
 11
1213.8912885770283
 21
682.53406129775101
  0
ARC
  8
_0-7_ビス
  6
DASHED3
 62
    7
 10
1219.8912885770278
 20
681.09523486519095
 40
1.8403175392666382
 50
217.11750793457031
 51
322.88247680664062
  0
LINE
  8
_0-7_ビス
  6
CONTINUOUS
 62
    7
 10
1223.9770750146545
 20
680.23523235076198
 11
1225.891288577028
 21
682.14944591313554
  0
ARC
  8
_0-7_ビス
  6
CONTINUOUS
 62
    7
 10
1225.3912885770274
 20
678.8210187883891
 40
2
 50
135.00000000000153
 51
180.00000000000003
  0
LINE
  8
_0-7_ビス
  6
CONTINUOUS
 62
    7
 10
1215.8055021394011
 20
680.23523235076198
 11
1213.8912885770276
 21
682.14944591313554
  0
ARC
  8
_0-7_ビス
  6
CONTINUOUS
 62
    7
 10
1214.3912885770283
 20
678.8210187883891
 40
2
 50
0
 51
44.999999999998501
  0
LINE
  8
_0-7_ビス
  6
CONTINUOUS
 62
    7
 10
1223.391288577028
 20
678.53406129775124
 11
1216.3912885770276
 21
678.53406129775124
  0
LINE
  8
_0-7_ビス
  6
CONTINUOUS
 62
    7
 10
1216.3912885770276
 20
609.55478723991462
 11
1219.8912885770278
 21
607.53406129775101
  0
LINE
  8
_0-7_ビス
  6
CONTINUOUS
 62
    7
 10
1216.3912885770276
 20
678.8210187883891
 11
1216.3912885770276
 21
609.55478723991462
  0
LINE
  8
_0-7_ビス
  6
CONTINUOUS
 62
    7
 10
1223.391288577028
 20
613.03406129775169
 11
1216.3912885770276
 21
613.03406129775169
  0
LINE
  8
_0-7_ビス
  6
CONTINUOUS
 62
    7
 10
1223.391288577028
 20
609.55478723991462
 11
1219.8912885770278
 21
607.53406129775101
  0
LINE
  8
_0-7_ビス
  6
CONTINUOUS
 62
    7
 10
1223.391288577028
 20
678.8210187883891
 11
1223.391288577028
 21
609.55478723991462
  0
LINE
  8
_0-7_ビス
  6
CONTINUOUS
 62
    7
 10
1223.391288577028
 20
667.53406129775101
 11
1216.3912885770276
 21
667.53406129775101
  0
LINE
  8
_0-7_ビス
  6
CONTINUOUS
 62
    4
 10
1216.3912885770276
 20
666.33425793835784
 11
1220.8688690189683
 21
667.53406129775101
  0
LINE
  8
_0-7_ビス
  6
CONTINUOUS
 62
    4
 10
1216.3912885770276
 20
654.02803740898037
 11
1223.391288577028
 21
655.90374318906868
  0
LINE
  8
_0-7_ビス
  6
CONTINUOUS
 62
    4
 10
1216.3912885770276
 20
656.02803740898082
 11
1223.391288577028
 21
657.90374318906913
  0
LINE
  8
_0-7_ビス
  6
CONTINUOUS
 62
    4
 10
1216.3912885770276
 20
658.02803740898014
 11
1223.391288577028
 21
659.90374318906845
  0
LINE
  8
_0-7_ビス
  6
CONTINUOUS
 62
    4
 10
1216.3912885770276
 20
660.02803740898059
 11
1223.391288577028
 21
661.9037431890689
  0
LINE
  8
_0-7_ビス
  6
CONTINUOUS
 62
    4
 10
1216.3912885770276
 20
662.02803740897991
 11
1223.391288577028
 21
663.90374318906936
  0
LINE
  8
_0-7_ビス
  6
CONTINUOUS
 62
    4
 10
1216.3912885770276
 20
664.02803740898037
 11
1223.391288577028
 21
665.90374318906981
  0
LINE
  8
_0-7_ビス
  6
CONTINUOUS
 62
    4
 10
1216.3912885770276
 20
641.72181687960403
 11
1223.391288577028
 21
643.59752265969234
  0
LINE
  8
_0-7_ビス
  6
CONTINUOUS
 62
    4
 10
1216.3912885770276
 20
643.72181687960335
 11
1223.391288577028
 21
645.59752265969166
  0
LINE
  8
_0-7_ビス
  6
CONTINUOUS
 62
    4
 10
1216.3912885770276
 20
645.72181687960381
 11
1223.391288577028
 21
647.59752265969212
  0
LINE
  8
_0-7_ビス
  6
CONTINUOUS
 62
    4
 10
1216.3912885770276
 20
647.72181687960313
 11
1223.391288577028
 21
649.59752265969257
  0
LINE
  8
_0-7_ビス
  6
CONTINUOUS
 62
    4
 10
1216.3912885770276
 20
649.72181687960358
 11
1223.391288577028
 21
651.59752265969189
  0
LINE
  8
_0-7_ビス
  6
CONTINUOUS
 62
    4
 10
1216.3912885770276
 20
651.72181687960403
 11
1223.391288577028
 21
653.59752265969234
  0
LINE
  8
_0-7_ビス
  6
CONTINUOUS
 62
    4
 10
1216.3912885770276
 20
629.41559635022656
 11
1223.391288577028
 21
631.29130213031488
  0
LINE
  8
_0-7_ビス
  6
CONTINUOUS
 62
    4
 10
1216.3912885770276
 20
631.41559635022702
 11
1223.391288577028
 21
633.29130213031533
  0
LINE
  8
_0-7_ビス
  6
CONTINUOUS
 62
    4
 10
1216.3912885770276
 20
633.41559635022634
 11
1223.391288577028
 21
635.29130213031465
  0
LINE
  8
_0-7_ビス
  6
CONTINUOUS
 62
    4
 10
1216.3912885770276
 20
635.41559635022679
 11
1223.391288577028
 21
637.2913021303151
  0
LINE
  8
_0-7_ビス
  6
CONTINUOUS
 62
    4
 10
1216.3912885770276
 20
637.41559635022611
 11
1223.391288577028
 21
639.29130213031556
  0
LINE
  8
_0-7_ビス
  6
CONTINUOUS
 62
    4
 10
1216.3912885770276
 20
639.41559635022656
 11
1223.391288577028
 21
641.29130213031601
  0
LINE
  8
_0-7_ビス
  6
CONTINUOUS
 62
    4
 10
1216.3912885770276
 20
617.10937582085023
 11
1223.391288577028
 21
618.98508160093854
  0
LINE
  8
_0-7_ビス
  6
CONTINUOUS
 62
    4
 10
1216.3912885770276
 20
619.10937582084955
 11
1223.391288577028
 21
620.98508160093786
  0
LINE
  8
_0-7_ビス
  6
CONTINUOUS
 62
    4
 10
1216.3912885770276
 20
621.10937582085
 11
1223.391288577028
 21
622.98508160093832
  0
LINE
  8
_0-7_ビス
  6
CONTINUOUS
 62
    4
 10
1216.3912885770276
 20
623.10937582084932
 11
1223.391288577028
 21
624.98508160093877
  0
LINE
  8
_0-7_ビス
  6
CONTINUOUS
 62
    4
 10
1216.3912885770276
 20
625.10937582084978
 11
1223.391288577028
 21
626.98508160093809
  0
LINE
  8
_0-7_ビス
  6
CONTINUOUS
 62
    4
 10
1216.3912885770276
 20
627.10937582085023
 11
1223.391288577028
 21
628.98508160093854
  0
LINE
  8
_0-7_ビス
  6
CONTINUOUS
 62
    4
 10
1216.3912885770276
 20
614.80315529147276
 11
1223.391288577028
 21
616.67886107156221
  0
LINE
  8
_0-7_ビス
  6
CONTINUOUS
 62
    4
 10
1217.2530133001203
 20
613.03406129775169
 11
1223.391288577028
 21
614.67886107156176
  0
LINE
  8
_0-a_文字
  6
CONTINUOUS
 62
    7
 10
849.30914526836943
 20
909.08291251082517
 11
869.30914526836943
 21
909.08291251082517
  0
LINE
  8
_0-a_文字
  6
CONTINUOUS
 62
    7
 10
834.87538853862873
 20
884.08291251082517
 11
869.30914526836943
 21
884.08291251082517
  0
LINE
  8
_0-a_文字
  6
CONTINUOUS
 62
    7
 10
806.01908162744905
 20
834.102322821862
 11
849.30914526836943
 21
909.08291251082517
  0
LINE
  8
_0-a_文字
  6
CONTINUOUS
 62
    7
 10
1217.8798764829703
 20
709.08291251082517
 11
1197.8798764829703
 21
709.08291251082517
  0
LINE
  8
_0-a_文字
  6
CONTINUOUS
 62
    7
 10
1233.2078628775134
 20
682.53406129775101
 11
1217.8798764829703
 21
709.08291251082517
  0
TEXT
  8
_0-a_文字
 62
    7
 10
1102.8798764829685
 20
701.58291251082517
 40
14.999999999999957
 41
1.0000000000000064
 50
0
  1
ＢＰ－Ｈ３Ｎ
  0
LINE
  8
_0-a_文字
  6
CONTINUOUS
 62
    7
 10
1300.3120694471199
 20
834.08291251082517
 11
1320.3120694471199
 21
834.08291251082517
  0
TEXT
  8
_0-a_文字
 62
    7
 10
1325.3120694471199
 20
826.58291251082403
 40
15.000000000000302
 41
0.9999999999999773
 50
0
  1
特注塩ビ鋼板
  0
LINE
  8
_0-a_文字
  6
CONTINUOUS
 62
    7
 10
1270.5504706614051
 20
782.53431129948638
 11
1300.3120694471199
 21
834.08291251082517
  0
LINE
  8
_0-a_文字
  6
CONTINUOUS
 62
    7
 10
957.62135399029205
 20
759.08291251082517
 11
977.62135399029205
 21
759.08291251082517
  0
LINE
  8
_0-a_文字
  6
CONTINUOUS
 62
    7
 10
928.75384053081063
 20
709.08291251082517
 11
977.62135399029205
 21
709.08291251082517
  0
LINE
  8
_0-a_文字
  6
CONTINUOUS
 62
    7
 10
943.18759726055134
 20
734.08291251082517
 11
977.62135399029205
 21
734.08291251082517
  0
TEXT
  8
_0-a_文字
 62
    7
 10
982.62135399029205
 20
701.58291251082517
 40
15.000000000000091
 41
0.9999999999999903
 50
0
  1
断熱材
  0
TEXT
  8
_0-a_文字
 62
    7
 10
982.62135399029148
 20
726.58291251082574
 40
14.999999999999991
 41
1.0000000000000024
 50
0
  1
ラジアルシートＬ６００
  0
TEXT
  8
_0-a_文字
 62
    7
 10
982.62135399029205
 20
751.58291251082403
 40
15.00000000000008
 41
0.9999999999999945
 50
0
  1
塩ビシート機械的固定工法
  0
LINE
  8
_0-a_文字
  6
CONTINUOUS
 62
    7
 10
898.44295139835651
 20
656.58291251082517
 11
957.62135399029205
 21
759.08291251082517
  0
LINE
  8
_0-a_文字
  6
CONTINUOUS
 62
    7
 10
1295.5009335150935
 20
589.08291151255582
 11
1315.5009335150935
 21
589.08291151255582
  0
LINE
  8
_0-a_文字
  6
CONTINUOUS
 62
    7
 10
1266.6332751406924
 20
639.08316251256053
 11
1295.5009335150935
 21
589.08291151255582
  0
LINE
  8
_0-a_文字
  6
CONTINUOUS
 62
    7
 10
885.19546298867795
 20
691.05125963350872
 11
938.90731282055356
 21
784.08291251082517
  0
LINE
  8
_0-a_文字
  6
CONTINUOUS
 62
    7
 10
938.90731282055356
 20
784.08291251082517
 11
958.90731282055356
 21
784.08291251082517
  0
TEXT
  8
_0-a_文字
 62
    7
 10
963.90731282055413
 20
776.58291251082574
 40
14.999999999999858
 41
1.0000000000000053
 50
0
  1
プルーフシーラー
  0
TEXT
  8
_0-a_文字
 62
    7
 10
874.30914526837057
 20
901.58291251082517
 40
15.000000000000036
 41
0.9999999999999981
 50
0
  1
塩ビシート機械的固定工法
  0
TEXT
  8
_0-a_文字
 62
    7
 10
874.30914526836943
 20
876.58291251082574
 40
14.999999999999858
 41
1.0000000000000087
 50
0
  1
硬質木毛セメント板 等（別途工事）
  0
LINE
  8
_0-5_金属
  6
CONTINUOUS
 62
    7
 10
1026.7070403683574
 20
637.84451151429096
 11
1034.5991903683575
 21
626.96186151429117
  0
LINE
  8
_0-5_金属
  6
CONTINUOUS
 62
    7
 10
1032.0612403683567
 20
623.17341151429162
 11
1032.2603403683574
 21
623.18931151429126
  0
LINE
  8
_0-5_金属
  6
CONTINUOUS
 62
    7
 10
1032.1568903683574
 20
621.97726151429094
 11
1032.3561903683576
 21
621.9932115142916
  0
LINE
  8
_0-5_金属
  6
CONTINUOUS
 62
    7
 10
1025.7355903683579
 20
637.14001151429159
 11
1033.6277403683566
 21
626.25741151429168
  0
LINE
  8
_0-5_金属
  6
CONTINUOUS
 62
    7
 10
977.05529036835685
 20
639.08316151429119
 11
1024.2784403683577
 21
639.08316151429119
  0
LINE
  8
_0-5_金属
  6
CONTINUOUS
 62
    7
 10
977.05554036835736
 20
637.88321151429102
 11
1024.2784403683577
 21
637.88321151429102
  0
ARC
  8
_0-5_金属
  6
CONTINUOUS
 62
    7
 10
1032.0086403683576
 20
625.08316151429142
 40
3.1999969500000001
 50
0.000035
 51
35.949935000000004
  0
ARC
  8
_0-5_金属
  6
CONTINUOUS
 62
    7
 10
1032.0086403683576
 20
625.08316151429142
 40
1.9999961500000007
 50
0.000035
 51
35.949717000000007
  0
ARC
  8
_0-5_金属
  6
CONTINUOUS
 62
    7
 10
1032.4085403683575
 20
620.08316151429142
 40
2.0000114
 50
180.00009000000003
 51
216.07594000000003
  0
ARC
  8
_0-5_金属
  6
CONTINUOUS
 62
    7
 10
1032.308690368357
 20
620.08316151429142
 40
3.1000213500000005
 50
94.576591000000008
 51
179.99990000000003
  0
ARC
  8
_0-5_金属
  6
CONTINUOUS
 62
    7
 10
1032.1084903683568
 20
625.08316151429142
 40
3.0999907999999996
 50
274.58181000000002
 51
359.99996000000004
  0
ARC
  8
_0-5_金属
  6
CONTINUOUS
 62
    7
 10
1032.4085403683575
 20
620.08316151429142
 40
3.2000122000000002
 50
180.00009000000003
 51
215.78394000000003
  0
ARC
  8
_0-5_金属
  6
CONTINUOUS
 62
    7
 10
1032.1084903683568
 20
625.08316151429142
 40
1.8999938500000002
 50
274.57776999999999
 51
359.99995999999999
  0
ARC
  8
_0-5_金属
  6
CONTINUOUS
 62
    7
 10
1032.308690368357
 20
620.08316151429142
 40
1.9000091499999998
 50
94.580906999999996
 51
179.9999
  0
ARC
  8
_0-5_金属
  6
CONTINUOUS
 62
    7
 10
1024.2784403683577
 20
636.08316151429165
 40
1.7999992
 50
35.949661999999996
 51
89.999489999999994
  0
ARC
  8
_0-5_金属
  6
CONTINUOUS
 62
    7
 10
1024.2784403683577
 20
636.08316151429165
 40
3.0000000000000004
 50
35.949770999999998
 51
89.999654000000007
  0
LINE
  8
_0-5_金属
  6
CONTINUOUS
 62
    7
 10
813.3091903683578
 20
602.08316151429074
 11
827.10899036835826
 21
602.08316151429074
  0
LINE
  8
_0-5_金属
  6
CONTINUOUS
 62
    7
 10
828.20149036835801
 20
597.20826151429094
 11
824.76049036835775
 21
594.96356151429097
  0
LINE
  8
_0-5_金属
  6
CONTINUOUS
 62
    7
 10
828.85709036835806
 20
596.20321151429096
 11
825.41614036835767
 21
593.95856151429086
  0
LINE
  8
_0-5_金属
  6
CONTINUOUS
 62
    7
 10
813.3091903683578
 20
600.8832115142917
 11
827.10899036835826
 21
600.8832115142917
  0
LINE
  8
_0-5_金属
  6
CONTINUOUS
 62
    7
 10
796.3091452683642
 20
589.08316151429119
 11
946.3091452683642
 21
589.08316151429119
  0
LINE
  8
_0-5_金属
  6
CONTINUOUS
 62
    7
 10
892.01819036835786
 20
626.96196151429092
 11
899.91034036835799
 21
637.84451151429096
  0
LINE
  8
_0-5_金属
  6
CONTINUOUS
 62
    7
 10
896.80464036835815
 20
618.21221151429143
 11
876.70664036835774
 21
590.32916151429106
  0
LINE
  8
_0-5_金属
  6
CONTINUOUS
 62
    7
 10
894.35699036835786
 20
623.18941151429101
 11
894.55609036835767
 21
623.17346151429149
  0
LINE
  8
_0-5_金属
  6
CONTINUOUS
 62
    7
 10
894.26099036835808
 20
621.99311151429072
 11
894.46024036835752
 21
621.97711151429132
  0
LINE
  8
_0-5_金属
  6
CONTINUOUS
 62
    7
 10
895.83119036835797
 20
618.9138115142913
 11
875.73319036835755
 21
591.03081151429194
  0
LINE
  8
_0-5_金属
  6
CONTINUOUS
 62
    7
 10
892.98964036835741
 20
626.25751151429142
 11
900.88169036835779
 21
637.14001151429159
  0
LINE
  8
_0-5_金属
  6
CONTINUOUS
 62
    7
 10
826.50914036835729
 20
590.28336151429073
 11
874.27304036835835
 21
590.28336151429073
  0
LINE
  8
_0-5_金属
  6
CONTINUOUS
 62
    7
 10
902.33899036835737
 20
639.08316151429119
 11
949.56284036835712
 21
639.08316151429119
  0
LINE
  8
_0-5_金属
  6
CONTINUOUS
 62
    7
 10
902.33899036835737
 20
637.88321151429102
 11
949.56284036835712
 21
637.88321151429102
  0
LINE
  8
_0-5_金属
  6
CONTINUOUS
 62
    7
 10
799.50914036835798
 20
602.08316151429074
 11
813.3091903683578
 21
602.08316151429074
  0
LINE
  8
_0-5_金属
  6
CONTINUOUS
 62
    7
 10
799.50914036835798
 20
600.8832115142917
 11
813.3091903683578
 21
600.8832115142917
  0
LINE
  8
_0-5_金属
  6
CONTINUOUS
 62
    7
 10
797.50939036835803
 20
598.88321151429125
 11
797.50939036835803
 21
597.68326151429108
  0
LINE
  8
_0-5_金属
  6
CONTINUOUS
 62
    7
 10
796.30944036835785
 20
598.88321151429125
 11
796.30944036835785
 21
597.68326151429108
  0
LINE
  8
_0-5_金属
  6
CONTINUOUS
 62
    7
 10
797.15984036835835
 20
595.08366151429129
 11
798.12809036835802
 21
595.7928615142913
  0
LINE
  8
_0-5_金属
  6
CONTINUOUS
 62
    7
 10
796.30969036835722
 20
597.68331151429095
 11
800.70984036835853
 21
597.68331151429095
  0
LINE
  8
_0-5_金属
  6
CONTINUOUS
 62
    7
 10
800.70929036835764
 20
597.68331151429095
 11
797.15949036835809
 21
595.08326151429117
  0
LINE
  8
_0-5_金属
  6
CONTINUOUS
 62
    7
 10
962.03339036835757
 20
627.81271151429166
 11
951.68839036835777
 21
638.19996151429166
  0
LINE
  8
_0-5_金属
  6
CONTINUOUS
 62
    7
 10
961.18309036835797
 20
626.96591151429118
 11
950.8381403683569
 21
637.3531115142913
  0
LINE
  8
_0-5_金属
  6
CONTINUOUS
 62
    7
 10
974.92939036835708
 20
638.20021151429103
 11
964.58404036835702
 21
627.81266151429179
  0
LINE
  8
_0-5_金属
  6
CONTINUOUS
 62
    7
 10
975.77989036835731
 20
637.35341151429168
 11
965.43444036835751
 21
626.96571151429168
  0
ARC
  8
_0-5_金属
  6
CONTINUOUS
 62
    7
 10
826.50889036835792
 20
592.28336151429119
 40
3.2000007500000005
 50
123.11782000000001
 51
269.99982999999997
  0
ARC
  8
_0-5_金属
  6
CONTINUOUS
 62
    7
 10
827.10874036835776
 20
598.88321151429125
 40
3.1999998000000001
 50
0.000035
 51
89.999927
  0
ARC
  8
_0-5_金属
  6
CONTINUOUS
 62
    7
 10
827.10874036835776
 20
598.88321151429125
 40
1.9999990000000001
 50
0.000035
 51
89.999927
  0
ARC
  8
_0-5_金属
  6
CONTINUOUS
 62
    7
 10
826.50889036835792
 20
592.28336151429119
 40
2
 50
123.11782000000001
 51
269.99982999999997
  0
ARC
  8
_0-5_金属
  6
CONTINUOUS
 62
    7
 10
827.10874036835776
 20
598.88321151429125
 40
1.9999990000000001
 50
303.11781999999999
 51
359.99995999999999
  0
ARC
  8
_0-5_金属
  6
CONTINUOUS
 62
    7
 10
827.10874036835776
 20
598.88321151429125
 40
3.1999998000000001
 50
303.11781999999999
 51
359.99995999999999
  0
ARC
  8
_0-5_金属
  6
CONTINUOUS
 62
    7
 10
894.60874036835776
 20
625.08316151429142
 40
3.1999969500000001
 50
144.05005000000003
 51
179.99995999999999
  0
ARC
  8
_0-5_金属
  6
CONTINUOUS
 62
    7
 10
894.60874036835776
 20
625.08316151429142
 40
1.9999961500000007
 50
144.05027000000001
 51
179.99995999999999
  0
ARC
  8
_0-5_金属
  6
CONTINUOUS
 62
    7
 10
894.2085903683585
 20
620.08316151429142
 40
2.0000114
 50
323.92410000000001
 51
359.99995999999999
  0
ARC
  8
_0-5_金属
  6
CONTINUOUS
 62
    7
 10
894.30869036835816
 20
620.08316151429142
 40
3.1000213500000005
 50
0.000035
 51
85.42326300000002
  0
ARC
  8
_0-5_金属
  6
CONTINUOUS
 62
    7
 10
894.5086403683581
 20
625.08316151429142
 40
3.0999907999999996
 50
180.00009000000003
 51
265.41831999999999
  0
ARC
  8
_0-5_金属
  6
CONTINUOUS
 62
    7
 10
894.2085903683585
 20
620.08316151429142
 40
3.2000122000000002
 50
324.21611000000001
 51
359.99995999999999
  0
ARC
  8
_0-5_金属
  6
CONTINUOUS
 62
    7
 10
894.5086403683581
 20
625.08316151429142
 40
1.8999938500000002
 50
180.00009000000003
 51
265.42237
  0
ARC
  8
_0-5_金属
  6
CONTINUOUS
 62
    7
 10
894.30869036835816
 20
620.08316151429142
 40
1.9000091499999998
 50
0.000035
 51
85.418946000000005
  0
ARC
  8
_0-5_金属
  6
CONTINUOUS
 62
    7
 10
874.27304036835835
 20
592.08341151429124
 40
1.7999992
 50
269.99990000000003
 51
324.21600000000001
  0
ARC
  8
_0-5_金属
  6
CONTINUOUS
 62
    7
 10
874.27304036835835
 20
592.08341151429124
 40
2.9999989999999999
 50
269.99990000000003
 51
324.21600000000001
  0
ARC
  8
_0-5_金属
  6
CONTINUOUS
 62
    7
 10
902.338740368358
 20
636.08316151429165
 40
1.7999992
 50
90.000364000000005
 51
144.05026999999998
  0
ARC
  8
_0-5_金属
  6
CONTINUOUS
 62
    7
 10
902.338740368358
 20
636.08316151429165
 40
3.0000000000000004
 50
90.000200000000021
 51
144.05016000000001
  0
ARC
  8
_0-5_金属
  6
CONTINUOUS
 62
    7
 10
799.50889036835861
 20
598.88321151429125
 40
3.1999998000000001
 50
89.999927
 51
179.99990000000003
  0
ARC
  8
_0-5_金属
  6
CONTINUOUS
 62
    7
 10
799.50889036835861
 20
598.88321151429125
 40
1.9999990000000001
 50
89.999927
 51
179.99990000000003
  0
ARC
  8
_0-5_金属
  6
CONTINUOUS
 62
    7
 10
800.70934036835752
 20
597.68326151429108
 40
3.2001952999999999
 50
180.00009000000003
 51
216.22260000000003
  0
ARC
  8
_0-5_金属
  6
CONTINUOUS
 62
    7
 10
800.70934036835752
 20
597.68326151429108
 40
4.4001951000000004
 50
180.00009000000003
 51
216.22041000000002
  0
ARC
  8
_0-5_金属
  6
CONTINUOUS
 62
    7
 10
963.30869036835736
 20
629.08291151429182
 40
2.9999989999999999
 50
224.88328000000001
 51
315.11669999999998
  0
ARC
  8
_0-5_金属
  6
CONTINUOUS
 62
    7
 10
963.30869036835736
 20
629.08291151429182
 40
1.79999825
 50
224.57187999999999
 51
315.11669999999998
  0
ARC
  8
_0-5_金属
  6
CONTINUOUS
 62
    7
 10
949.56259036835661
 20
636.08316151429165
 40
1.7999992
 50
44.880642999999999
 51
89.996648000000008
  0
ARC
  8
_0-5_金属
  6
CONTINUOUS
 62
    7
 10
949.56259036835661
 20
636.08316151429165
 40
3.0000000000000004
 50
44.881701999999997
 51
89.998013999999998
  0
ARC
  8
_0-5_金属
  6
CONTINUOUS
 62
    7
 10
977.05504036835748
 20
636.08316151429165
 40
3.0000000000000004
 50
89.997741000000005
 51
135.11528999999999
  0
ARC
  8
_0-5_金属
  6
CONTINUOUS
 62
    7
 10
977.05529036835685
 20
636.08316151429165
 40
1.7999992
 50
89.999435000000005
 51
135.11660000000001
  0
LINE
  8
ADD_LINE
  6
DOT
 62
    4
 10
813.30799036835856
 20
620.79521151429105
 11
813.30799036835856
 21
544.69600287768742
  0
LINE
  8
ADD_LINE
  6
DOT
 62
    4
 10
963.30829036835723
 20
655.1767115142917
 11
963.30829036835723
 21
544.69600287768742
  0
LINE
  8
_0-5_金属
  6
CONTINUOUS
 62
    7
 10
1040.835115368357
 20
602.92015233024756
 11
1029.8126903683574
 21
618.21221151429143
  0
LINE
  8
_0-5_金属
  6
CONTINUOUS
 62
    7
 10
1040.835115368357
 20
604.972386514292
 11
1030.7861403683573
 21
618.91391151429104
  0
LINE
  8
_0-5_金属
  6
CONTINUOUS
 62
    7
 10
1059.3212153683571
 20
626.96201151429079
 11
1067.2133653683572
 21
637.8446115142907
  0
LINE
  8
_0-5_金属
  6
CONTINUOUS
 62
    7
 10
1061.6603153683577
 20
623.18931151429126
 11
1061.8591653683579
 21
623.17341151429162
  0
LINE
  8
_0-5_金属
  6
CONTINUOUS
 62
    7
 10
1061.5642153683571
 20
621.99316151429173
 11
1061.7637653683578
 21
621.9771615142912
  0
LINE
  8
_0-5_金属
  6
CONTINUOUS
 62
    7
 10
1060.292615368357
 20
626.25751151429142
 11
1068.1846153683573
 21
637.13996151429171
  0
LINE
  8
_0-5_金属
  6
CONTINUOUS
 62
    7
 10
1069.6421153683577
 20
639.08316151429119
 11
1116.8706153683574
 21
639.08291151429182
  0
LINE
  8
_0-5_金属
  6
CONTINUOUS
 62
    7
 10
1069.6421153683577
 20
637.88321151429102
 11
1116.9188653683573
 21
637.88321151429102
  0
ARC
  8
_0-5_金属
  6
CONTINUOUS
 62
    7
 10
1061.9116653683573
 20
625.08316151429142
 40
3.1999969500000001
 50
144.05005000000003
 51
179.99995999999999
  0
ARC
  8
_0-5_金属
  6
CONTINUOUS
 62
    7
 10
1061.9116653683573
 20
625.08316151429142
 40
1.9999961500000007
 50
144.05027000000001
 51
179.99995999999999
  0
ARC
  8
_0-5_金属
  6
CONTINUOUS
 62
    7
 10
1061.5117653683574
 20
620.08341151429079
 40
2.0000114
 50
323.92412999999999
 51
359.99997999999999
  0
ARC
  8
_0-5_金属
  6
CONTINUOUS
 62
    7
 10
1061.6116153683565
 20
620.08316151429142
 40
3.1000213500000005
 50
359.99999000000003
 51
85.42326300000002
  0
ARC
  8
_0-5_金属
  6
CONTINUOUS
 62
    7
 10
1061.8117653683571
 20
625.08316151429142
 40
3.0999907999999996
 50
180.00009000000003
 51
265.41831999999999
  0
ARC
  8
_0-5_金属
  6
CONTINUOUS
 62
    7
 10
1061.5117653683574
 20
620.08341151429079
 40
3.2000122000000002
 50
324.21614
 51
359.99997999999999
  0
ARC
  8
_0-5_金属
  6
CONTINUOUS
 62
    7
 10
1061.8117653683571
 20
625.08316151429142
 40
1.8999938500000002
 50
180.00009000000003
 51
265.42237
  0
ARC
  8
_0-5_金属
  6
CONTINUOUS
 62
    7
 10
1061.6116153683565
 20
620.08316151429142
 40
1.9000091499999998
 50
359.99999000000003
 51
85.418945999999991
  0
ARC
  8
_0-5_金属
  6
CONTINUOUS
 62
    7
 10
1069.6418653683572
 20
636.08316151429165
 40
1.7999992
 50
90.000364000000005
 51
144.05026999999998
  0
ARC
  8
_0-5_金属
  6
CONTINUOUS
 62
    7
 10
1069.6418653683572
 20
636.08316151429165
 40
3.0000000000000004
 50
90.000200000000021
 51
144.05016000000001
  0
ARC
  8
_0-5_金属
  6
CONTINUOUS
 62
    7
 10
1268.0115153683578
 20
597.68326151429108
 40
3.1999511500000004
 50
90.048575231417729
 51
259.48472999999996
  0
LINE
  8
_0-5_金属
  6
CONTINUOUS
 62
    7
 10
1113.6125202683634
 20
589.08316151429119
 11
1268.6113653683578
 21
589.08316151429119
  0
LINE
  8
_0-5_金属
  6
CONTINUOUS
 62
    7
 10
1194.0098653683576
 20
637.84436151429134
 11
1201.9020153683578
 21
626.96176151429142
  0
LINE
  8
_0-5_金属
  6
CONTINUOUS
 62
    7
 10
1217.2135653683581
 20
590.32926151429081
 11
1197.1156153683573
 21
618.2122615142913
  0
LINE
  8
_0-5_金属
  6
CONTINUOUS
 62
    7
 10
1199.364165368358
 20
623.17346151429149
 11
1199.5632153683578
 21
623.18936151429114
  0
LINE
  8
_0-5_金属
  6
CONTINUOUS
 62
    7
 10
1199.4597653683577
 20
621.97721151429107
 11
1199.659115368358
 21
621.99316151429173
  0
LINE
  8
_0-5_金属
  6
CONTINUOUS
 62
    7
 10
1218.1869653683571
 20
591.03091151429169
 11
1198.0890653683578
 21
618.91391151429104
  0
LINE
  8
_0-5_金属
  6
CONTINUOUS
 62
    7
 10
1193.0384653683582
 20
637.13991151429184
 11
1200.9306153683569
 21
626.25726151429092
  0
LINE
  8
_0-5_金属
  6
CONTINUOUS
 62
    7
 10
1219.6473653683579
 20
590.28336151429073
 11
1268.6113653683578
 21
590.28336151429073
  0
LINE
  8
_0-5_金属
  6
CONTINUOUS
 62
    7
 10
1144.1865153683575
 20
639.08316151429119
 11
1191.5814653683578
 21
639.08316151429119
  0
LINE
  8
_0-5_金属
  6
CONTINUOUS
 62
    7
 10
1143.8758653683572
 20
637.88321151429102
 11
1191.5814653683578
 21
637.88321151429102
  0
LINE
  8
_0-5_金属
  6
CONTINUOUS
 62
    7
 10
1267.6463653683577
 20
595.71711151429156
 11
1269.1946653683572
 21
595.4298115142916
  0
LINE
  8
_0-5_金属
  6
CONTINUOUS
 62
    7
 10
1267.4274153683582
 20
594.53701151429129
 11
1268.9757153683577
 21
594.24976151429121
  0
LINE
  8
_0-5_金属
  6
CONTINUOUS
 62
    7
 10
1268.0115153683578
 20
599.68326151429153
 11
1274.8115653683572
 21
599.68326151429153
  0
LINE
  8
_0-5_金属
  6
CONTINUOUS
 62
    7
 10
1142.2325153683569
 20
638.19961151429141
 11
1131.8875153683571
 21
627.81241151429128
  0
LINE
  8
_0-5_金属
  6
CONTINUOUS
 62
    7
 10
1143.0827153683576
 20
637.35286151429079
 11
1132.7377653683579
 21
626.96566151429181
  0
LINE
  8
_0-5_金属
  6
CONTINUOUS
 62
    7
 10
1129.3367653683576
 20
627.81246151429116
 11
1118.9914653683577
 21
638.20001151429153
  0
LINE
  8
_0-5_金属
  6
CONTINUOUS
 62
    7
 10
1128.486415368357
 20
626.96551151429105
 11
1118.141065368357
 21
637.35306151429143
  0
ARC
  8
_0-5_金属
  6
CONTINUOUS
 62
    7
 10
1199.3116153683577
 20
625.08316151429142
 40
3.1999969500000001
 50
0.000035
 51
35.949935000000004
  0
ARC
  8
_0-5_金属
  6
CONTINUOUS
 62
    7
 10
1199.3116153683577
 20
625.08316151429142
 40
1.9999961500000007
 50
0.000035
 51
35.949717000000007
  0
ARC
  8
_0-5_金属
  6
CONTINUOUS
 62
    7
 10
1199.7115153683576
 20
620.08316151429142
 40
2.0000114
 50
180.00009000000003
 51
216.07594000000003
  0
ARC
  8
_0-5_金属
  6
CONTINUOUS
 62
    7
 10
1199.6114653683576
 20
620.08316151429142
 40
3.1000213500000005
 50
94.576591000000008
 51
179.99990000000003
  0
ARC
  8
_0-5_金属
  6
CONTINUOUS
 62
    7
 10
1199.4115153683579
 20
625.08316151429142
 40
3.0999907999999996
 50
274.58181000000002
 51
359.99996000000004
  0
ARC
  8
_0-5_金属
  6
CONTINUOUS
 62
    7
 10
1199.7115153683576
 20
620.08316151429142
 40
3.2000122000000002
 50
180.00009000000003
 51
215.78394000000003
  0
ARC
  8
_0-5_金属
  6
CONTINUOUS
 62
    7
 10
1199.4115153683579
 20
625.08316151429142
 40
1.8999938500000002
 50
274.57776999999999
 51
359.99995999999999
  0
ARC
  8
_0-5_金属
  6
CONTINUOUS
 62
    7
 10
1199.6114653683576
 20
620.08316151429142
 40
1.9000091499999998
 50
94.580906999999996
 51
179.9999
  0
ARC
  8
_0-5_金属
  6
CONTINUOUS
 62
    7
 10
1219.6473153683582
 20
592.08316151429187
 40
1.7999992
 50
215.78405000000001
 51
270.00022999999999
  0
ARC
  8
_0-5_金属
  6
CONTINUOUS
 62
    7
 10
1219.6473153683582
 20
592.08316151429187
 40
2.9999989999999999
 50
215.78405000000001
 51
270.00022999999999
  0
ARC
  8
_0-5_金属
  6
CONTINUOUS
 62
    7
 10
1191.5814153683577
 20
636.08316151429165
 40
1.7999992
 50
35.949661999999996
 51
89.999489999999994
  0
ARC
  8
_0-5_金属
  6
CONTINUOUS
 62
    7
 10
1191.5814153683577
 20
636.08316151429165
 40
3.0000000000000004
 50
35.949770999999998
 51
89.999654000000007
  0
ARC
  8
_0-5_金属
  6
CONTINUOUS
 62
    7
 10
1268.6113653683578
 20
592.28336151429119
 40
3.1999998000000001
 50
359.99999000000003
 51
79.493674999999982
  0
ARC
  8
_0-5_金属
  6
CONTINUOUS
 62
    7
 10
1268.6113653683578
 20
592.28336151429119
 40
1.9999990000000001
 50
359.99999000000003
 51
79.498920999999982
  0
ARC
  8
_0-5_金属
  6
CONTINUOUS
 62
    7
 10
1268.0115153683578
 20
597.68326151429108
 40
1.9999504000000001
 50
89.999927
 51
259.48462000000001
  0
ARC
  8
_0-5_金属
  6
CONTINUOUS
 62
    7
 10
1268.6113653683578
 20
592.28336151429119
 40
1.9999990000000001
 50
270.00006999999994
 51
359.99997999999999
  0
ARC
  8
_0-5_金属
  6
CONTINUOUS
 62
    7
 10
1268.6113653683578
 20
592.28336151429119
 40
3.1999998000000001
 50
270.00006999999994
 51
359.99997999999999
  0
ARC
  8
_0-5_金属
  6
CONTINUOUS
 62
    7
 10
1130.6121153683575
 20
629.08271151429119
 40
2.9999989999999999
 50
224.88334
 51
315.11671000000001
  0
ARC
  8
_0-5_金属
  6
CONTINUOUS
 62
    7
 10
1130.6121153683575
 20
629.08271151429119
 40
1.79999825
 50
224.88334
 51
315.42811999999998
  0
ARC
  8
_0-5_金属
  6
CONTINUOUS
 62
    7
 10
1144.3582153683569
 20
636.08291151429114
 40
1.7999992
 50
90.003315000000001
 51
135.11932999999999
  0
ARC
  8
_0-5_金属
  6
CONTINUOUS
 62
    7
 10
1144.3582153683569
 20
636.08291151429114
 40
3.0000000000000004
 50
90.00194900000001
 51
135.11829000000003
  0
ARC
  8
_0-5_金属
  6
CONTINUOUS
 62
    7
 10
1116.8659653683567
 20
636.08291151429114
 40
3.0000000000000004
 50
44.884706999999999
 51
90.002222000000003
  0
ARC
  8
_0-5_金属
  6
CONTINUOUS
 62
    7
 10
1116.8657653683572
 20
636.08291151429114
 40
1.7999992
 50
44.883395999999991
 51
90.000528000000003
  0
LINE
  8
ADD_LINE
  6
DOT
 62
    4
 10
1130.6116653683575
 20
655.1767115142917
 11
1130.6116653683575
 21
544.69600287768742
  0
LINE
  8
_0-5_金属
  6
CONTINUOUS
 62
    7
 10
1274.8115653683572
 20
600.8832115142917
 11
1274.8115653683572
 21
599.68326151429153
  0
LINE
  8
_0-5_金属
  6
CONTINUOUS
 62
    7
 10
1268.0088024573838
 20
600.8832115142917
 11
1274.8115653683572
 21
600.8832115142917
  0
LINE
  8
_0-5_金属
  6
CONTINUOUS
 62
    7
 10
1064.1076653683576
 20
618.2120615142918
 11
1053.0851153683575
 21
602.91981828815153
  0
LINE
  8
_0-5_金属
  6
CONTINUOUS
 62
    7
 10
1063.1340653683578
 20
618.91386151429117
 11
1053.0851153683575
 21
604.972386514292
  0
POINT
  8
_0-b_寸法
 62
    1
 10
741.30914526836193
 20
674.08291251082403
  0
LINE
  8
_0-b_寸法
  6
CONTINUOUS
 62
    7
 10
741.30914526836193
 20
674.08291251082403
 11
766.30914526836193
 21
674.08291251082403
  0
TEXT
  8
_0-a_文字
 62
    7
 10
1320.5009335150935
 20
561.58291151255582
 40
14.999999999999858
 41
1.00000000000001
 50
0
  1
（別途工事）
  0
ARC
  8
_0-1_線色１__水色__
  6
CONTINUOUS
 62
    4
 10
1253.8967103864416
 20
737.28415890419967
 40
1.2083333333333581
 50
37.523513195350134
 51
322.47648679666082
  0
ARC
  8
_0-1_線色１__水色__
  6
CONTINUOUS
 62
    4
 10
1255.8133770530408
 20
735.81219875972408
 40
1.2083333333333177
 50
217.52351319811916
 51
142.47648679389312
  0
ARC
  8
_0-1_線色１__水色__
  6
CONTINUOUS
 62
    4
 10
1253.8967103866462
 20
740.22807919288255
 40
1.2083333333333581
 50
37.523513195350134
 51
322.47648679666082
  0
ARC
  8
_0-1_線色１__水色__
  6
CONTINUOUS
 62
    4
 10
1255.8133770532463
 20
738.75611904840696
 40
1.2083333333333177
 50
217.52351319811916
 51
142.47648679389312
  0
ARC
  8
_0-1_線色１__水色__
  6
CONTINUOUS
 62
    4
 10
1253.8967103864416
 20
710.78887630604925
 40
1.2083333333333581
 50
37.523513195350134
 51
322.47648679666082
  0
ARC
  8
_0-1_線色１__水色__
  6
CONTINUOUS
 62
    4
 10
1255.8133770530408
 20
709.31691616157366
 40
1.2083333333333177
 50
217.52351319811916
 51
142.47648679389312
  0
ARC
  8
_0-1_線色１__水色__
  6
CONTINUOUS
 62
    4
 10
1253.8967103866462
 20
713.73279659473212
 40
1.2083333333333581
 50
37.523513195350134
 51
322.47648679666082
  0
ARC
  8
_0-1_線色１__水色__
  6
CONTINUOUS
 62
    4
 10
1255.8133770532463
 20
712.26083645025767
 40
1.2083333333333177
 50
217.52351319811916
 51
142.47648679389312
  0
ARC
  8
_0-1_線色１__水色__
  6
CONTINUOUS
 62
    4
 10
1253.8967103868522
 20
716.67671688341613
 40
1.2083333333333581
 50
37.523513195350134
 51
322.47648679666082
  0
ARC
  8
_0-1_線色１__水色__
  6
CONTINUOUS
 62
    4
 10
1255.8133770534509
 20
715.20475673894055
 40
1.2083333333333177
 50
217.52351319811916
 51
142.47648679389312
  0
ARC
  8
_0-1_線色１__水色__
  6
CONTINUOUS
 62
    4
 10
1253.8967103870568
 20
719.62063717209901
 40
1.2083333333333581
 50
37.523513195350134
 51
322.47648679666082
  0
ARC
  8
_0-1_線色１__水色__
  6
CONTINUOUS
 62
    4
 10
1255.813377053657
 20
718.14867702762342
 40
1.2083333333333177
 50
217.52351319811916
 51
142.47648679389312
  0
ARC
  8
_0-1_線色１__水色__
  6
CONTINUOUS
 62
    4
 10
1253.8967103872624
 20
722.56455746078302
 40
1.2083333333333581
 50
37.523513195350134
 51
322.47648679666082
  0
ARC
  8
_0-1_線色１__水色__
  6
CONTINUOUS
 62
    4
 10
1255.8133770538616
 20
721.09259731630743
 40
1.2083333333333177
 50
217.52351319811916
 51
142.47648679389312
  0
ARC
  8
_0-1_線色１__水色__
  6
CONTINUOUS
 62
    4
 10
1253.896710387467
 20
725.5084777494659
 40
1.2083333333333581
 50
37.523513195350134
 51
322.47648679666082
  0
ARC
  8
_0-1_線色１__水色__
  6
CONTINUOUS
 62
    4
 10
1255.8133770540671
 20
724.03651760499031
 40
1.2083333333333177
 50
217.52351319811916
 51
142.47648679389312
  0
ARC
  8
_0-1_線色１__水色__
  6
CONTINUOUS
 62
    4
 10
1253.8967103878776
 20
731.39631832683278
 40
1.2083333333333581
 50
37.523513195350134
 51
322.47648679666082
  0
ARC
  8
_0-1_線色１__水色__
  6
CONTINUOUS
 62
    4
 10
1253.896710387673
 20
728.45239803814877
 40
1.2083333333333581
 50
37.523513195350134
 51
322.47648679666082
  0
ARC
  8
_0-1_線色１__水色__
  6
CONTINUOUS
 62
    4
 10
1255.8133770544778
 20
729.9243581823572
 40
1.2083333333333177
 50
217.52351319811916
 51
142.47648679389312
  0
ARC
  8
_0-1_線色１__水色__
  6
CONTINUOUS
 62
    4
 10
1255.8133770542718
 20
726.98043789367432
 40
1.2083333333333177
 50
217.52351319811916
 51
142.47648679389312
  0
ARC
  8
_0-1_線色１__水色__
  6
CONTINUOUS
 62
    4
 10
1255.8133770546824
 20
732.86827847104007
 40
1.2083333333333177
 50
217.52351319811916
 51
142.47648679389312
  0
ARC
  8
_0-1_線色１__水色__
  6
CONTINUOUS
 62
    4
 10
1253.8967103880832
 20
734.34023861551566
 40
1.2083333333333581
 50
37.523513195350134
 51
322.47648679666082
  0
ARC
  8
_0-1_線色１__水色__
  6
CONTINUOUS
 62
    4
 10
1253.8967103864416
 20
684.29359370789882
 40
1.2083333333333581
 50
37.523513195350134
 51
322.47648679666082
  0
ARC
  8
_0-1_線色１__水色__
  6
CONTINUOUS
 62
    4
 10
1255.8133770530408
 20
682.82163356342323
 40
1.2083333333333177
 50
217.52351319811916
 51
142.47648679389312
  0
ARC
  8
_0-1_線色１__水色__
  6
CONTINUOUS
 62
    4
 10
1253.8967103866462
 20
687.2375139965817
 40
1.2083333333333581
 50
37.523513195350134
 51
322.47648679666082
  0
ARC
  8
_0-1_線色１__水色__
  6
CONTINUOUS
 62
    4
 10
1255.8133770532463
 20
685.76555385210725
 40
1.2083333333333177
 50
217.52351319811916
 51
142.47648679389312
  0
ARC
  8
_0-1_線色１__水色__
  6
CONTINUOUS
 62
    4
 10
1253.8967103868522
 20
690.18143428526571
 40
1.2083333333333581
 50
37.523513195350134
 51
322.47648679666082
  0
ARC
  8
_0-1_線色１__水色__
  6
CONTINUOUS
 62
    4
 10
1255.8133770534509
 20
688.70947414079012
 40
1.2083333333333177
 50
217.52351319811916
 51
142.47648679389312
  0
ARC
  8
_0-1_線色１__水色__
  6
CONTINUOUS
 62
    4
 10
1253.8967103870568
 20
693.12535457394858
 40
1.2083333333333581
 50
37.523513195350134
 51
322.47648679666082
  0
ARC
  8
_0-1_線色１__水色__
  6
CONTINUOUS
 62
    4
 10
1255.813377053657
 20
691.653394429473
 40
1.2083333333333177
 50
217.52351319811916
 51
142.47648679389312
  0
ARC
  8
_0-1_線色１__水色__
  6
CONTINUOUS
 62
    4
 10
1253.8967103872624
 20
696.0692748626326
 40
1.2083333333333581
 50
37.523513195350134
 51
322.47648679666082
  0
ARC
  8
_0-1_線色１__水色__
  6
CONTINUOUS
 62
    4
 10
1255.8133770538616
 20
694.59731471815701
 40
1.2083333333333177
 50
217.52351319811916
 51
142.47648679389312
  0
ARC
  8
_0-1_線色１__水色__
  6
CONTINUOUS
 62
    4
 10
1253.896710387467
 20
699.01319515131547
 40
1.2083333333333581
 50
37.523513195350134
 51
322.47648679666082
  0
ARC
  8
_0-1_線色１__水色__
  6
CONTINUOUS
 62
    4
 10
1255.8133770540671
 20
697.54123500683988
 40
1.2083333333333177
 50
217.52351319811916
 51
142.47648679389312
  0
ARC
  8
_0-1_線色１__水色__
  6
CONTINUOUS
 62
    4
 10
1253.8967103878776
 20
704.90103572868236
 40
1.2083333333333581
 50
37.523513195350134
 51
322.47648679666082
  0
ARC
  8
_0-1_線色１__水色__
  6
CONTINUOUS
 62
    4
 10
1253.896710387673
 20
701.95711543999835
 40
1.2083333333333581
 50
37.523513195350134
 51
322.47648679666082
  0
ARC
  8
_0-1_線色１__水色__
  6
CONTINUOUS
 62
    4
 10
1255.8133770544778
 20
703.42907558420677
 40
1.2083333333333177
 50
217.52351319811916
 51
142.47648679389312
  0
ARC
  8
_0-1_線色１__水色__
  6
CONTINUOUS
 62
    4
 10
1255.8133770542718
 20
700.4851552955239
 40
1.2083333333333177
 50
217.52351319811916
 51
142.47648679389312
  0
ARC
  8
_0-1_線色１__水色__
  6
CONTINUOUS
 62
    4
 10
1255.8133770546824
 20
706.37299587289078
 40
1.2083333333333177
 50
217.52351319811916
 51
142.47648679389312
  0
ARC
  8
_0-1_線色１__水色__
  6
CONTINUOUS
 62
    4
 10
1253.8967103880832
 20
707.84495601736523
 40
1.2083333333333581
 50
37.523513195350134
 51
322.47648679666082
  0
ARC
  8
_0-1_線色１__水色__
  6
CONTINUOUS
 62
    4
 10
1253.8967103868522
 20
681.34967341921595
 40
1.2083333333333581
 50
37.523513195350134
 51
322.47648679666082
  0
ARC
  8
_0-1_線色１__水色__
  6
CONTINUOUS
 62
    4
 10
1253.8967103856385
 20
752.00376034759245
 40
1.2083333333333581
 50
37.523513195350134
 51
322.47648679666082
  0
ARC
  8
_0-1_線色１__水色__
  6
CONTINUOUS
 62
    4
 10
1255.8133770522381
 20
750.53180020311686
 40
1.2083333333333177
 50
217.52351319811916
 51
142.47648679389312
  0
ARC
  8
_0-1_線色１__水色__
  6
CONTINUOUS
 62
    4
 10
1253.8967103858436
 20
754.94768063627646
 40
1.2083333333333581
 50
37.523513195350134
 51
322.47648679666082
  0
ARC
  8
_0-1_線色１__水色__
  6
CONTINUOUS
 62
    4
 10
1255.8133770524432
 20
753.47572049180087
 40
1.2083333333333177
 50
217.52351319811916
 51
142.47648679389312
  0
ARC
  8
_0-1_線色１__水色__
  6
CONTINUOUS
 62
    4
 10
1253.896710387075
 20
746.11591977022556
 40
1.2083333333333581
 50
37.523513195350134
 51
322.47648679666082
  0
ARC
  8
_0-1_線色１__水色__
  6
CONTINUOUS
 62
    4
 10
1253.8967103868697
 20
743.17199948154268
 40
1.2083333333333581
 50
37.523513195350134
 51
322.47648679666082
  0
ARC
  8
_0-1_線色１__水色__
  6
CONTINUOUS
 62
    4
 10
1255.8133770536745
 20
744.64395962575111
 40
1.2083333333333177
 50
217.52351319811916
 51
142.47648679389312
  0
ARC
  8
_0-1_線色１__水色__
  6
CONTINUOUS
 62
    4
 10
1255.8133770538798
 20
747.58787991443398
 40
1.2083333333333177
 50
217.52351319811916
 51
142.47648679389312
  0
ARC
  8
_0-1_線色１__水色__
  6
CONTINUOUS
 62
    4
 10
1253.8967103872801
 20
749.05984005890957
 40
1.2083333333333581
 50
37.523513195350134
 51
322.47648679666082
  0
ARC
  8
_0-1_線色１__水色__
  6
CONTINUOUS
 62
    4
 10
1255.8133770534691
 20
741.7000393370671
 40
1.2083333333333177
 50
217.52351319811916
 51
142.47648679389312
  0
ARC
  8
_0-1_線色１__水色__
  6
CONTINUOUS
 62
    4
 10
1253.8967103848354
 20
766.72336179098636
 40
1.2083333333333581
 50
37.523513195350134
 51
322.47648679666082
  0
ARC
  8
_0-1_線色１__水色__
  6
CONTINUOUS
 62
    4
 10
1255.8133770514355
 20
765.25140164651077
 40
1.2083333333333177
 50
217.52351319811916
 51
142.47648679389312
  0
ARC
  8
_0-1_線色１__水色__
  6
CONTINUOUS
 62
    4
 10
1253.8967103850409
 20
769.66728207967037
 40
1.2083333333333581
 50
37.523513195350134
 51
322.47648679666082
  0
ARC
  8
_0-1_線色１__水色__
  6
CONTINUOUS
 62
    4
 10
1255.8133770516401
 20
768.19532193519478
 40
1.2083333333333177
 50
217.52351319811916
 51
142.47648679389312
  0
ARC
  8
_0-1_線色１__水色__
  6
CONTINUOUS
 62
    4
 10
1253.8967103862724
 20
760.83552121361947
 40
1.2083333333333581
 50
37.523513195350134
 51
322.47648679666082
  0
ARC
  8
_0-1_線色１__水色__
  6
CONTINUOUS
 62
    4
 10
1253.8967103860664
 20
757.8916009249366
 40
1.2083333333333581
 50
37.523513195350134
 51
322.47648679666082
  0
ARC
  8
_0-1_線色１__水色__
  6
CONTINUOUS
 62
    4
 10
1255.8133770528711
 20
759.36356106914388
 40
1.2083333333333177
 50
217.52351319811916
 51
142.47648679389312
  0
ARC
  8
_0-1_線色１__水色__
  6
CONTINUOUS
 62
    4
 10
1255.8133770530771
 20
762.3074813578279
 40
1.2083333333333177
 50
217.52351319811916
 51
142.47648679389312
  0
ARC
  8
_0-1_線色１__水色__
  6
CONTINUOUS
 62
    4
 10
1253.896710386477
 20
763.77944150230348
 40
1.2083333333333581
 50
37.523513195350134
 51
322.47648679666082
  0
ARC
  8
_0-1_線色１__水色__
  6
CONTINUOUS
 62
    4
 10
1255.8133770526665
 20
756.41964078046101
 40
1.2083333333333177
 50
217.52351319811916
 51
142.47648679389312
  0
ARC
  8
_0-1_線色１__水色__
  6
CONTINUOUS
 62
    4
 10
1253.8967103852463
 20
772.61120236835325
 40
1.2083333333333581
 50
37.523513195350134
 51
322.47648679666082
  0
ARC
  8
_0-1_線色１__水色__
  6
CONTINUOUS
 62
    4
 10
1255.8133770518457
 20
771.13924222387766
 40
1.2083333333333177
 50
217.52351319811916
 51
142.47648679389312
  0
ARC
  8
_0-1_線色１__水色__
  6
CONTINUOUS
 62
    4
 10
1255.8133770520517
 20
774.08316251256167
 40
1.2083333333333177
 50
217.52351319811916
 51
0
  0
ARC
  8
_0-1_線色１__水色__
  6
CONTINUOUS
 62
    4
 10
1255.8133770530408
 20
679.87771327474036
 40
1.2083333333333177
 50
318.8702716445635
 51
142.476486793893
  0
LINE
  8
_0-5_金属
  6
CONTINUOUS
 62
    7
 10
882.30914526836386
 20
580.08316151429256
 11
946.3091452683642
 21
580.08316151429256
  0
LINE
  8
_0-5_金属
  6
CONTINUOUS
 62
    7
 10
796.3091452683642
 20
580.08316151429256
 11
860.30914526836398
 21
580.08316151429256
  0
ARC
  8
_0-5_金属
  6
CONTINUOUS
 62
    7
 10
860.30914526836398
 20
572.08316151429187
 40
8
 50
0
 51
90
  0
ARC
  8
_0-5_金属
  6
CONTINUOUS
 62
    7
 10
882.30914526836386
 20
572.08316151429187
 40
8
 50
90
 51
180
  0
LINE
  8
_0-5_金属
  6
CONTINUOUS
 62
    7
 10
868.30914526836409
 20
572.08316151429187
 11
868.30914526836409
 21
514.78403174955076
  0
LINE
  8
_0-5_金属
  6
CONTINUOUS
 62
    7
 10
874.30914526836432
 20
514.78403174955076
 11
874.30914526836432
 21
572.08316151429187
  0
LINE
  8
_0-5_金属
  6
CONTINUOUS
 62
    7
 10
1199.6125202683629
 20
580.08316151429256
 11
1263.6125202683634
 21
580.08316151429256
  0
LINE
  8
_0-5_金属
  6
CONTINUOUS
 62
    7
 10
1113.6125202683634
 20
580.08316151429256
 11
1177.6125202683629
 21
580.08316151429256
  0
ARC
  8
_0-5_金属
  6
CONTINUOUS
 62
    7
 10
1177.6125202683629
 20
572.08316151429187
 40
8
 50
0
 51
90
  0
ARC
  8
_0-5_金属
  6
CONTINUOUS
 62
    7
 10
1199.6125202683629
 20
572.08316151429187
 40
8
 50
90
 51
180
  0
LINE
  8
_0-5_金属
  6
CONTINUOUS
 62
    7
 10
1185.6125202683631
 20
572.08316151429187
 11
1185.6125202683631
 21
514.78403174955076
  0
LINE
  8
_0-5_金属
  6
CONTINUOUS
 62
    7
 10
1191.6125202683634
 20
514.78403174955076
 11
1191.6125202683634
 21
572.08316151429187
  0
LINE
  8
_0-5_金属
  6
CONTINUOUS
 62
    7
 10
1379.6125202683629
 20
680.0831625125619
 11
1443.6125202683627
 21
680.0831625125619
  0
LINE
  8
_0-5_金属
  6
CONTINUOUS
 62
    7
 10
1293.6125202683634
 20
680.0831625125619
 11
1357.6125202683629
 21
680.0831625125619
  0
ARC
  8
_0-5_金属
  6
CONTINUOUS
 62
    7
 10
1357.6125202683629
 20
672.08316251256122
 40
8
 50
0
 51
90
  0
ARC
  8
_0-5_金属
  6
CONTINUOUS
 62
    7
 10
1379.6125202683629
 20
672.08316251256122
 40
8
 50
90
 51
180
  0
LINE
  8
_0-5_金属
  6
CONTINUOUS
 62
    7
 10
1443.6125202683627
 20
680.0831625125619
 11
1443.6125202683627
 21
689.08316251256053
  0
LINE
  8
_0-5_金属
  6
CONTINUOUS
 62
    7
 10
1293.6125202683634
 20
689.08316251256053
 11
1443.6125202683627
 21
689.08316251256053
  0
LINE
  8
_0-5_金属
  6
CONTINUOUS
 62
    7
 10
1293.6125202683634
 20
680.0831625125619
 11
1293.6125202683634
 21
689.08316251256053
  0
LINE
  8
_0-5_金属
  6
CONTINUOUS
 62
    7
 10
1365.6125202683631
 20
672.08316251256122
 11
1365.6125202683631
 21
514.78403174955076
  0
LINE
  8
_0-5_金属
  6
CONTINUOUS
 62
    7
 10
1371.6125202683634
 20
514.78403174955076
 11
1371.6125202683634
 21
672.08316251256122
  0
LINE
  8
_0-5_金属
  6
CONTINUOUS
 62
    7
 10
946.3091452683642
 20
580.08316151429256
 11
946.3091452683642
 21
589.08316151429119
  0
LINE
  8
_0-5_金属
  6
CONTINUOUS
 62
    7
 10
1113.6125202683634
 20
580.08316151429256
 11
1113.6125202683634
 21
589.08316151429119
  0
LINE
  8
_0-5_金属
  6
CONTINUOUS
 62
    7
 10
1263.6125202683634
 20
580.08316151429256
 11
1263.6125202683634
 21
589.08316151429119
  0
LINE
  8
_0-5_金属
  6
CONTINUOUS
 62
    7
 10
1443.6125202683627
 20
689.08316251489225
 11
1497.8818876519745
 21
689.08316251489225
  0
LINE
  8
_0-5_金属
  6
DASHED1
 62
    7
 10
1293.6125202683634
 20
726.08316251256099
 11
1497.8818876519745
 21
726.08316251256099
  0
LINE
  8
_0-a_文字
  6
CONTINUOUS
 62
    7
 10
999.10400765186466
 20
564.08291151255582
 11
1019.1040076518647
 21
564.08291151255582
  0
LINE
  8
_0-a_文字
  6
CONTINUOUS
 62
    7
 10
963.30829036835723
 20
626.08291254095832
 11
999.10400765186466
 21
564.08291151255582
  0
TEXT
  8
_0-a_文字
 62
    7
 10
1024.1040076518634
 20
536.58291151255582
 40
14.999999999999858
 41
1.0000000000000091
 50
0
  1
（別途工事）
  0
TEXT
  8
_0-a_文字
 62
    7
 10
1024.1040076518634
 20
556.58291151255582
 40
14.999999999999858
 41
1.0000000000000069
 50
0
  1
耐火デッキプレート t=1.2以上
  0
LINE
  8
_0-a_文字
  6
CONTINUOUS
 62
    7
 10
862.04993425098394
 20
639.08333571764217
 11
931.33221146865765
 21
519.08291151255582
  0
LINE
  8
_0-a_文字
  6
CONTINUOUS
 62
    7
 10
931.33221146865765
 20
519.08291151255582
 11
951.33221146865765
 21
519.08291151255582
  0
TEXT
  8
_0-a_文字
 62
    7
 10
956.33221146865765
 20
491.58291151255582
 40
14.999999999999858
 41
1.00000000000001
 50
0
  1
（別途工事）
  0
TEXT
  8
_0-a_文字
 62
    7
 10
956.33221146865765
 20
511.58291151255582
 40
14.999999999999858
 41
1.0000000000000078
 50
0
  1
亜鉛めっき鋼板 t=1.2以上
  0
TEXT
  8
_0-a_文字
 62
    7
 10
1320.500933515093
 20
581.58291151255526
 40
15.000000000000124
 41
0.9999999999999943
 50
0
  1
亜鉛めっき鋼板 t=1.2以上
  0
TEXT
  8
_0-a_文字
 62
    7
 10
944.89339027320739
 20
801.58291251082517
 40
14.999999999999947
 41
1.0000000000000064
 50
0
  1
ＢＰ－Ｈ３Ｎ
  0
LINE
  8
_0-a_文字
  6
CONTINUOUS
 62
    7
 10
919.89339027320568
 20
809.08291251082517
 11
939.89339027320568
 21
809.08291251082517
  0
LINE
  8
_0-a_文字
  6
CONTINUOUS
 62
    7
 10
846.83037695969915
 20
682.53406129774874
 11
919.89339027320398
 21
809.08291251082517
  0
LINE
  8
_f-0_
  6
CONTINUOUS
 62
  136
 10
1714.9999999999989
 20
1192.5
 11
385
 21
1192.5
  0
LINE
  8
_f-0_
  6
CONTINUOUS
 62
  136
 10
385
 20
277.50000000000341
 11
1714.9999999999989
 21
277.50000000000341
  0
LINE
  8
_f-0_
  6
CONTINUOUS
 62
  136
 10
385
 20
1192.5
 11
385
 21
277.50000000000341
  0
LINE
  8
_f-0_
  6
CONTINUOUS
 62
  136
 10
1714.9999999999989
 20
1192.5
 11
1714.9999999999989
 21
277.50000000000341
  0
LINE
  8
_f-0_
  6
CONTINUOUS
 62
    6
 10
1714.9999999999989
 20
1152.5
 11
385
 21
1152.5
  0
LINE
  8
_f-f_
  6
CONTINUOUS
 62
    9
 10
310
 20
217.5
 11
310
 21
1267.5
  0
LINE
  8
_f-f_
  6
CONTINUOUS
 62
    9
 10
1790
 20
217.5
 11
310
 21
217.5
  0
LINE
  8
_f-f_
  6
CONTINUOUS
 62
    9
 10
1790
 20
1267.5
 11
310
 21
1267.5
  0
LINE
  8
_f-f_
  6
CONTINUOUS
 62
    9
 10
1790
 20
1267.5
 11
1790
 21
217.5
  0
LINE
  8
ADD_LINE
  6
DOT
 62
  136
 10
1764.9999999999989
 20
1242.5
 11
335
 21
1242.5
  0
LINE
  8
ADD_LINE
  6
DOT
 62
  136
 10
335
 20
242.50000000000227
 11
335
 21
1242.5
  0
LINE
  8
ADD_LINE
  6
DOT
 62
  136
 10
1765
 20
1242.5
 11
1765
 21
242.5
  0
LINE
  8
ADD_LINE
  6
DOT
 62
  136
 10
1765
 20
242.5
 11
335.00000000000114
 21
242.5
  0
TEXT
  8
_0-a_文字
 62
    7
 10
395
 20
1127.5000000000023
 40
14.999999999997726
 41
1.000000000000171
 50
0
  1
注）立上り高さが500mm以上で機械的固定工法の場合、中間をディスク板で固定する
  0
TEXT
  8
_0-a_文字
 62
    7
 10
395
 20
1107.5000000000023
 40
14.999999999997726
 41
1.000000000000171
 50
0
  1
　  横方向は@900mm程度
  0
LINE
  8
_0-4_線色４__黄__
  6
CONTINUOUS
 62
    2
 10
819.30914526836659
 20
703.2510239210859
 11
819.30914526836659
 21
939.08291251082517
  0
LINE
  8
_0-2_線色２__白__
  6
CONTINUOUS
 62
    7
 10
814.30914526836432
 20
640.28291251082521
 11
814.30914526836432
 21
939.08291251082517
  0
LINE
  8
_0-5_金属
  6
CONTINUOUS
 62
    7
 10
796.3091452683642
 20
514.78403174955076
 11
796.3091452683642
 21
939.08291251082517
  0
LINE
  8
_0-5_金属
  6
CONTINUOUS
 62
    7
 10
776.30914526836193
 20
939.08291251082517
 11
776.30914526836193
 21
739.08291151255696
  0
LINE
  8
_0-5_金属
  6
CONTINUOUS
 62
    7
 10
716.30914526836193
 20
939.08291251082517
 11
716.30914526836193
 21
739.08291151255696
  0
LINE
  8
_0-b_寸法
  6
CONTINUOUS
 62
    7
 10
741.30914526836193
 20
939.08291251082517
 11
741.30914526836193
 21
674.08291251082403
  0
LINE
  8
_0-3_線色３__緑__
  6
CONTINUOUS
 62
    3
 10
661.30914526836193
 20
514.78378074954719
 11
661.30914526836193
 21
939.08291251082517
  0
LINE
  8
_0-5_金属
  6
CONTINUOUS
 62
    7
 10
696.30914526836193
 20
514.78378074954719
 11
696.30914526836193
 21
939.08291251082517
  0
LINE
  8
_0-d_断熱__ハッチ
  6
CONTINUOUS
 62
    4
 10
687.55914526836193
 20
939.08291251082517
 11
687.55914526836193
 21
514.78378074954719
  0
LINE
  8
_0-d_断熱__ハッチ
  6
CONTINUOUS
 62
    4
 10
678.80914526836193
 20
939.08291251082517
 11
678.80914526836193
 21
514.78378074954719
  0
LINE
  8
_0-d_断熱__ハッチ
  6
CONTINUOUS
 62
    4
 10
670.05914526836193
 20
939.08291251082517
 11
670.05914526836193
 21
514.78378074954719
  0
LINE
  8
_0-b_寸法
  6
CONTINUOUS
 62
    7
 10
741.30914526836193
 20
939.08291251082517
 11
738.72095481733709
 21
929.42365424793422
  0
TEXT
  8
_0-b_寸法
 62
    7
 10
738.80914526836193
 20
769.0829125108246
 40
15.000000000000036
 41
0.9999999999999977
 50
90
  1
立上り高さ
  0
LINE
  8
_0-d_断熱__ハッチ
  6
CONTINUOUS
 62
    4
 10
796.30914526836307
 20
924.07116874905512
 11
811.32088903013312
 21
939.08291251082517
  0
LINE
  8
_0-d_断熱__ハッチ
  6
CONTINUOUS
 62
    4
 10
796.30914526836307
 20
934.6777704668483
 11
800.71428731233993
 21
939.08291251082517
  0
LINE
  8
_0-2_線色２__白__
  6
CONTINUOUS
 62
    7
 10
1329.8788578126305
 20
779.94780317607081
 11
1330.8938707654447
 21
779.08316251256053
  0
LINE
  8
_0-4_線色４__黄__
  6
CONTINUOUS
 62
    2
 10
1328.6834560377365
 20
787.53431129948638
 11
1332.734804613694
 21
784.08316251256053
  0
LINE
  8
_0-4_線色４__黄__
  6
CONTINUOUS
 62
    2
 10
1247.6962408104891
 20
787.53431129948638
 11
1328.6834560377365
 21
787.53431129948638
  0
LINE
  8
_0-4_線色４__黄__
  6
CONTINUOUS
 62
    2
 10
1332.734804613694
 20
784.08316251256053
 11
1497.8818876519745
 21
784.08316251256053
  0
LINE
  8
ADD_LINE
  6
DOT
 62
    4
 10
1305.8788578126314
 20
699.41494663753531
 11
1305.8788578126314
 21
789.03166638015307
  0
LINE
  8
_0-7_ビス
  6
CONTINUOUS
 62
    7
 10
1311.8788578126316
 20
782.1496959148709
 11
1311.8788578126316
 21
782.53431129948638
  0
LINE
  8
_0-7_ビス
  6
DASHED3
 62
    7
 10
1307.3463259288865
 20
779.98494176865904
 11
1308.4288736487804
 21
782.53431129948638
  0
LINE
  8
_0-7_ビス
  6
CONTINUOUS
 62
    7
 10
1299.8788578126318
 20
782.1496959148709
 11
1299.8788578126318
 21
782.53431129948638
  0
LINE
  8
_0-7_ビス
  6
DASHED3
 62
    7
 10
1304.4113896963768
 20
779.98494176865904
 11
1303.3288419764831
 21
782.53431129948638
  0
LINE
  8
_0-7_ビス
  6
CONTINUOUS
 62
    7
 10
1311.8788578126316
 20
782.1496959148709
 11
1299.8788578126318
 21
782.1496959148709
  0
LINE
  8
_0-7_ビス
  6
CONTINUOUS
 62
    7
 10
1311.8788578126316
 20
782.53431129948638
 11
1299.8788578126318
 21
782.53431129948638
  0
ARC
  8
_0-7_ビス
  6
DASHED3
 62
    7
 10
1305.8788578126314
 20
781.09548486692631
 40
1.8403175392666382
 50
217.11750793457031
 51
322.88247680664062
  0
LINE
  8
_0-7_ビス
  6
CONTINUOUS
 62
    7
 10
1309.9646442502581
 20
780.23548235249734
 11
1311.8788578126316
 21
782.1496959148709
  0
ARC
  8
_0-7_ビス
  6
CONTINUOUS
 62
    7
 10
1311.3788578126309
 20
778.82126879012446
 40
2
 50
135.00000000000153
 51
180.00000000000003
  0
LINE
  8
_0-7_ビス
  6
CONTINUOUS
 62
    7
 10
1301.7930713750047
 20
780.23548235249734
 11
1299.8788578126312
 21
782.1496959148709
  0
ARC
  8
_0-7_ビス
  6
CONTINUOUS
 62
    7
 10
1300.3788578126318
 20
778.82126879012446
 40
2
 50
0
 51
44.999999999998501
  0
LINE
  8
_0-7_ビス
  6
CONTINUOUS
 62
    7
 10
1309.3788578126316
 20
778.5343112994866
 11
1302.3788578126312
 21
778.5343112994866
  0
LINE
  8
_0-7_ビス
  6
CONTINUOUS
 62
    7
 10
1302.3788578126312
 20
709.55503724164998
 11
1305.8788578126314
 21
707.53431129948638
  0
LINE
  8
_0-7_ビス
  6
CONTINUOUS
 62
    7
 10
1302.3788578126312
 20
778.82126879012446
 11
1302.3788578126312
 21
709.55503724164998
  0
LINE
  8
_0-7_ビス
  6
CONTINUOUS
 62
    7
 10
1309.3788578126316
 20
713.03431129948706
 11
1302.3788578126312
 21
713.03431129948706
  0
LINE
  8
_0-7_ビス
  6
CONTINUOUS
 62
    7
 10
1309.3788578126316
 20
709.55503724164998
 11
1305.8788578126314
 21
707.53431129948638
  0
LINE
  8
_0-7_ビス
  6
CONTINUOUS
 62
    7
 10
1309.3788578126316
 20
778.82126879012446
 11
1309.3788578126316
 21
709.55503724164998
  0
LINE
  8
_0-7_ビス
  6
CONTINUOUS
 62
    7
 10
1309.3788578126316
 20
767.53431129948638
 11
1302.3788578126312
 21
767.53431129948638
  0
LINE
  8
_0-7_ビス
  6
CONTINUOUS
 62
    4
 10
1302.3788578126312
 20
766.3345079400932
 11
1306.8564382545719
 21
767.53431129948638
  0
LINE
  8
_0-7_ビス
  6
CONTINUOUS
 62
    4
 10
1302.3788578126312
 20
754.02828741071573
 11
1309.3788578126316
 21
755.90399319080404
  0
LINE
  8
_0-7_ビス
  6
CONTINUOUS
 62
    4
 10
1302.3788578126312
 20
756.02828741071619
 11
1309.3788578126316
 21
757.9039931908045
  0
LINE
  8
_0-7_ビス
  6
CONTINUOUS
 62
    4
 10
1302.3788578126312
 20
758.02828741071551
 11
1309.3788578126316
 21
759.90399319080382
  0
LINE
  8
_0-7_ビス
  6
CONTINUOUS
 62
    4
 10
1302.3788578126312
 20
760.02828741071596
 11
1309.3788578126316
 21
761.90399319080427
  0
LINE
  8
_0-7_ビス
  6
CONTINUOUS
 62
    4
 10
1302.3788578126312
 20
762.02828741071528
 11
1309.3788578126316
 21
763.90399319080473
  0
LINE
  8
_0-7_ビス
  6
CONTINUOUS
 62
    4
 10
1302.3788578126312
 20
764.02828741071573
 11
1309.3788578126316
 21
765.90399319080518
  0
LINE
  8
_0-7_ビス
  6
CONTINUOUS
 62
    4
 10
1302.3788578126312
 20
741.7220668813394
 11
1309.3788578126316
 21
743.59777266142771
  0
LINE
  8
_0-7_ビス
  6
CONTINUOUS
 62
    4
 10
1302.3788578126312
 20
743.72206688133872
 11
1309.3788578126316
 21
745.59777266142703
  0
LINE
  8
_0-7_ビス
  6
CONTINUOUS
 62
    4
 10
1302.3788578126312
 20
745.72206688133917
 11
1309.3788578126316
 21
747.59777266142748
  0
LINE
  8
_0-7_ビス
  6
CONTINUOUS
 62
    4
 10
1302.3788578126312
 20
747.72206688133849
 11
1309.3788578126316
 21
749.59777266142794
  0
LINE
  8
_0-7_ビス
  6
CONTINUOUS
 62
    4
 10
1302.3788578126312
 20
749.72206688133895
 11
1309.3788578126316
 21
751.59777266142726
  0
LINE
  8
_0-7_ビス
  6
CONTINUOUS
 62
    4
 10
1302.3788578126312
 20
751.7220668813394
 11
1309.3788578126316
 21
753.59777266142771
  0
LINE
  8
_0-7_ビス
  6
CONTINUOUS
 62
    4
 10
1302.3788578126312
 20
729.41584635196193
 11
1309.3788578126316
 21
731.29155213205024
  0
LINE
  8
_0-7_ビス
  6
CONTINUOUS
 62
    4
 10
1302.3788578126312
 20
731.41584635196239
 11
1309.3788578126316
 21
733.2915521320507
  0
LINE
  8
_0-7_ビス
  6
CONTINUOUS
 62
    4
 10
1302.3788578126312
 20
733.4158463519617
 11
1309.3788578126316
 21
735.29155213205001
  0
LINE
  8
_0-7_ビス
  6
CONTINUOUS
 62
    4
 10
1302.3788578126312
 20
735.41584635196216
 11
1309.3788578126316
 21
737.29155213205047
  0
LINE
  8
_0-7_ビス
  6
CONTINUOUS
 62
    4
 10
1302.3788578126312
 20
737.41584635196148
 11
1309.3788578126316
 21
739.29155213205092
  0
LINE
  8
_0-7_ビス
  6
CONTINUOUS
 62
    4
 10
1302.3788578126312
 20
739.41584635196193
 11
1309.3788578126316
 21
741.29155213205138
  0
LINE
  8
_0-7_ビス
  6
CONTINUOUS
 62
    4
 10
1302.3788578126312
 20
717.1096258225856
 11
1309.3788578126316
 21
718.98533160267391
  0
LINE
  8
_0-7_ビス
  6
CONTINUOUS
 62
    4
 10
1302.3788578126312
 20
719.10962582258492
 11
1309.3788578126316
 21
720.98533160267323
  0
LINE
  8
_0-7_ビス
  6
CONTINUOUS
 62
    4
 10
1302.3788578126312
 20
721.10962582258537
 11
1309.3788578126316
 21
722.98533160267368
  0
LINE
  8
_0-7_ビス
  6
CONTINUOUS
 62
    4
 10
1302.3788578126312
 20
723.10962582258469
 11
1309.3788578126316
 21
724.98533160267414
  0
LINE
  8
_0-7_ビス
  6
CONTINUOUS
 62
    4
 10
1302.3788578126312
 20
725.10962582258514
 11
1309.3788578126316
 21
726.98533160267345
  0
LINE
  8
_0-7_ビス
  6
CONTINUOUS
 62
    4
 10
1302.3788578126312
 20
727.1096258225856
 11
1309.3788578126316
 21
728.98533160267391
  0
LINE
  8
_0-7_ビス
  6
CONTINUOUS
 62
    4
 10
1302.3788578126312
 20
714.80340529320813
 11
1309.3788578126316
 21
716.67911107329758
  0
LINE
  8
_0-7_ビス
  6
CONTINUOUS
 62
    4
 10
1303.2405825357239
 20
713.03431129948706
 11
1309.3788578126316
 21
714.67911107329712
  0
LINE
  8
_0-d_断熱__ハッチ
  6
CONTINUOUS
 62
    4
 10
961.49044934844881
 20
674.08291251082744
 11
995.2904493484516
 21
640.28291251082521
  0
LINE
  8
_0-d_断熱__ハッチ
  6
CONTINUOUS
 62
    4
 10
904.92190685352512
 20
674.08291251082744
 11
938.72190685352734
 21
640.28291251082521
  0
LINE
  8
_0-d_断熱__ハッチ
  6
CONTINUOUS
 62
    4
 10
989.81796633104466
 20
640.28291251082521
 11
1023.6179663310446
 21
674.08291251082517
  0
LINE
  8
_0-d_断熱__ハッチ
  6
CONTINUOUS
 62
    4
 10
961.53369508358708
 20
640.28291251082521
 11
995.33369508358703
 21
674.08291251082517
  0
LINE
  8
_0-d_断熱__ハッチ
  6
CONTINUOUS
 62
    4
 10
933.20617810099463
 20
674.08291251082403
 11
967.00617810099345
 21
640.28291251082521
  0
LINE
  8
_0-d_断熱__ハッチ
  6
CONTINUOUS
 62
    4
 10
1102.9553013226287
 20
640.28316251256058
 11
1136.755051320893
 21
674.08291251082517
  0
LINE
  8
_0-d_断熱__ハッチ
  6
CONTINUOUS
 62
    4
 10
1216.0488905756108
 20
674.08291251082517
 11
1249.8486405738749
 21
640.28316251256058
  0
LINE
  8
_0-d_断熱__ハッチ
  6
CONTINUOUS
 62
    4
 10
1244.3766575599348
 20
640.28316251256058
 11
1292.4125202683599
 21
688.31902522098574
  0
LINE
  8
_0-d_断熱__ハッチ
  6
CONTINUOUS
 62
    4
 10
1216.0923863124772
 20
640.28316251256058
 11
1249.8921363107411
 21
674.08291251082517
  0
LINE
  8
_0-d_断熱__ハッチ
  6
CONTINUOUS
 62
    4
 10
1187.8081150650098
 20
640.28316251256058
 11
1221.6078650632739
 21
674.08291251082403
  0
LINE
  8
_0-d_断熱__ハッチ
  6
CONTINUOUS
 62
    4
 10
1159.5238438175529
 20
640.28316251256058
 11
1193.3235938158173
 21
674.08291251082517
  0
LINE
  8
_0-d_断熱__ハッチ
  6
CONTINUOUS
 62
    4
 10
1131.2395725700862
 20
640.28316251256058
 11
1165.0393225683497
 21
674.08291251082517
  0
LINE
  8
_0-d_断熱__ハッチ
  6
CONTINUOUS
 62
    4
 10
1074.6275343383002
 20
674.08291251082517
 11
1108.4272843365643
 21
640.28316251256058
  0
LINE
  8
_0-d_断熱__ハッチ
  6
CONTINUOUS
 62
    4
 10
1102.9118055857675
 20
674.08291251082517
 11
1136.7115555840314
 21
640.28316251256058
  0
LINE
  8
_0-d_断熱__ハッチ
  6
CONTINUOUS
 62
    4
 10
1131.1960768332244
 20
674.08291251082517
 11
1164.9958268314895
 21
640.28316251256058
  0
LINE
  8
_0-d_断熱__ハッチ
  6
CONTINUOUS
 62
    4
 10
1159.4803480806918
 20
674.08291251082517
 11
1193.2800980789557
 21
640.28316251256058
  0
LINE
  8
_0-d_断熱__ハッチ
  6
CONTINUOUS
 62
    4
 10
1187.764619328151
 20
674.08291251082289
 11
1221.5643693264137
 21
640.28316251256058
  0
LINE
  8
_0-6_鋼板__アングル
  6
CONTINUOUS
 62
    2
 10
797.50914526836482
 20
640.28291251082521
 11
797.50914526836482
 21
740.28291251082521
  0
LINE
  8
_0-6_鋼板__アングル
  6
CONTINUOUS
 62
    2
 10
796.30914526836364
 20
740.28291251082521
 11
797.50914526836482
 21
740.28291251082521
  0
LINE
  8
_0-6_鋼板__アングル
  6
CONTINUOUS
 62
    2
 10
796.30914526836364
 20
639.08291251082517
 11
796.30914526836364
 21
740.28291251082521
  0
LINE
  8
_0-6_鋼板__アングル
  6
CONTINUOUS
 62
    2
 10
1293.6125202683634
 20
739.08316251256053
 11
1392.4125202683631
 21
739.08316251256053
  0
LINE
  8
_0-6_鋼板__アングル
  6
CONTINUOUS
 62
    2
 10
1292.4125202683631
 20
740.28316251256058
 11
1392.4125202683631
 21
740.28316251256058
  0
LINE
  8
_0-6_鋼板__アングル
  6
CONTINUOUS
 62
    2
 10
1392.4125202683631
 20
740.28316251256058
 11
1392.4125202683631
 21
739.08316251256053
  0
LINE
  8
_0-6_鋼板__アングル
  6
CONTINUOUS
 62
    2
 10
1249.8788578126305
 20
782.53431129948638
 11
1251.2079364633432
 21
767.34287280760384
  0
LINE
  8
_0-6_鋼板__アングル
  6
CONTINUOUS
 62
    2
 10
1251.1884280139025
 20
781.33431129947496
 11
1252.4125202683631
 21
767.34287280760384
  0
LINE
  8
_0-6_鋼板__アングル
  6
CONTINUOUS
 62
    2
 10
1251.2079364633432
 20
767.34287280760384
 11
1252.4125202683631
 21
767.34287280760384
  0
LINE
  8
_0-6_鋼板__アングル
  6
CONTINUOUS
 62
    2
 10
1293.6125202683634
 20
739.08316251256053
 11
1293.6125202683634
 21
639.08316251256053
  0
LINE
  8
_0-6_鋼板__アングル
  6
CONTINUOUS
 62
    2
 10
1292.4125202683631
 20
740.28316251256058
 11
1292.4125202683631
 21
640.28316251256058
  0
ARC
  8
_0-6_鋼板__アングル
  6
CONTINUOUS
 62
    2
 10
1239.0324723390181
 20
691.53406129775078
 40
10.199999999999999
 50
270
 51
349.99999999999994
  0
ARC
  8
_0-6_鋼板__アングル
  6
CONTINUOUS
 62
    2
 10
1239.0324723390181
 20
691.53406129775078
 40
9
 50
270
 51
349.99999999999994
  0
LINE
  8
_0-6_鋼板__アングル
  6
CONTINUOUS
 62
    2
 10
1250.1864314381037
 20
696.05184782508502
 11
1249.077511419744
 21
689.76284988554823
  0
LINE
  8
_0-6_鋼板__アングル
  6
CONTINUOUS
 62
    2
 10
1249.0046621344895
 20
696.26022563828485
 11
1247.8957421161276
 21
689.9712276987492
  0
ARC
  8
_0-6_鋼板__アングル
  6
CONTINUOUS
 62
    2
 10
1254.6180663266573
 20
695.27043102558366
 40
5.700000000000002
 50
137.7263109939077
 51
169.99999999999977
  0
ARC
  8
_0-6_鋼板__アングル
  6
CONTINUOUS
 62
    2
 10
1254.6180663266573
 20
695.27043102558366
 40
4.5
 50
137.7263109939077
 51
169.99999999999997
  0
LINE
  8
_0-6_鋼板__アングル
  6
CONTINUOUS
 62
    2
 10
1251.2883359963762
 20
698.297458598567
 11
1252.4125202683631
 21
699.53406129775146
  0
LINE
  8
_0-6_鋼板__アングル
  6
CONTINUOUS
 62
    2
 10
1251.524592180288
 20
700.34126865054702
 11
1252.4125202683631
 21
699.53406129775146
  0
LINE
  8
_0-6_鋼板__アングル
  6
CONTINUOUS
 62
    2
 10
1250.4004079083011
 20
699.10466595136256
 11
1251.524592180288
 21
700.34126865054702
  0
LINE
  8
_0-6_鋼板__アングル
  6
CONTINUOUS
 62
    2
 10
1197.1708690481018
 20
680.97592614348116
 11
1194.8912885770274
 21
679.03406129775078
  0
ARC
  8
_0-6_鋼板__アングル
  6
CONTINUOUS
 62
    2
 10
1198.1435687315006
 20
679.83406129775119
 40
2.7000000000000002
 50
90
 51
130.42607874009855
  0
ARC
  8
_0-6_鋼板__アングル
  6
CONTINUOUS
 62
    2
 10
1198.1435687315006
 20
679.83406129775119
 40
1.5000000000000002
 50
90
 51
130.42607874009855
  0
LINE
  8
_0-6_鋼板__アングル
  6
CONTINUOUS
 62
    2
 10
1196.3927093013813
 20
681.88941802006582
 11
1194.1131288303068
 21
679.94755317433544
  0
LINE
  8
_0-6_鋼板__アングル
  6
CONTINUOUS
 62
    2
 10
1194.1131288303068
 20
679.94755317433544
 11
1194.8912885770274
 21
679.03406129775078
  0
LINE
  8
ADD_LINE
  6
DOT
 62
    4
 10
1219.8912885770274
 20
648.35501729775103
 11
1219.8912885770274
 21
688.26920849775149
  0
LINE
  8
_0-6_鋼板__アングル
  6
CONTINUOUS
 62
    2
 10
1225.7442754230333
 20
682.0363588716026
 11
1223.1412885770264
 21
680.03406129775101
  0
ARC
  8
_0-6_鋼板__アングル
  6
CONTINUOUS
 62
    2
 10
1227.2075812490725
 20
680.13406129775092
 40
2.3999999999999999
 50
90
 51
127.56859202882603
  0
LINE
  8
_0-6_鋼板__アングル
  6
CONTINUOUS
 62
    2
 10
1214.038301731021
 20
682.0363588716026
 11
1216.6412885770278
 21
680.03406129775101
  0
ARC
  8
_0-6_鋼板__アングル
  6
CONTINUOUS
 62
    2
 10
1212.5749959049817
 20
680.13406129775092
 40
2.3999999999999999
 50
52.431407971173961
 51
90
  0
LINE
  8
_0-6_鋼板__アングル
  6
CONTINUOUS
 62
    4
 10
1227.2075812490725
 20
682.53406129775101
 11
1212.5749959049817
 21
682.53406129775101
  0
LINE
  8
_0-6_鋼板__アングル
  6
CONTINUOUS
 62
    4
 10
1216.6412885770278
 20
680.03406129775101
 11
1223.1412885770264
 21
680.03406129775101
  0
LINE
  8
_0-6_鋼板__アングル
  6
CONTINUOUS
 62
    2
 10
1223.1412885770264
 20
680.03406129775101
 11
1223.8729414900472
 21
679.08291251082517
  0
LINE
  8
_0-6_鋼板__アングル
  6
CONTINUOUS
 62
    2
 10
1216.6412885770278
 20
680.03406129775101
 11
1215.9096356640071
 21
679.08291251082517
  0
LINE
  8
_0-6_鋼板__アングル
  6
CONTINUOUS
 62
    4
 10
1215.9096356640071
 20
679.08291251082517
 11
1223.8729414900472
 21
679.08291251082517
  0
LINE
  8
_0-6_鋼板__アングル
  6
CONTINUOUS
 62
    2
 10
1226.475928336054
 20
681.08521008467676
 11
1223.8729414900472
 21
679.08291251082517
  0
ARC
  8
_0-6_鋼板__アングル
  6
CONTINUOUS
 62
    2
 10
1227.2075812490725
 20
680.13406129775092
 40
1.2
 50
90
 51
127.56859202882507
  0
LINE
  8
_0-6_鋼板__アングル
  6
CONTINUOUS
 62
    2
 10
1213.3066488180002
 20
681.08521008467676
 11
1215.9096356640071
 21
679.08291251082517
  0
ARC
  8
_0-6_鋼板__アングル
  6
CONTINUOUS
 62
    2
 10
1212.5749959049817
 20
680.13406129775092
 40
1.2
 50
52.431407971171993
 51
90.000000000000057
  0
LINE
  8
_0-6_鋼板__アングル
  6
CONTINUOUS
 62
    2
 10
1239.0324723390181
 20
682.53406129775101
 11
1227.2075812490725
 21
682.53406129775101
  0
LINE
  8
_0-6_鋼板__アングル
  6
CONTINUOUS
 62
    2
 10
1212.5749959049817
 20
682.53406129775101
 11
1198.1435687315006
 21
682.53406129775101
  0
LINE
  8
_0-6_鋼板__アングル
  6
CONTINUOUS
 62
    2
 10
1239.0324723390181
 20
681.33406129775096
 11
1227.2075812490725
 21
681.33406129775096
  0
LINE
  8
_0-6_鋼板__アングル
  6
CONTINUOUS
 62
    2
 10
1212.5749959049817
 20
681.33406129775096
 11
1198.1435687315006
 21
681.33406129775096
  0
ARC
  8
_0-6_鋼板__アングル
  6
CONTINUOUS
 62
    2
 10
827.68919319770816
 20
691.53406129774964
 40
10.199999999999999
 50
190.00000000000003
 51
270
  0
ARC
  8
_0-6_鋼板__アングル
  6
CONTINUOUS
 62
    2
 10
827.68919319770816
 20
691.53406129775078
 40
9
 50
190.00000000000003
 51
270
  0
LINE
  8
_0-6_鋼板__アングル
  6
CONTINUOUS
 62
    2
 10
816.53523409862373
 20
696.05184782508388
 11
817.64415411698337
 21
689.76284988554823
  0
LINE
  8
_0-6_鋼板__アングル
  6
CONTINUOUS
 62
    2
 10
817.71700340223788
 20
696.26022563828371
 11
818.82592342059866
 21
689.97122769874807
  0
ARC
  8
_0-6_鋼板__アングル
  6
CONTINUOUS
 62
    2
 10
812.10359921006898
 20
695.27043102558252
 40
5.700000000000002
 50
10.000000000000218
 51
42.27368900609229
  0
ARC
  8
_0-6_鋼板__アングル
  6
CONTINUOUS
 62
    2
 10
812.10359921006898
 20
695.27043102558252
 40
4.5
 50
10.000000000000014
 51
42.27368900609229
  0
LINE
  8
_0-6_鋼板__アングル
  6
CONTINUOUS
 62
    2
 10
815.43332954035009
 20
698.29745859856587
 11
814.30914526836432
 21
699.53406129775033
  0
LINE
  8
_0-6_鋼板__アングル
  6
CONTINUOUS
 62
    2
 10
815.19707335643943
 20
700.34126865054589
 11
814.30914526836432
 21
699.53406129775033
  0
LINE
  8
_0-6_鋼板__アングル
  6
CONTINUOUS
 62
    2
 10
816.3212576284252
 20
699.10466595136143
 11
815.19707335643943
 21
700.34126865054589
  0
LINE
  8
_0-6_鋼板__アングル
  6
CONTINUOUS
 62
    2
 10
869.55079648862466
 20
680.97592614348002
 11
871.83037695969915
 21
679.03406129774964
  0
ARC
  8
_0-6_鋼板__アングル
  6
CONTINUOUS
 62
    2
 10
868.57809680522564
 20
679.83406129775119
 40
2.7000000000000002
 50
49.573921259901446
 51
90
  0
ARC
  8
_0-6_鋼板__アングル
  6
CONTINUOUS
 62
    2
 10
868.57809680522564
 20
679.83406129775005
 40
1.5000000000000002
 50
49.573921259901446
 51
90
  0
LINE
  8
_0-6_鋼板__アングル
  6
CONTINUOUS
 62
    2
 10
870.328956235345
 20
681.88941802006468
 11
872.6085367064195
 21
679.9475531743343
  0
LINE
  8
_0-6_鋼板__アングル
  6
CONTINUOUS
 62
    2
 10
872.6085367064195
 20
679.9475531743343
 11
871.83037695969915
 21
679.03406129774964
  0
LINE
  8
ADD_LINE
  6
DOT
 62
    4
 10
846.83037695969915
 20
648.35501729775103
 11
846.83037695969915
 21
688.26920849775149
  0
LINE
  8
_0-6_鋼板__アングル
  6
CONTINUOUS
 62
    2
 10
840.97739011369299
 20
682.03635887160146
 11
843.58037695969983
 21
680.03406129775101
  0
ARC
  8
_0-6_鋼板__アングル
  6
CONTINUOUS
 62
    2
 10
839.51408428765376
 20
680.13406129775092
 40
2.3999999999999999
 50
52.431407971173961
 51
90
  0
LINE
  8
_0-6_鋼板__アングル
  6
CONTINUOUS
 62
    2
 10
852.68336380570645
 20
682.03635887160146
 11
850.08037695969961
 21
680.03406129775101
  0
ARC
  8
_0-6_鋼板__アングル
  6
CONTINUOUS
 62
    2
 10
854.14666963174568
 20
680.13406129775092
 40
2.3999999999999999
 50
90
 51
127.56859202882603
  0
LINE
  8
_0-6_鋼板__アングル
  6
CONTINUOUS
 62
    4
 10
839.51408428765376
 20
682.53406129775101
 11
854.14666963174568
 21
682.53406129775101
  0
LINE
  8
_0-6_鋼板__アングル
  6
CONTINUOUS
 62
    4
 10
850.08037695969961
 20
680.03406129775101
 11
843.58037695969983
 21
680.03406129775101
  0
LINE
  8
_0-6_鋼板__アングル
  6
CONTINUOUS
 62
    2
 10
843.58037695969983
 20
680.03406129775101
 11
842.84872404668022
 21
679.08291251082517
  0
LINE
  8
_0-6_鋼板__アングル
  6
CONTINUOUS
 62
    2
 10
850.08037695969961
 20
680.03406129775101
 11
850.81202987271922
 21
679.08291251082517
  0
LINE
  8
_0-6_鋼板__アングル
  6
CONTINUOUS
 62
    4
 10
850.81202987271922
 20
679.08291251082517
 11
842.84872404668022
 21
679.08291251082517
  0
LINE
  8
_0-6_鋼板__アングル
  6
CONTINUOUS
 62
    2
 10
840.24573720067337
 20
681.08521008467562
 11
842.84872404668022
 21
679.08291251082517
  0
ARC
  8
_0-6_鋼板__アングル
  6
CONTINUOUS
 62
    2
 10
839.51408428765376
 20
680.13406129775092
 40
1.2
 50
52.431407971174927
 51
90
  0
LINE
  8
_0-6_鋼板__アングル
  6
CONTINUOUS
 62
    2
 10
853.41501671872606
 20
681.08521008467562
 11
850.81202987271922
 21
679.08291251082517
  0
ARC
  8
_0-6_鋼板__アングル
  6
CONTINUOUS
 62
    2
 10
854.14666963174568
 20
680.13406129775092
 40
1.2
 50
89.999999999999943
 51
127.56859202882802
  0
LINE
  8
_0-6_鋼板__アングル
  6
CONTINUOUS
 62
    2
 10
827.68919319770816
 20
682.53406129775101
 11
839.51408428765376
 21
682.53406129775101
  0
LINE
  8
_0-6_鋼板__アングル
  6
CONTINUOUS
 62
    2
 10
854.14666963174568
 20
682.53406129775101
 11
868.57809680522564
 21
682.53406129775101
  0
LINE
  8
_0-6_鋼板__アングル
  6
CONTINUOUS
 62
    2
 10
827.68919319770816
 20
681.33406129774983
 11
839.51408428765376
 21
681.33406129774983
  0
LINE
  8
_0-6_鋼板__アングル
  6
CONTINUOUS
 62
    2
 10
854.14666963174568
 20
681.33406129774983
 11
868.57809680522564
 21
681.33406129774983
  0
LINE
  8
_0-6_鋼板__アングル
  6
CONTINUOUS
 62
    2
 10
1311.7318446586369
 20
782.03660887333797
 11
1309.1288578126314
 21
780.03431129948638
  0
LINE
  8
_0-6_鋼板__アングル
  6
CONTINUOUS
 62
    2
 10
1300.0258709666246
 20
782.03660887333797
 11
1302.6288578126305
 21
780.03431129948638
  0
LINE
  8
_0-6_鋼板__アングル
  6
CONTINUOUS
 62
    4
 10
1313.1951504846761
 20
782.53431129948638
 11
1298.5625651405853
 21
782.53431129948638
  0
LINE
  8
_0-6_鋼板__アングル
  6
CONTINUOUS
 62
    4
 10
1302.6288578126305
 20
780.03431129948638
 11
1309.1288578126314
 21
780.03431129948638
  0
LINE
  8
_0-6_鋼板__アングル
  6
CONTINUOUS
 62
    2
 10
1309.1288578126314
 20
780.03431129948638
 11
1309.8605107256499
 21
779.08316251256053
  0
LINE
  8
_0-6_鋼板__アングル
  6
CONTINUOUS
 62
    2
 10
1302.6288578126305
 20
780.03431129948638
 11
1301.8972048996106
 21
779.08316251256053
  0
LINE
  8
_0-6_鋼板__アングル
  6
CONTINUOUS
 62
    4
 10
1301.8972048996106
 20
779.08316251256053
 11
1309.8605107256499
 21
779.08316251256053
  0
LINE
  8
_0-6_鋼板__アングル
  6
CONTINUOUS
 62
    2
 10
1312.4634975716567
 20
781.08546008641213
 11
1309.8605107256499
 21
779.08316251256053
  0
LINE
  8
_0-6_鋼板__アングル
  6
CONTINUOUS
 62
    2
 10
1299.2942180536052
 20
781.08546008641213
 11
1301.8972048996106
 21
779.08316251256053
  0
LINE
  8
_0-6_鋼板__アングル
  6
CONTINUOUS
 62
    2
 10
1326.8211175948368
 20
780.97617614521653
 11
1329.1006980659113
 21
779.03431129948615
  0
ARC
  8
_0-6_鋼板__アングル
  6
CONTINUOUS
 62
    2
 10
1325.8484179114366
 20
779.83431129948656
 40
2.7000000000000002
 50
49.573921259901446
 51
90
  0
ARC
  8
_0-6_鋼板__アングル
  6
CONTINUOUS
 62
    2
 10
1325.8484179114366
 20
779.83431129948656
 40
1.5000000000000002
 50
49.573921259901446
 51
90
  0
LINE
  8
_0-6_鋼板__アングル
  6
CONTINUOUS
 62
    2
 10
1327.599277341556
 20
781.88966802180119
 11
1329.8788578126305
 21
779.94780317607081
  0
LINE
  8
_0-6_鋼板__アングル
  6
CONTINUOUS
 62
    2
 10
1329.8788578126305
 20
779.94780317607081
 11
1329.1006980659113
 21
779.03431129948615
  0
LINE
  8
ADD_LINE
  6
DOT
 62
    4
 10
1305.8788578126309
 20
794.08710000033523
 11
1305.8788578126309
 21
759.90274381027177
  0
ARC
  8
_0-6_鋼板__アングル
  6
CONTINUOUS
 62
    2
 10
1313.1951504846761
 20
780.13431129948628
 40
1.2
 50
90
 51
127.56859202882507
  0
LINE
  8
_0-6_鋼板__アングル
  6
CONTINUOUS
 62
    2
 10
1313.1951504846761
 20
781.33431129947496
 11
1325.8484179114366
 21
781.33431129947496
  0
ARC
  8
_0-6_鋼板__アングル
  6
CONTINUOUS
 62
    2
 10
1313.1951504846761
 20
780.13431129948628
 40
2.3999999999999999
 50
90
 51
127.56859202882603
  0
LINE
  8
_0-6_鋼板__アングル
  6
CONTINUOUS
 62
    2
 10
1313.1951504846761
 20
782.53431129948638
 11
1325.8484179114366
 21
782.53431129948638
  0
ARC
  8
_0-6_鋼板__アングル
  6
CONTINUOUS
 62
    2
 10
1298.5625651405853
 20
780.13431129948628
 40
1.2
 50
52.431407971171978
 51
90
  0
ARC
  8
_0-6_鋼板__アングル
  6
CONTINUOUS
 62
    2
 10
1298.5625651405853
 20
780.13431129948628
 40
2.3999999999999999
 50
52.431407971173961
 51
90
  0
LINE
  8
_0-6_鋼板__アングル
  6
CONTINUOUS
 62
    2
 10
1251.1884280139025
 20
781.33431129947496
 11
1298.5625651405853
 21
781.33431129947496
  0
LINE
  8
_0-6_鋼板__アングル
  6
CONTINUOUS
 62
    2
 10
1249.8788578126305
 20
782.53431129948638
 11
1298.5625651405853
 21
782.53431129948638
  0
LINE
  8
_0-6_鋼板__アングル
  6
CONTINUOUS
 62
    2
 10
796.30914526836364
 20
639.08291251082517
 11
997.50914526836425
 21
639.08291251082517
  0
LINE
  8
_0-6_鋼板__アングル
  6
CONTINUOUS
 62
    2
 10
997.50914526836425
 20
639.08291251082517
 11
997.50914526836425
 21
640.28291251082521
  0
LINE
  8
_0-6_鋼板__アングル
  6
CONTINUOUS
 62
    2
 10
797.50914526836482
 20
640.28291251082521
 11
997.50914526836425
 21
640.28291251082521
  0
LINE
  8
_0-6_鋼板__アングル
  6
CONTINUOUS
 62
    2
 10
1293.6125202683634
 20
639.08316251256053
 11
1092.4125202683631
 21
639.08316251256053
  0
LINE
  8
_0-6_鋼板__アングル
  6
CONTINUOUS
 62
    2
 10
1292.4125202683631
 20
640.28316251256058
 11
1092.4125202683631
 21
640.28316251256058
  0
LINE
  8
_0-6_鋼板__アングル
  6
CONTINUOUS
 62
    2
 10
1092.4125202683631
 20
640.28316251256058
 11
1092.4125202683631
 21
639.08316251256053
  0
LINE
  8
_0-5_金属
  6
CONTINUOUS
 62
    7
 10
826.50888087376416
 20
589.08336076430544
 11
874.27303513237234
 21
589.08336076430544
  0
TEXT
  8
_f-0_
 62
    7
 10
405.30228976001922
 20
1163.75
 40
17.5
 41
1
 50
0
  1
側溝 立上り機械的固定工法
  0
LINE
  8
_0-2_線色２__白__
  6
CONTINUOUS
 62
    7
 10
997.50914526836425
 20
639.08291251082517
 11
1040.835115368357
 21
639.08291251082517
  0
LINE
  8
_0-2_線色２__白__
  6
CONTINUOUS
 62
    7
 10
1053.0851153683575
 20
639.08291251082517
 11
1092.4125202683631
 21
639.08291251082517
  0
TEXT
  8
_0-a_文字
 62
    7
 10
1067.4999999999952
 20
327.50000000000341
 40
15.000000000000213
 41
0.9999999999999907
 50
0
  1
※ 断熱材の種類が硬質ウレタンフォームの場合、ラジアルシートＬ６００の敷設は不要
  0
TEXT
  8
_0-a_文字
 62
    7
 10
1067.4999999999952
 20
287.50000000000341
 40
15.000000000000213
 41
0.9999999999999905
 50
0
  1
※ 本図面は防水納まりの参考図であり、下地等の構造を保証するものではありません
  0
TEXT
  8
_0-a_文字
 62
    7
 10
1067.4999999999952
 20
307.50000000000341
 40
15.000000000000213
 41
0.9999999999999905
 50
0
  1
※ デッキ端部などの開口部には、必要に応じ遮炎性を満たす処理をお願いします（別途工事）
  0
ENDSEC
  0
EOF
