  0
SECTION
  2
HEADER
  9
$ACADVER
  1
AC1009
  9
$INSBASE
 10
0
 20
0
 30
0
  9
$EXTMIN
 10
0
 20
0
  9
$EXTMAX
 10
2100
 20
1485
  9
$LIMMIN
 10
0
 20
0
  9
$LIMMAX
 10
2100
 20
1485
  9
$LTSCALE
 40
5
  0
ENDSEC
  0
SECTION
  2
TABLES
  0
TABLE
  2
LTYPE
 70
     9
  0
LTYPE
  2
CONTINUOUS
 70
    64
  3
実線
 72
    65
 73
     0
 40
0.0
  0
LTYPE
  2
DASHED1
 70
    64
  3
--  --  --  --  --  --  --  --  
 72
    65
 73
     2
 40
2.5
 49
1.25
 49
-1.25
  0
LTYPE
  2
DASHED2
 70
    64
  3
----    ----    ----    ----    
 72
    65
 73
     2
 40
5.0
 49
2.5
 49
-2.5
  0
LTYPE
  2
DASHED3
 70
    64
  3
------  ------  ------  ------  
 72
    65
 73
     2
 40
5.0
 49
3.75
 49
-1.25
  0
LTYPE
  2
CENTER1
 70
    64
  3
----- - ----- - ----- - ----- - 
 72
    65
 73
     4
 40
10.0
 49
6.25
 49
-1.25
 49
1.25
 49
-1.25
  0
LTYPE
  2
CENTER2
 70
    64
  3
----------  --  ----------  --  
 72
    65
 73
     4
 40
20.0
 49
12.5
 49
-2.5
 49
2.5
 49
-2.5
  0
LTYPE
  2
PHANTOM1
 70
    64
  3
--- - - --- - - --- - - --- - - 
 72
    65
 73
     6
 40
10.0
 49
3.25
 49
-1.25
 49
1.25
 49
-1.25
 49
1.25
 49
-1.25
  0
LTYPE
  2
PHANTOM2
 70
    64
  3
--------  -  -  --------  -  -  
 72
    65
 73
     6
 40
20.0
 49
10.0
 49
-2.5
 49
1.25
 49
-2.5
 49
1.25
 49
-2.5
  0
LTYPE
  2
DOT
 70
    64
  3
-   -   -   -   -   -   -   -   
 72
    65
 73
     2
 40
2.5
 49
0.625
 49
-1.875
  0
LTYPE
  2
DUMMY
 70
    64
  3
ダミー
 72
    65
 73
     0
 40
0.0
  0
LTYPE
  2
RAND1
 70
    64
  3
ランダム線1
 72
    65
 73
     4
 40
10.0
 49
1.0
 49
-2.0
 49
3.0
 49
-4.0
  0
LTYPE
  2
RAND2
 70
    64
  3
ランダム線2
 72
    65
 73
     4
 40
14.0
 49
2.0
 49
-3.0
 49
4.0
 49
-5.0
  0
LTYPE
  2
RAND3
 70
    64
  3
ランダム線3
 72
    65
 73
     4
 40
18.0
 49
3.0
 49
-4.0
 49
5.0
 49
-6.0
  0
LTYPE
  2
RAND4
 70
    64
  3
ランダム線4
 72
    65
 73
     4
 40
22.0
 49
4.0
 49
-5.0
 49
6.0
 49
-7.0
  0
LTYPE
  2
RAND5
 70
    64
  3
ランダム線5
 72
    65
 73
     4
 40
26.0
 49
5.0
 49
-6.0
 49
7.0
 49
-8.0
  0
LTYPE
  2
LONG1
 70
    64
  3
----------  --  ----------  --  
 72
    65
 73
     4
 40
40.0
 49
32.5
 49
-2.5
 49
2.5
 49
-2.5
  0
LTYPE
  2
LONG2
 70
    64
  3
--------  -  -  --------  -  -  
 72
    65
 73
     6
 40
40.0
 49
30.0
 49
-2.5
 49
1.25
 49
-2.5
 49
1.25
 49
-2.5
  0
LTYPE
  2
LONG3
 70
    64
  3
+++++++++++++++..+++++++++++++++
 72
    65
 73
     2
 40
40.0
 49
37.5
 49
-2.5
  0
LTYPE
  2
LONG4
 70
    64
  3
+++++++++++++++..+++++++++++++++
 72
    65
 73
     2
 40
80.0
 49
75.0
 49
-5.0
  0
LTYPE
  2
LONG5
 70
    64
  3
----------  --  ----------  --  
 72
    65
 73
     4
 40
60.0
 49
37.5
 49
-7.5
 49
7.5
 49
-7.5
  0
LTYPE
  2
dashed
 70
   64
  3
-------   -------------   ------
 72
   65
 73
    2
 40
7.5
 49
6
 49
-1.5
  0
LTYPE
  2
dashed_spaced
 70
   64
  3
----        --------        ----
 72
   65
 73
    2
 40
12
 49
6
 49
-6
  0
LTYPE
  2
long_dashed_dotted
 70
   64
  3
------------- --- --------------
 72
   65
 73
    4
 40
15.25
 49
12
 49
-1.5
 49
0.25
 49
-1.5
  0
LTYPE
  2
long_dashed_double-dotted
 70
   64
  3
----------- --- --- ------------
 72
   65
 73
    6
 40
17
 49
12
 49
-1.5
 49
0.25
 49
-1.5
 49
0.25
 49
-1.5
  0
LTYPE
  2
long_dashed_triplicate-dotted
 70
   64
  3
--------- --- --- --- ----------
 72
   65
 73
    8
 40
18.75
 49
12
 49
-1.5
 49
0.25
 49
-1.5
 49
0.25
 49
-1.5
 49
0.25
 49
-1.5
  0
LTYPE
  2
dotted
 70
   64
  3
   -       -       -       -    
 72
   65
 73
    2
 40
1.75
 49
0.25
 49
-1.5
  0
LTYPE
  2
chain
 70
   64
  3
-------------- -- --------------
 72
   65
 73
    4
 40
18.5
 49
12
 49
-1.5
 49
3.5
 49
-1.5
  0
LTYPE
  2
chain_double_dash
 70
   64
  3
------------ -- -- -------------
 72
   65
 73
    6
 40
23.5
 49
12
 49
-1.5
 49
3.5
 49
-1.5
 49
3.5
 49
-1.5
  0
LTYPE
  2
dashed_dotted
 70
   64
  3
-----------     -     ----------
 72
   65
 73
    4
 40
9.25
 49
6
 49
-1.5
 49
0.25
 49
-1.5
  0
LTYPE
  2
double-dashed_dotted
 70
   64
  3
------   -----------   -   -----
 72
   65
 73
    6
 40
16.75
 49
6
 49
-1.5
 49
6
 49
-1.5
 49
0.25
 49
-1.5
  0
LTYPE
  2
dashed_double-dotted
 70
   64
  3
---------    -    -    ---------
 72
   65
 73
    6
 40
11
 49
6
 49
-1.5
 49
0.25
 49
-1.5
 49
0.25
 49
-1.5
  0
LTYPE
  2
double-dashed_double-dotted
 70
   64
  3
-----   ---------   -   -   ----
 72
   65
 73
    8
 40
18.5
 49
6
 49
-1.5
 49
6
 49
-1.5
 49
0.25
 49
-1.5
 49
0.25
 49
-1.5
  0
LTYPE
  2
dashed_triplicate-dotted
 70
   64
  3
-------    -    -    -    ------
 72
   65
 73
    8
 40
12.75
 49
6
 49
-1.5
 49
0.25
 49
-1.5
 49
0.25
 49
-1.5
 49
0.25
 49
-1.5
  0
LTYPE
  2
double-dashed_triplicate-dotted
 70
   64
  3
-----  ---------  -  -  -  -----
 72
   65
 73
   10
 40
20.25
 49
6
 49
-1.5
 49
6
 49
-1.5
 49
0.25
 49
-1.5
 49
0.25
 49
-1.5
 49
0.25
 49
-1.5
  0
LTYPE
  2
undefined
 70
   64
  3
--------------------------------
 72
   65
 73
    0
 40
0
  0
ENDTAB
  0
TABLE
  2
STYLE
  5
3
100
AcDbSymbolTable
 70
     1
  0
STYLE
  5
10
100
AcDbSymbolTableRecord
100
AcDbTextStyleTableRecord
  2
STANDARD
 70
     0
 40
0.0
 41
1.0
 50
0.0
 71
     0
 42
0.2
  3
txt
  4
bigfont.shx
  0
STYLE
  5
26
100
AcDbSymbolTableRecord
100
AcDbTextStyleTableRecord
  2
TATEGAKI
 70
    68
 40
0.0
 41
1.0
 50
0.0
 71
     0
 42
1.0
  3
txt
  4
bigfont.shx
  0
ENDTAB
  0
TABLE
  2
LAYER
 70
   13
  0
LAYER
  2
_0-1_線色１__水色__
 70
   64
 62
    7
  6
CONTINUOUS
  0
LAYER
  2
_0-2_線色２__白__
 70
   64
 62
    7
  6
CONTINUOUS
  0
LAYER
  2
_0-3_線色３__緑__
 70
   64
 62
    7
  6
CONTINUOUS
  0
LAYER
  2
_0-4_線色４__黄__
 70
   64
 62
    7
  6
CONTINUOUS
  0
LAYER
  2
_0-5_金属
 70
   64
 62
    7
  6
CONTINUOUS
  0
LAYER
  2
_0-6_鋼板__アングル
 70
   64
 62
    7
  6
CONTINUOUS
  0
LAYER
  2
_0-7_ビス
 70
   64
 62
    7
  6
CONTINUOUS
  0
LAYER
  2
_0-8_笠木他
 70
   64
 62
    7
  6
CONTINUOUS
  0
LAYER
  2
_0-a_文字
 70
   64
 62
    7
  6
CONTINUOUS
  0
LAYER
  2
_0-d_断熱__ハッチ
 70
   64
 62
    7
  6
CONTINUOUS
  0
LAYER
  2
_f-0_
 70
   64
 62
    7
  6
CONTINUOUS
  0
LAYER
  2
_f-f_
 70
   64
 62
    7
  6
CONTINUOUS
  0
LAYER
  2
ADD_LINE
 70
   64
 62
    7
  6
CONTINUOUS
  0
ENDTAB
  0
ENDSEC
  0
SECTION
  2
BLOCKS
  0
ENDSEC
  0
SECTION
  2
ENTITIES
  0
LINE
  8
_f-0_
  6
CONTINUOUS
 62
  136
 10
1714.9999999999989
 20
1192.5
 11
385
 21
1192.5
  0
LINE
  8
_f-0_
  6
CONTINUOUS
 62
  136
 10
385
 20
277.50000000000341
 11
1714.9999999999989
 21
277.50000000000341
  0
LINE
  8
_f-0_
  6
CONTINUOUS
 62
  136
 10
385
 20
1192.5
 11
385
 21
277.50000000000341
  0
LINE
  8
_f-0_
  6
CONTINUOUS
 62
  136
 10
1714.9999999999989
 20
1192.5
 11
1714.9999999999989
 21
277.50000000000341
  0
LINE
  8
_f-0_
  6
CONTINUOUS
 62
    6
 10
1714.9999999999989
 20
1152.5
 11
385
 21
1152.5
  0
LINE
  8
_f-f_
  6
CONTINUOUS
 62
    9
 10
310
 20
217.5
 11
310
 21
1267.5
  0
LINE
  8
_f-f_
  6
CONTINUOUS
 62
    9
 10
1790
 20
217.5
 11
310
 21
217.5
  0
LINE
  8
_f-f_
  6
CONTINUOUS
 62
    9
 10
1790
 20
1267.5
 11
310
 21
1267.5
  0
LINE
  8
_f-f_
  6
CONTINUOUS
 62
    9
 10
1790
 20
1267.5
 11
1790
 21
217.5
  0
LINE
  8
ADD_LINE
  6
DOT
 62
  136
 10
1764.9999999999989
 20
1242.5
 11
335
 21
1242.5
  0
LINE
  8
ADD_LINE
  6
DOT
 62
  136
 10
335
 20
242.50000000000227
 11
335
 21
1242.5
  0
LINE
  8
ADD_LINE
  6
DOT
 62
  136
 10
1765
 20
1242.5
 11
1765
 21
242.5
  0
LINE
  8
ADD_LINE
  6
DOT
 62
  136
 10
1765
 20
242.5
 11
335.00000000000114
 21
242.5
  0
TEXT
  8
_0-a_文字
 62
    7
 10
405
 20
287.50000000000313
 40
15.000000000000568
 41
0.9999999999999666
 50
0
  1
※ 本図面は防水納まりの参考図であり、下地等の構造を保証するものではありません
  0
TEXT
  8
_0-a_文字
 62
    7
 10
405
 20
307.50000000000313
 40
15.000000000000568
 41
0.9999999999999668
 50
0
  1
※ デッキ端部などの開口部には、必要に応じ遮炎性を満たす処理をお願いします（別途工事）
  0
TEXT
  8
_0-a_文字
 62
    7
 10
405
 20
327.50000000000313
 40
15.000000000000568
 41
0.9999999999999666
 50
0
  1
※ ラジアルシートＬ６００は、断熱材の種類がポリスチレンフォームの場合のみ使用
  0
LINE
  8
_0-5_金属
  6
CONTINUOUS
 62
    7
 10
957.23527467667736
 20
593.6667613850102
 11
957.23527467667736
 21
635.06676138501007
  0
LINE
  8
_0-5_金属
  6
CONTINUOUS
 62
    7
 10
959.53527467667982
 20
593.6667613850102
 11
959.53527467667982
 21
635.06676138501007
  0
ARC
  8
_0-5_金属
  6
CONTINUOUS
 62
    7
 10
863.83527467667818
 20
593.6667613850102
 40
4.2999999999999989
 50
180
 51
270
  0
LINE
  8
_0-5_金属
  6
CONTINUOUS
 62
    7
 10
863.83527467667818
 20
589.36676138500957
 11
879.53527467667755
 21
589.36676138500957
  0
LINE
  8
_0-5_金属
  6
CONTINUOUS
 62
    7
 10
859.53527467667755
 20
593.6667613850102
 11
859.53527467667755
 21
635.06676138501007
  0
ARC
  8
_0-5_金属
  6
CONTINUOUS
 62
    7
 10
863.83527467667818
 20
635.06676138501007
 40
4.2999999999999989
 50
90
 51
180
  0
LINE
  8
_0-5_金属
  6
CONTINUOUS
 62
    7
 10
863.83527467667818
 20
639.3667613850107
 11
955.23527467667918
 21
639.3667613850107
  0
ARC
  8
_0-5_金属
  6
CONTINUOUS
 62
    7
 10
955.23527467667918
 20
635.06676138501007
 40
4.2999999999999989
 50
0
 51
90
  0
ARC
  8
_0-5_金属
  6
CONTINUOUS
 62
    7
 10
955.23527467667918
 20
593.6667613850102
 40
4.2999999999999989
 50
270
 51
0
  0
LINE
  8
_0-5_金属
  6
CONTINUOUS
 62
    7
 10
955.23527467667918
 20
589.36676138500957
 11
939.53527467667755
 21
589.36676138500957
  0
ARC
  8
_0-5_金属
  6
CONTINUOUS
 62
    7
 10
955.23527467667918
 20
593.6667613850102
 40
2
 50
270
 51
0
  0
LINE
  8
_0-5_金属
  6
CONTINUOUS
 62
    7
 10
955.23527467667918
 20
591.66676138500975
 11
939.53527467667755
 21
591.66676138500975
  0
ARC
  8
_0-5_金属
  6
CONTINUOUS
 62
    7
 10
955.23527467667918
 20
635.06676138501007
 40
2
 50
0
 51
90.000000000000014
  0
LINE
  8
_0-5_金属
  6
CONTINUOUS
 62
    7
 10
955.23527467667918
 20
637.06676138500939
 11
863.83527467667818
 21
637.06676138500939
  0
ARC
  8
_0-5_金属
  6
CONTINUOUS
 62
    7
 10
863.83527467667818
 20
635.06676138501007
 40
2
 50
90
 51
180
  0
LINE
  8
_0-5_金属
  6
CONTINUOUS
 62
    7
 10
861.83527467668
 20
635.06676138501007
 11
861.83527467668
 21
593.6667613850102
  0
ARC
  8
_0-5_金属
  6
CONTINUOUS
 62
    7
 10
863.83527467667818
 20
593.6667613850102
 40
2
 50
180
 51
270
  0
LINE
  8
_0-5_金属
  6
CONTINUOUS
 62
    7
 10
863.83527467667818
 20
591.66676138500975
 11
879.53527467667755
 21
591.66676138500975
  0
LINE
  8
_0-5_金属
  6
CONTINUOUS
 62
    7
 10
957.23527467667736
 20
893.6667613850102
 11
957.23527467667736
 21
935.0667613850112
  0
ARC
  8
_0-5_金属
  6
CONTINUOUS
 62
    7
 10
863.83527467667818
 20
893.6667613850102
 40
4.2999999999999989
 50
180
 51
270
  0
LINE
  8
_0-5_金属
  6
CONTINUOUS
 62
    7
 10
863.83527467667818
 20
889.36676138500957
 11
879.53527467667755
 21
889.36676138500957
  0
LINE
  8
_0-5_金属
  6
CONTINUOUS
 62
    7
 10
859.53527467667755
 20
893.6667613850102
 11
859.53527467667755
 21
935.0667613850112
  0
ARC
  8
_0-5_金属
  6
CONTINUOUS
 62
    7
 10
863.83527467667818
 20
935.0667613850112
 40
4.2999999999999989
 50
90
 51
180
  0
ARC
  8
_0-5_金属
  6
CONTINUOUS
 62
    7
 10
955.23527467667918
 20
935.0667613850112
 40
4.2999999999999989
 50
0
 51
90
  0
ARC
  8
_0-5_金属
  6
CONTINUOUS
 62
    7
 10
955.23527467667918
 20
893.6667613850102
 40
4.2999999999999989
 50
270
 51
0
  0
LINE
  8
_0-5_金属
  6
CONTINUOUS
 62
    7
 10
955.23527467667918
 20
889.36676138500957
 11
939.53527467667755
 21
889.36676138500957
  0
ARC
  8
_0-5_金属
  6
CONTINUOUS
 62
    7
 10
955.23527467667918
 20
893.6667613850102
 40
2
 50
270
 51
0
  0
LINE
  8
_0-5_金属
  6
CONTINUOUS
 62
    7
 10
955.23527467667918
 20
891.66676138500975
 11
939.53527467667755
 21
891.66676138500975
  0
ARC
  8
_0-5_金属
  6
CONTINUOUS
 62
    7
 10
955.23527467667918
 20
935.0667613850112
 40
2
 50
0
 51
90.000000000000014
  0
ARC
  8
_0-5_金属
  6
CONTINUOUS
 62
    7
 10
863.83527467667818
 20
935.0667613850112
 40
2
 50
90
 51
180
  0
LINE
  8
_0-5_金属
  6
CONTINUOUS
 62
    7
 10
861.83527467668
 20
935.0667613850112
 11
861.83527467668
 21
893.6667613850102
  0
ARC
  8
_0-5_金属
  6
CONTINUOUS
 62
    7
 10
863.83527467667818
 20
893.6667613850102
 40
2
 50
180
 51
270
  0
LINE
  8
_0-5_金属
  6
CONTINUOUS
 62
    7
 10
863.83527467667818
 20
891.66676138500975
 11
879.53527467667755
 21
891.66676138500975
  0
LINE
  8
_0-5_金属
  6
CONTINUOUS
 62
    7
 10
939.53527467667755
 20
891.66676138500975
 11
939.53527467667755
 21
889.36676138500957
  0
LINE
  8
_0-5_金属
  6
CONTINUOUS
 62
    7
 10
879.53527467667755
 20
891.66676138500975
 11
879.53527467667755
 21
889.36676138500957
  0
LINE
  8
_0-5_金属
  6
CONTINUOUS
 62
    7
 10
939.53527467667755
 20
889.36676138500957
 11
939.53527467667755
 21
639.3667613850107
  0
LINE
  8
_0-5_金属
  6
CONTINUOUS
 62
    7
 10
879.53527467667755
 20
889.36676138500957
 11
879.53527467667755
 21
639.3667613850107
  0
LINE
  8
_0-5_金属
  6
CONTINUOUS
 62
    7
 10
955.23527467667918
 20
937.06676138500939
 11
863.83527467667818
 21
937.06676138500939
  0
LINE
  8
_0-5_金属
  6
CONTINUOUS
 62
    7
 10
863.83527467667818
 20
939.36676138500957
 11
955.23527467667918
 21
939.36676138500957
  0
LINE
  8
_0-5_金属
  6
CONTINUOUS
 62
    7
 10
859.53527467667755
 20
893.6667613850102
 11
859.53527467667755
 21
635.06676138501007
  0
LINE
  8
_0-2_線色２__白__
  6
CONTINUOUS
 62
    7
 10
959.53527467667982
 20
635.06676138501007
 11
959.53527467667982
 21
939.36676138500957
  0
LINE
  8
_0-5_金属
  6
CONTINUOUS
 62
    7
 10
959.53527467667755
 20
893.6667613850102
 11
959.53527467667755
 21
935.0667613850112
  0
LINE
  8
_0-5_金属
  6
CONTINUOUS
 62
    7
 10
879.53527467667755
 20
591.66676138500975
 11
879.53527467667755
 21
589.36676138500957
  0
LINE
  8
_0-5_金属
  6
CONTINUOUS
 62
    7
 10
939.53527467667755
 20
591.66676138500975
 11
939.53527467667755
 21
589.36676138500957
  0
LINE
  8
_0-2_線色２__白__
  6
CONTINUOUS
 62
    7
 10
824.53527467667755
 20
937.36676138501139
 11
859.53527467667755
 21
937.36676138501139
  0
LINE
  8
_0-d_断熱__ハッチ
  6
CONTINUOUS
 62
    4
 10
857.79175665220237
 20
937.36676138501139
 11
859.53527467667755
 21
939.11027940948543
  0
LINE
  8
_0-d_断熱__ハッチ
  6
CONTINUOUS
 62
    4
 10
854.25622274627131
 20
937.36676138501139
 11
856.25622274626949
 21
939.3667613850107
  0
LINE
  8
_0-d_断熱__ハッチ
  6
CONTINUOUS
 62
    4
 10
850.7206888403357
 20
937.36676138501139
 11
852.72068884033615
 21
939.3667613850107
  0
LINE
  8
_0-d_断熱__ハッチ
  6
CONTINUOUS
 62
    4
 10
847.18515493440464
 20
937.36676138501252
 11
849.18515493440509
 21
939.36676138501184
  0
LINE
  8
_0-d_断熱__ハッチ
  6
CONTINUOUS
 62
    4
 10
843.6496210284713
 20
937.36676138501252
 11
845.64962102847176
 21
939.36676138501184
  0
LINE
  8
_0-d_断熱__ハッチ
  6
CONTINUOUS
 62
    4
 10
840.11408712253797
 20
937.36676138501139
 11
842.11408712253615
 21
939.36676138501184
  0
LINE
  8
_0-d_断熱__ハッチ
  6
CONTINUOUS
 62
    4
 10
836.57855321660463
 20
937.36676138501139
 11
838.57855321660281
 21
939.36676138501184
  0
LINE
  8
_0-d_断熱__ハッチ
  6
CONTINUOUS
 62
    4
 10
833.04301931068039
 20
937.36676138501139
 11
835.04301931067857
 21
939.36676138501184
  0
LINE
  8
_0-d_断熱__ハッチ
  6
CONTINUOUS
 62
    4
 10
829.50748540474706
 20
937.36676138501139
 11
831.50748540474297
 21
939.36676138500843
  0
LINE
  8
_0-d_断熱__ハッチ
  6
CONTINUOUS
 62
    4
 10
825.97195149881372
 20
937.36676138501252
 11
827.9719514988119
 21
939.36676138500957
  0
LINE
  8
_0-2_線色２__白__
  6
CONTINUOUS
 62
    7
 10
959.53527467667982
 20
939.36676138500957
 11
977.53527467668164
 21
939.36676138500957
  0
LINE
  8
_0-2_線色２__白__
  6
CONTINUOUS
 62
    7
 10
977.53527467668164
 20
540.56676138501075
 11
977.53527467668164
 21
939.36676138500957
  0
LINE
  8
_0-d_断熱__ハッチ
  6
CONTINUOUS
 62
    4
 10
969.53161091219044
 20
540.56676138500961
 11
977.53527467668164
 21
548.57042514950081
  0
LINE
  8
_0-d_断熱__ハッチ
  6
CONTINUOUS
 62
    4
 10
960.735274676681
 20
542.37702686729904
 11
977.53527467668164
 21
559.17702686729967
  0
LINE
  8
_0-d_断熱__ハッチ
  6
CONTINUOUS
 62
    4
 10
960.73527467667873
 20
552.98362858509449
 11
977.53527467667936
 21
569.78362858509399
  0
LINE
  8
_0-d_断熱__ハッチ
  6
CONTINUOUS
 62
    4
 10
960.73527467667873
 20
563.59023030288768
 11
977.53527467668164
 21
580.39023030289059
  0
LINE
  8
_0-d_断熱__ハッチ
  6
CONTINUOUS
 62
    4
 10
960.73527467667873
 20
574.19683202068768
 11
977.53527467667936
 21
590.99683202069059
  0
LINE
  8
_0-d_断熱__ハッチ
  6
CONTINUOUS
 62
    4
 10
960.73527467667873
 20
584.80343373848882
 11
977.53527467668164
 21
601.60343373849173
  0
LINE
  8
_0-d_断熱__ハッチ
  6
CONTINUOUS
 62
    4
 10
960.735274676681
 20
595.41003545628996
 11
977.53527467668164
 21
612.2100354562906
  0
LINE
  8
_0-d_断熱__ハッチ
  6
CONTINUOUS
 62
    4
 10
960.735274676681
 20
606.01663717408655
 11
977.53527467667936
 21
622.81663717408605
  0
LINE
  8
_0-d_断熱__ハッチ
  6
CONTINUOUS
 62
    4
 10
960.735274676681
 20
616.62323889188087
 11
977.53527467668164
 21
633.42323889188151
  0
LINE
  8
_0-d_断熱__ハッチ
  6
CONTINUOUS
 62
    4
 10
960.735274676681
 20
627.22984060968088
 11
977.53527467668164
 21
644.02984060968151
  0
LINE
  8
_0-d_断熱__ハッチ
  6
CONTINUOUS
 62
    4
 10
960.73527467667873
 20
637.83644232748088
 11
977.53527467668164
 21
654.63644232748265
  0
LINE
  8
_0-d_断熱__ハッチ
  6
CONTINUOUS
 62
    4
 10
959.53527467668209
 20
647.24304404528198
 11
977.53527467668164
 21
665.24304404528152
  0
LINE
  8
_0-d_断熱__ハッチ
  6
CONTINUOUS
 62
    4
 10
959.53527467667982
 20
657.8496457630763
 11
977.53527467668164
 21
675.84964576307698
  0
LINE
  8
_0-d_断熱__ハッチ
  6
CONTINUOUS
 62
    4
 10
959.53527467668209
 20
668.45624748087289
 11
977.53527467668164
 21
686.45624748087357
  0
LINE
  8
_0-d_断熱__ハッチ
  6
CONTINUOUS
 62
    4
 10
959.53527467667982
 20
679.06284919867289
 11
977.53527467668164
 21
697.06284919867244
  0
LINE
  8
_0-d_断熱__ハッチ
  6
CONTINUOUS
 62
    4
 10
959.53527467667982
 20
689.66945091647062
 11
977.53527467668164
 21
707.66945091647358
  0
LINE
  8
_0-d_断熱__ハッチ
  6
CONTINUOUS
 62
    4
 10
959.53527467668209
 20
700.2760526342729
 11
977.53527467668164
 21
718.27605263427245
  0
LINE
  8
_0-d_断熱__ハッチ
  6
CONTINUOUS
 62
    4
 10
959.53527467667982
 20
710.88265435206836
 11
977.53527467668164
 21
728.8826543520679
  0
LINE
  8
_0-d_断熱__ハッチ
  6
CONTINUOUS
 62
    4
 10
959.53527467668209
 20
721.48925606986381
 11
977.53527467668164
 21
739.48925606986563
  0
LINE
  8
_0-d_断熱__ハッチ
  6
CONTINUOUS
 62
    4
 10
959.53527467667982
 20
732.09585778766382
 11
977.53527467668164
 21
750.09585778766336
  0
LINE
  8
_0-d_断熱__ハッチ
  6
CONTINUOUS
 62
    4
 10
959.53527467667982
 20
742.70245950546155
 11
977.53527467668164
 21
760.70245950546564
  0
LINE
  8
_0-d_断熱__ハッチ
  6
CONTINUOUS
 62
    4
 10
959.53527467668209
 20
753.30906122326383
 11
977.53527467668164
 21
771.30906122326337
  0
LINE
  8
_0-d_断熱__ハッチ
  6
CONTINUOUS
 62
    4
 10
959.53527467668209
 20
763.91566294105928
 11
977.53527467668164
 21
781.91566294105883
  0
LINE
  8
_0-d_断熱__ハッチ
  6
CONTINUOUS
 62
    4
 10
959.53527467668209
 20
774.52226465885474
 11
977.53527467668391
 21
792.52226465885656
  0
LINE
  8
_0-d_断熱__ハッチ
  6
CONTINUOUS
 62
    4
 10
959.53527467667982
 20
785.12886637665474
 11
977.53527467668164
 21
803.12886637665542
  0
LINE
  8
_0-d_断熱__ハッチ
  6
CONTINUOUS
 62
    4
 10
959.53527467667982
 20
795.73546809445247
 11
977.53527467668164
 21
813.73546809445543
  0
LINE
  8
_0-d_断熱__ハッチ
  6
CONTINUOUS
 62
    4
 10
959.53527467668209
 20
806.34206981225475
 11
977.53527467668164
 21
824.34206981225429
  0
LINE
  8
_0-d_断熱__ハッチ
  6
CONTINUOUS
 62
    4
 10
959.53527467668209
 20
816.94867153005021
 11
977.53527467668164
 21
834.94867153005089
  0
LINE
  8
_0-d_断熱__ハッチ
  6
CONTINUOUS
 62
    4
 10
959.53527467668209
 20
827.55527324784566
 11
977.53527467668164
 21
845.55527324784521
  0
LINE
  8
_0-d_断熱__ハッチ
  6
CONTINUOUS
 62
    4
 10
959.53527467667982
 20
838.16187496564567
 11
977.53527467668164
 21
856.16187496564748
  0
LINE
  8
_0-d_断熱__ハッチ
  6
CONTINUOUS
 62
    4
 10
959.53527467667982
 20
848.7684766834434
 11
977.53527467668164
 21
866.76847668344635
  0
LINE
  8
_0-d_断熱__ハッチ
  6
CONTINUOUS
 62
    4
 10
959.53527467668209
 20
859.37507840124567
 11
977.53527467668164
 21
877.37507840124522
  0
LINE
  8
_0-d_断熱__ハッチ
  6
CONTINUOUS
 62
    4
 10
959.53527467668209
 20
869.98168011904681
 11
977.53527467668164
 21
887.9816801190475
  0
LINE
  8
_0-d_断熱__ハッチ
  6
CONTINUOUS
 62
    4
 10
959.53527467668209
 20
880.58828183683659
 11
977.53527467668164
 21
898.58828183683613
  0
LINE
  8
_0-d_断熱__ハッチ
  6
CONTINUOUS
 62
    4
 10
959.53527467667982
 20
891.19488355463659
 11
977.53527467668391
 21
909.19488355463841
  0
LINE
  8
_0-d_断熱__ハッチ
  6
CONTINUOUS
 62
    4
 10
959.53527467667982
 20
901.80148527243432
 11
977.53527467668164
 21
919.80148527243728
  0
LINE
  8
_0-d_断熱__ハッチ
  6
CONTINUOUS
 62
    4
 10
959.53527467668209
 20
912.4080869902366
 11
977.53527467668164
 21
930.40808699023614
  0
LINE
  8
_0-d_断熱__ハッチ
  6
CONTINUOUS
 62
    4
 10
959.53527467667982
 20
923.0146887080366
 11
975.88734735365506
 21
939.36676138500957
  0
LINE
  8
_0-d_断熱__ハッチ
  6
CONTINUOUS
 62
    4
 10
959.53527467668209
 20
933.62129042582751
 11
965.28074563586188
 21
939.36676138500957
  0
LINE
  8
_0-2_線色２__白__
  6
CONTINUOUS
 62
    7
 10
978.73527467668055
 20
910.56676138501075
 11
977.53527467668164
 21
908.48830041592805
  0
LINE
  8
_0-4_線色４__黄__
  6
CONTINUOUS
 62
    2
 10
983.73527467668055
 20
909.22701542285495
 11
982.53527467668391
 21
907.14855445377566
  0
LINE
  8
_0-4_線色４__黄__
  6
CONTINUOUS
 62
    2
 10
983.73527467668055
 20
942.56676138501007
 11
983.73527467668055
 21
909.22701542285495
  0
ARC
  8
_0-4_線色４__黄__
  6
CONTINUOUS
 62
    2
 10
980.735274676681
 20
942.56676138501007
 40
3.0000000000000004
 50
0
 51
90
  0
ARC
  8
_0-4_線色４__黄__
  6
CONTINUOUS
 62
    2
 10
820.76211511759766
 20
954.22981114935169
 40
14.174472191977507
 50
285.43791299863494
 51
324.80011879761605
  0
ARC
  8
_0-4_線色４__黄__
  6
CONTINUOUS
 62
    2
 10
845.18670389825502
 20
956.43969246173242
 40
10.892428114515676
 50
236.56644740139643
 51
266.57134018064198
  0
ARC
  8
_0-4_線色４__黄__
  6
CONTINUOUS
 62
    2
 10
836.43046016445851
 20
943.17705821927007
 40
5
 50
56.566447401396069
 51
144.80011879761557
  0
LINE
  8
_0-d_断熱__ハッチ
  6
CONTINUOUS
 62
    4
 10
842.92865933875191
 20
945.56676138500848
 11
843.10913128461607
 21
945.74723333087491
  0
LINE
  8
_0-d_断熱__ハッチ
  6
CONTINUOUS
 62
    4
 10
840.80733899518918
 20
945.56676138500848
 11
841.44915489804589
 21
946.20857728786291
  0
LINE
  8
_0-d_断熱__ハッチ
  6
CONTINUOUS
 62
    4
 10
833.68601865163328
 20
940.56676138501075
 11
834.53527467667982
 21
941.41601741005502
  0
LINE
  8
_0-d_断熱__ハッチ
  6
CONTINUOUS
 62
    4
 10
838.68601865163555
 20
945.56676138501075
 11
839.98747904117863
 21
946.86822177455383
  0
LINE
  8
_0-d_断熱__ハッチ
  6
CONTINUOUS
 62
    4
 10
831.56469830807282
 20
940.56676138500848
 11
834.53527467667982
 21
943.5373377536132
  0
LINE
  8
_0-d_断熱__ハッチ
  6
CONTINUOUS
 62
    4
 10
836.56469830807737
 20
945.56676138500848
 11
838.65358118398717
 21
947.65564426092283
  0
LINE
  8
_0-d_断熱__ハッチ
  6
CONTINUOUS
 62
    4
 10
829.44337796451919
 20
940.56676138501075
 11
837.01892496187838
 21
948.14230838237222
  0
LINE
  8
_0-d_断熱__ハッチ
  6
CONTINUOUS
 62
    4
 10
827.322057620961
 20
940.56676138501075
 11
834.57555778517644
 21
947.82026154922619
  0
LINE
  8
_0-d_断熱__ハッチ
  6
CONTINUOUS
 62
    4
 10
825.20073727739373
 20
940.56676138501075
 11
825.50711790263904
 21
940.87314201025833
  0
LINE
  8
_0-3_線色３__緑__
  6
RAND3
 62
    3
 10
884.53527467667755
 20
940.56676138501075
 11
834.53527467667755
 21
940.56676138501075
  0
LINE
  8
_0-4_線色４__黄__
  6
CONTINUOUS
 62
    2
 10
834.53527467667755
 20
945.56676138501075
 11
834.53527467667755
 21
940.56676138501075
  0
LINE
  8
_0-4_線色４__黄__
  6
CONTINUOUS
 62
    2
 10
980.735274676681
 20
945.56676138501075
 11
834.53527467667755
 21
945.56676138501075
  0
LINE
  8
_0-d_断熱__ハッチ
  6
CONTINUOUS
 62
    4
 10
977.53527467668164
 20
549.26760548377047
 11
986.23611877544135
 21
540.56676138501075
  0
LINE
  8
_0-5_金属
  6
CONTINUOUS
 62
    7
 10
959.53527467667982
 20
893.6667613850102
 11
959.53527467667982
 21
635.06676138501007
  0
LINE
  8
_0-4_線色４__黄__
  6
CONTINUOUS
 62
    2
 10
1026.1808067500351
 20
592.81791017193655
 11
1030.2321553259935
 21
589.3667613850107
  0
LINE
  8
_0-4_線色４__黄__
  6
CONTINUOUS
 62
    2
 10
985.53527467668346
 20
592.81791017193655
 11
1026.1808067500351
 21
592.81791017193655
  0
LINE
  8
_0-4_線色４__黄__
  6
CONTINUOUS
 62
    2
 10
1030.2321553259935
 20
589.3667613850107
 11
1036.2292873929255
 21
589.3667613850107
  0
LINE
  8
_0-2_線色２__白__
  6
CONTINUOUS
 62
    7
 10
1025.5352746766835
 20
580.23140204851984
 11
1026.5502876294977
 21
579.3667613850107
  0
LINE
  8
_0-2_線色２__白__
  6
CONTINUOUS
 62
    7
 10
1046.9512647060719
 20
584.47706501667199
 11
1046.9771632555398
 21
584.3667613850107
  0
LINE
  8
_0-2_線色２__白__
  6
CONTINUOUS
 62
    7
 10
1046.9054278103931
 20
584.66673996377494
 11
1046.9512647060719
 21
584.47706501667199
  0
LINE
  8
_0-2_線色２__白__
  6
CONTINUOUS
 62
    7
 10
1046.8563014031065
 20
584.85501566595076
 11
1046.9054278103931
 21
584.66673996377494
  0
LINE
  8
_0-2_線色２__白__
  6
CONTINUOUS
 62
    7
 10
1046.8018035148361
 20
585.04100652514126
 11
1046.8563014031065
 21
584.85501566595076
  0
LINE
  8
_0-2_線色２__白__
  6
CONTINUOUS
 62
    7
 10
1046.7398521762129
 20
585.22382694329053
 11
1046.8018035148361
 21
585.04100652514126
  0
LINE
  8
_0-2_線色２__白__
  6
CONTINUOUS
 62
    7
 10
1046.6683654178632
 20
585.40259132234041
 11
1046.7398521762129
 21
585.22382694329053
  0
LINE
  8
_0-2_線色２__白__
  6
CONTINUOUS
 62
    7
 10
1046.6217135645047
 20
585.50406721338959
 11
1046.6683654178632
 21
585.40259132234041
  0
LINE
  8
_0-2_線色２__白__
  6
CONTINUOUS
 62
    7
 10
1046.5856736534192
 20
585.57571887123231
 11
1046.6217135645047
 21
585.50406721338959
  0
LINE
  8
_0-2_線色２__白__
  6
CONTINUOUS
 62
    7
 10
1046.5186531550899
 20
585.69701262493481
 11
1046.5856736534192
 21
585.57571887123231
  0
LINE
  8
_0-2_線色２__白__
  6
CONTINUOUS
 62
    7
 10
1046.445945588946
 20
585.81542438962742
 11
1046.5186531550899
 21
585.69701262493481
  0
LINE
  8
_0-2_線色２__白__
  6
CONTINUOUS
 62
    7
 10
1046.3681248981993
 20
585.930905322341
 11
1046.445945588946
 21
585.81542438962742
  0
LINE
  8
_0-2_線色２__白__
  6
CONTINUOUS
 62
    7
 10
1046.2857650260685
 20
586.0434065800996
 11
1046.3681248981993
 21
585.930905322341
  0
LINE
  8
_0-2_線色２__白__
  6
CONTINUOUS
 62
    7
 10
1046.1994399157629
 20
586.15287931993635
 11
1046.2857650260685
 21
586.0434065800996
  0
LINE
  8
_0-2_線色２__白__
  6
CONTINUOUS
 62
    7
 10
1046.1477806431253
 20
586.21496659545983
 11
1046.1994399157629
 21
586.15287931993635
  0
LINE
  8
_0-2_線色２__白__
  6
CONTINUOUS
 62
    7
 10
1046.0567120611859
 20
586.31916790367086
 11
1046.1477806431253
 21
586.21496659545983
  0
LINE
  8
_0-2_線色２__白__
  6
CONTINUOUS
 62
    7
 10
1045.8933981899077
 20
586.49244490668025
 11
1046.0567120611859
 21
586.31916790367086
  0
LINE
  8
_0-2_線色２__白__
  6
CONTINUOUS
 62
    7
 10
1045.723352990799
 20
586.65893104953057
 11
1045.8933981899077
 21
586.49244490668025
  0
LINE
  8
_0-2_線色２__白__
  6
CONTINUOUS
 62
    7
 10
1045.5480208645736
 20
586.82012124745597
 11
1045.723352990799
 21
586.65893104953057
  0
LINE
  8
_0-2_線色２__白__
  6
CONTINUOUS
 62
    7
 10
1045.3688462119476
 20
586.97751041569745
 11
1045.5480208645736
 21
586.82012124745597
  0
LINE
  8
_0-2_線色２__白__
  6
CONTINUOUS
 62
    7
 10
1045.1872734336371
 20
587.13259346949144
 11
1045.3688462119476
 21
586.97751041569745
  0
LINE
  8
_0-2_線色２__白__
  6
CONTINUOUS
 62
    7
 10
1045.08143157002
 20
587.22207405339304
 11
1045.1872734336371
 21
587.13259346949144
  0
LINE
  8
_0-2_線色２__白__
  6
CONTINUOUS
 62
    7
 10
1044.9969784006157
 20
587.2933312324858
 11
1045.08143157002
 21
587.22207405339304
  0
LINE
  8
_0-2_線色２__白__
  6
CONTINUOUS
 62
    7
 10
1044.8508707995211
 20
587.41553131241062
 11
1044.9969784006157
 21
587.2933312324858
  0
LINE
  8
_0-2_線色２__白__
  6
CONTINUOUS
 62
    7
 10
1044.7034659578276
 20
587.53586366145782
 11
1044.8508707995211
 21
587.41553131241062
  0
LINE
  8
_0-2_線色２__白__
  6
CONTINUOUS
 62
    7
 10
1044.5539894690933
 20
587.65312371385335
 11
1044.7034659578276
 21
587.53586366145782
  0
LINE
  8
_0-2_線色２__白__
  6
CONTINUOUS
 62
    7
 10
1044.4016669268694
 20
587.76610690382313
 11
1044.5539894690933
 21
587.65312371385335
  0
LINE
  8
_0-2_線色２__白__
  6
CONTINUOUS
 62
    7
 10
1044.2457239247165
 20
587.87360866559084
 11
1044.4016669268694
 21
587.76610690382313
  0
LINE
  8
_0-2_線色２__白__
  6
CONTINUOUS
 62
    7
 10
1044.153312932317
 20
587.93297343546328
 11
1044.2457239247165
 21
587.87360866559084
  0
LINE
  8
_0-2_線色２__白__
  6
CONTINUOUS
 62
    7
 10
1044.0615979239919
 20
587.98866037697508
 11
1044.153312932317
 21
587.93297343546328
  0
LINE
  8
_0-2_線色２__白__
  6
CONTINUOUS
 62
    7
 10
1043.9007941979798
 20
588.0806171477002
 11
1044.0615979239919
 21
587.98866037697508
  0
LINE
  8
_0-2_線色２__白__
  6
CONTINUOUS
 62
    7
 10
1043.7380767700256
 20
588.16971731003605
 11
1043.9007941979798
 21
588.0806171477002
  0
LINE
  8
_0-2_線色２__白__
  6
CONTINUOUS
 62
    7
 10
1043.5751568217347
 20
588.25860801848648
 11
1043.7380767700256
 21
588.16971731003605
  0
LINE
  8
_0-2_線色２__白__
  6
CONTINUOUS
 62
    7
 10
1043.4137455347013
 20
588.34993642755762
 11
1043.5751568217347
 21
588.25860801848648
  0
LINE
  8
_0-2_線色２__白__
  6
CONTINUOUS
 62
    7
 10
1043.2555540905309
 20
588.44634969175104
 11
1043.4137455347013
 21
588.34993642755762
  0
LINE
  8
_0-2_線色２__白__
  6
CONTINUOUS
 62
    7
 10
1043.1659526794419
 20
588.5056423821311
 11
1043.2555540905309
 21
588.44634969175104
  0
LINE
  8
_0-2_線色２__白__
  6
CONTINUOUS
 62
    7
 10
1043.1119254545479
 20
588.54350967852042
 11
1043.1659526794419
 21
588.5056423821311
  0
LINE
  8
_0-2_線色２__白__
  6
CONTINUOUS
 62
    7
 10
1043.0205709555958
 20
588.61143750805013
 11
1043.1119254545479
 21
588.54350967852042
  0
LINE
  8
_0-2_線色２__白__
  6
CONTINUOUS
 62
    7
 10
1042.9315409445599
 20
588.68252898473884
 11
1043.0205709555958
 21
588.61143750805013
  0
LINE
  8
_0-2_線色２__白__
  6
CONTINUOUS
 62
    7
 10
1042.8448949690642
 20
588.7565778880662
 11
1042.9315409445599
 21
588.68252898473884
  0
LINE
  8
_0-2_線色２__白__
  6
CONTINUOUS
 62
    7
 10
1042.760692576735
 20
588.83337799750734
 11
1042.8448949690642
 21
588.7565778880662
  0
LINE
  8
_0-2_線色２__白__
  6
CONTINUOUS
 62
    7
 10
1042.678993315194
 20
588.91272309254191
 11
1042.760692576735
 21
588.83337799750734
  0
LINE
  8
_0-2_線色２__白__
  6
CONTINUOUS
 62
    7
 10
1042.6327781428904
 20
588.95982809845236
 11
1042.678993315194
 21
588.91272309254191
  0
LINE
  8
_0-2_線色２__白__
  6
CONTINUOUS
 62
    7
 10
1042.5048961350626
 20
589.09908099823269
 11
1042.6327781428904
 21
588.95982809845236
  0
LINE
  8
_0-2_線色２__白__
  6
CONTINUOUS
 62
    7
 10
1042.2996105087896
 20
589.35192345399173
 11
1042.5048961350626
 21
589.09908099823269
  0
LINE
  8
_0-2_線色２__白__
  6
CONTINUOUS
 62
    7
 10
1042.1109985103885
 20
589.61835497517768
 11
1042.2996105087896
 21
589.35192345399173
  0
LINE
  8
_0-2_線色２__白__
  6
CONTINUOUS
 62
    7
 10
1041.9360745230028
 20
589.89540840319478
 11
1042.1109985103885
 21
589.61835497517768
  0
LINE
  8
_0-2_線色２__白__
  6
CONTINUOUS
 62
    7
 10
1041.7718529297758
 20
590.18011657944726
 11
1041.9360745230028
 21
589.89540840319478
  0
LINE
  8
_0-2_線色２__白__
  6
CONTINUOUS
 62
    7
 10
1041.6153481138463
 20
590.46951234533481
 11
1041.7718529297758
 21
590.18011657944726
  0
LINE
  8
_0-2_線色２__白__
  6
CONTINUOUS
 62
    7
 10
1041.5269346596688
 20
590.63834052834181
 11
1041.6153481138463
 21
590.46951234533481
  0
LINE
  8
_0-2_線色２__白__
  6
CONTINUOUS
 62
    7
 10
1041.4619766650389
 20
590.76378027784131
 11
1041.5269346596688
 21
590.63834052834181
  0
LINE
  8
_0-2_線色２__白__
  6
CONTINUOUS
 62
    7
 10
1041.3508496728423
 20
590.97992011709721
 11
1041.4619766650389
 21
590.76378027784131
  0
LINE
  8
_0-2_線色２__白__
  6
CONTINUOUS
 62
    7
 10
1041.2401622489824
 20
591.19568365807709
 11
1041.3508496728423
 21
590.97992011709721
  0
LINE
  8
_0-2_線色２__白__
  6
CONTINUOUS
 62
    7
 10
1041.1291456397362
 20
591.41083291915265
 11
1041.2401622489824
 21
591.19568365807709
  0
LINE
  8
_0-2_線色２__白__
  6
CONTINUOUS
 62
    7
 10
1041.0170310913713
 20
591.6251299186888
 11
1041.1291456397362
 21
591.41083291915265
  0
LINE
  8
_0-2_線色２__白__
  6
CONTINUOUS
 62
    7
 10
1040.9030498501625
 20
591.83833667505723
 11
1041.0170310913713
 21
591.6251299186888
  0
LINE
  8
_0-2_線色２__白__
  6
CONTINUOUS
 62
    7
 10
1040.8357824826567
 20
591.96140326719387
 11
1040.9030498501625
 21
591.83833667505723
  0
LINE
  8
_0-2_線色２__白__
  6
CONTINUOUS
 62
    7
 10
1040.7718921557966
 20
592.07608206422265
 11
1040.8357824826567
 21
591.96140326719387
  0
LINE
  8
_0-2_線色２__白__
  6
CONTINUOUS
 62
    7
 10
1040.6589393022296
 20
592.27233606300388
 11
1040.7718921557966
 21
592.07608206422265
  0
LINE
  8
_0-2_線色２__白__
  6
CONTINUOUS
 62
    7
 10
1040.5414385380595
 20
592.46604523214728
 11
1040.6589393022296
 21
592.27233606300388
  0
LINE
  8
_0-2_線色２__白__
  6
CONTINUOUS
 62
    7
 10
1040.4182186360731
 20
592.6564112932374
 11
1040.5414385380595
 21
592.46604523214728
  0
LINE
  8
_0-2_線色２__白__
  6
CONTINUOUS
 62
    7
 10
1040.2881083690545
 20
592.84263596785877
 11
1040.4182186360731
 21
592.6564112932374
  0
LINE
  8
_0-2_線色２__白__
  6
CONTINUOUS
 62
    7
 10
1040.1499365097857
 20
593.02392097759366
 11
1040.2881083690545
 21
592.84263596785877
  0
LINE
  8
_0-2_線色２__白__
  6
CONTINUOUS
 62
    7
 10
1040.0656414854143
 20
593.12648836558537
 11
1040.1499365097857
 21
593.02392097759366
  0
LINE
  8
_0-2_線色２__白__
  6
CONTINUOUS
 62
    7
 10
1039.9901994054289
 20
593.21334206958227
 11
1040.0656414854143
 21
593.12648836558537
  0
LINE
  8
_0-2_線色２__白__
  6
CONTINUOUS
 62
    7
 10
1039.8542899522249
 20
593.35836389891256
 11
1039.9901994054289
 21
593.21334206958227
  0
LINE
  8
_0-2_線色２__白__
  6
CONTINUOUS
 62
    7
 10
1039.7109956118584
 20
593.49578130475948
 11
1039.8542899522249
 21
593.35836389891256
  0
LINE
  8
_0-2_線色２__白__
  6
CONTINUOUS
 62
    7
 10
1039.5603205654402
 20
593.62370797807444
 11
1039.7109956118584
 21
593.49578130475948
  0
LINE
  8
_0-2_線色２__白__
  6
CONTINUOUS
 62
    7
 10
1039.4022689940812
 20
593.74025760980658
 11
1039.5603205654402
 21
593.62370797807444
  0
LINE
  8
_0-2_線色２__白__
  6
CONTINUOUS
 62
    7
 10
1039.2368450788922
 20
593.84354389090504
 11
1039.4022689940812
 21
593.74025760980658
  0
LINE
  8
_0-2_線色２__白__
  6
CONTINUOUS
 62
    7
 10
1039.1375228477114
 20
593.89662936282775
 11
1039.2368450788922
 21
593.84354389090504
  0
LINE
  8
_0-2_線色２__白__
  6
CONTINUOUS
 62
    7
 10
1039.0269850215918
 20
593.94823930348366
 11
1039.1375228477114
 21
593.89662936282775
  0
LINE
  8
_0-2_線色２__白__
  6
CONTINUOUS
 62
    7
 10
1038.8304910459919
 20
594.0241388372192
 11
1039.0269850215918
 21
593.94823930348366
  0
LINE
  8
_0-2_線色２__白__
  6
CONTINUOUS
 62
    7
 10
1038.6279378461359
 20
594.08654700411716
 11
1038.8304910459919
 21
594.0241388372192
  0
LINE
  8
_0-2_線色２__白__
  6
CONTINUOUS
 62
    7
 10
1038.4209808968694
 20
594.13903304582163
 11
1038.6279378461359
 21
594.08654700411716
  0
LINE
  8
_0-2_線色２__白__
  6
CONTINUOUS
 62
    7
 10
1038.2112756730317
 20
594.18516620396986
 11
1038.4209808968694
 21
594.13903304582163
  0
LINE
  8
_0-2_線色２__白__
  6
CONTINUOUS
 62
    7
 10
1038.0004776494684
 20
594.22851572020363
 11
1038.2112756730317
 21
594.18516620396986
  0
LINE
  8
_0-2_線色２__白__
  6
CONTINUOUS
 62
    7
 10
1037.8783664181401
 20
594.25378944170234
 11
1038.0004776494684
 21
594.22851572020363
  0
LINE
  8
_0-2_線色２__白__
  6
CONTINUOUS
 62
    7
 10
1037.770804192603
 20
594.27677122858995
 11
1037.8783664181401
 21
594.25378944170234
  0
LINE
  8
_0-2_線色２__白__
  6
CONTINUOUS
 62
    7
 10
1037.5860846546766
 20
594.31721522616499
 11
1037.770804192603
 21
594.27677122858995
  0
LINE
  8
_0-2_線色２__白__
  6
CONTINUOUS
 62
    7
 10
1037.4019790586544
 20
594.35727289087254
 11
1037.5860846546766
 21
594.31721522616499
  0
LINE
  8
_0-2_線色２__白__
  6
CONTINUOUS
 62
    7
 10
1037.2181230227966
 20
594.39528771689993
 11
1037.4019790586544
 21
594.35727289087254
  0
LINE
  8
_0-2_線色２__白__
  6
CONTINUOUS
 62
    7
 10
1037.0341521653563
 20
594.42960319843905
 11
1037.2181230227966
 21
594.39528771689993
  0
LINE
  8
_0-2_線色２__白__
  6
CONTINUOUS
 62
    7
 10
1036.8497021045869
 20
594.45856282967952
 11
1037.0341521653563
 21
594.42960319843905
  0
LINE
  8
_0-2_線色２__白__
  6
CONTINUOUS
 62
    7
 10
1036.7423579130218
 20
594.47225261576477
 11
1036.8497021045869
 21
594.45856282967952
  0
LINE
  8
_0-2_線色２__白__
  6
CONTINUOUS
 62
    7
 10
1036.5958064367851
 20
594.48668922454317
 11
1036.7423579130218
 21
594.47225261576477
  0
LINE
  8
_0-2_線色２__白__
  6
CONTINUOUS
 62
    7
 10
1036.3418412497936
 20
594.50075837254644
 11
1036.5958064367851
 21
594.48668922454317
  0
LINE
  8
_0-2_線色２__白__
  6
CONTINUOUS
 62
    7
 10
1036.08662346036
 20
594.50238807979304
 11
1036.3418412497936
 21
594.50075837254644
  0
LINE
  8
_0-2_線色２__白__
  6
CONTINUOUS
 62
    7
 10
1035.8305956237291
 20
594.49304198860773
 11
1036.08662346036
 21
594.50238807979304
  0
LINE
  8
_0-2_線色２__白__
  6
CONTINUOUS
 62
    7
 10
1035.5742002951479
 20
594.47418374130848
 11
1035.8305956237291
 21
594.49304198860773
  0
LINE
  8
_0-2_線色２__白__
  6
CONTINUOUS
 62
    7
 10
1035.3178800298633
 20
594.44727698022007
 11
1035.5742002951479
 21
594.47418374130848
  0
LINE
  8
_0-2_線色２__白__
  6
CONTINUOUS
 62
    7
 10
1035.1694230597786
 20
594.42855998095183
 11
1035.3178800298633
 21
594.44727698022007
  0
LINE
  8
_0-2_線色２__白__
  6
CONTINUOUS
 62
    7
 10
1035.0466542117488
 20
594.41150661491747
 11
1035.1694230597786
 21
594.42855998095183
  0
LINE
  8
_0-2_線色２__白__
  6
CONTINUOUS
 62
    7
 10
1034.8358111681932
 20
594.37815389928119
 11
1035.0466542117488
 21
594.41150661491747
  0
LINE
  8
_0-2_線色２__白__
  6
CONTINUOUS
 62
    7
 10
1034.6266317764844
 20
594.33852930417288
 11
1034.8358111681932
 21
594.37815389928119
  0
LINE
  8
_0-2_線色２__白__
  6
CONTINUOUS
 62
    7
 10
1034.4198326996752
 20
594.29115443044111
 11
1034.6266317764844
 21
594.33852930417288
  0
LINE
  8
_0-2_線色２__白__
  6
CONTINUOUS
 62
    7
 10
1034.2161306008188
 20
594.23455087894354
 11
1034.4198326996752
 21
594.29115443044111
  0
LINE
  8
_0-2_線色２__白__
  6
CONTINUOUS
 62
    7
 10
1034.0162421429636
 20
594.16724025052872
 11
1034.2161306008188
 21
594.23455087894354
  0
LINE
  8
_0-2_線色２__白__
  6
CONTINUOUS
 62
    7
 10
1033.9023366502238
 20
594.12271153726579
 11
1034.0162421429636
 21
594.16724025052872
  0
LINE
  8
_0-2_線色２__白__
  6
CONTINUOUS
 62
    7
 10
1033.8009403890555
 20
594.07882926634556
 11
1033.9023366502238
 21
594.12271153726579
  0
LINE
  8
_0-2_線色２__白__
  6
CONTINUOUS
 62
    7
 10
1033.6293422914514
 20
593.99532108583344
 11
1033.8009403890555
 21
594.07882926634556
  0
LINE
  8
_0-2_線色２__白__
  6
CONTINUOUS
 62
    7
 10
1033.4618846494209
 20
593.9027006905485
 11
1033.6293422914514
 21
593.99532108583344
  0
LINE
  8
_0-2_線色２__白__
  6
CONTINUOUS
 62
    7
 10
1033.2986379921931
 20
593.80192545912223
 11
1033.4618846494209
 21
593.9027006905485
  0
LINE
  8
_0-2_線色２__白__
  6
CONTINUOUS
 62
    7
 10
1033.139672849004
 20
593.69395277019066
 11
1033.2986379921931
 21
593.80192545912223
  0
LINE
  8
_0-2_線色２__白__
  6
CONTINUOUS
 62
    7
 10
1032.9850597490849
 20
593.57974000238983
 11
1033.139672849004
 21
593.69395277019066
  0
LINE
  8
_0-2_線色２__白__
  6
CONTINUOUS
 62
    7
 10
1032.897406049542
 20
593.5110146498937
 11
1032.9850597490849
 21
593.57974000238983
  0
LINE
  8
_0-2_線色２__白__
  6
CONTINUOUS
 62
    7
 10
1032.800178607954
 20
593.43146484261297
 11
1032.897406049542
 21
593.5110146498937
  0
LINE
  8
_0-2_線色２__白__
  6
CONTINUOUS
 62
    7
 10
1032.6366537645731
 20
593.29000158978715
 11
1032.800178607954
 21
593.43146484261297
  0
LINE
  8
_0-2_線色２__白__
  6
CONTINUOUS
 62
    7
 10
1032.4777398084666
 20
593.14377485938849
 11
1032.6366537645731
 21
593.29000158978715
  0
LINE
  8
_0-2_線色２__白__
  6
CONTINUOUS
 62
    7
 10
1032.322750728963
 20
592.99358722046918
 11
1032.4777398084666
 21
593.14377485938849
  0
LINE
  8
_0-2_線色２__白__
  6
CONTINUOUS
 62
    7
 10
1032.1710005153932
 20
592.8402412420678
 11
1032.322750728963
 21
592.99358722046918
  0
LINE
  8
_0-2_線色２__白__
  6
CONTINUOUS
 62
    7
 10
1032.0218031570857
 20
592.68453949323657
 11
1032.1710005153932
 21
592.8402412420678
  0
LINE
  8
_0-2_線色２__白__
  6
CONTINUOUS
 62
    7
 10
1031.936168083671
 20
592.59346931883783
 11
1032.0218031570857
 21
592.68453949323657
  0
LINE
  8
_0-2_線色２__白__
  6
CONTINUOUS
 62
    7
 10
1031.8548121857589
 20
592.50604622583069
 11
1031.936168083671
 21
592.59346931883783
  0
LINE
  8
_0-2_線色２__白__
  6
CONTINUOUS
 62
    7
 10
1031.7157630904512
 20
592.35430098257666
 11
1031.8548121857589
 21
592.50604622583069
  0
LINE
  8
_0-2_線色２__白__
  6
CONTINUOUS
 62
    7
 10
1031.5784991936266
 20
592.20092099548765
 11
1031.7157630904512
 21
592.35430098257666
  0
LINE
  8
_0-2_線色２__白__
  6
CONTINUOUS
 62
    7
 10
1031.443301055499
 20
592.04550050202215
 11
1031.5784991936266
 21
592.20092099548765
  0
LINE
  8
_0-2_線色２__白__
  6
CONTINUOUS
 62
    7
 10
1031.3104492362777
 20
591.88763373963184
 11
1031.443301055499
 21
592.04550050202215
  0
LINE
  8
_0-2_線色２__白__
  6
CONTINUOUS
 62
    7
 10
1031.1802242961744
 20
591.72691494576839
 11
1031.3104492362777
 21
591.88763373963184
  0
LINE
  8
_0-2_線色２__白__
  6
CONTINUOUS
 62
    7
 10
1031.1060080222387
 20
591.63223135296676
 11
1031.1802242961744
 21
591.72691494576839
  0
LINE
  8
_0-2_線色２__白__
  6
CONTINUOUS
 62
    7
 10
1031.04380044256
 20
591.55086350576084
 11
1031.1060080222387
 21
591.63223135296676
  0
LINE
  8
_0-2_線色２__白__
  6
CONTINUOUS
 62
    7
 10
1030.939101104243
 20
591.40843432496467
 11
1031.04380044256
 21
591.55086350576084
  0
LINE
  8
_0-2_線色２__白__
  6
CONTINUOUS
 62
    7
 10
1030.838852007098
 20
591.26307328319399
 11
1030.939101104243
 21
591.40843432496467
  0
LINE
  8
_0-2_線色２__白__
  6
CONTINUOUS
 62
    7
 10
1030.7444670179507
 20
591.11452076739397
 11
1030.838852007098
 21
591.26307328319399
  0
LINE
  8
_0-2_線色２__白__
  6
CONTINUOUS
 62
    7
 10
1030.6573600036245
 20
590.96251716451206
 11
1030.7444670179507
 21
591.11452076739397
  0
LINE
  8
_0-2_線色２__白__
  6
CONTINUOUS
 62
    7
 10
1030.5789448309429
 20
590.80680286150027
 11
1030.6573600036245
 21
590.96251716451206
  0
LINE
  8
_0-2_線色２__白__
  6
CONTINUOUS
 62
    7
 10
1030.5380037696796
 20
590.71468602190862
 11
1030.5789448309429
 21
590.80680286150027
  0
LINE
  8
_0-2_線色２__白__
  6
CONTINUOUS
 62
    7
 10
1030.4907800713863
 20
590.59472091891621
 11
1030.5380037696796
 21
590.71468602190862
  0
LINE
  8
_0-2_線色２__白__
  6
CONTINUOUS
 62
    7
 10
1030.4218649283962
 20
590.38316798709729
 11
1030.4907800713863
 21
590.59472091891621
  0
LINE
  8
_0-2_線色２__白__
  6
CONTINUOUS
 62
    7
 10
1030.3662765308673
 20
590.1665885784405
 11
1030.4218649283962
 21
590.38316798709729
  0
LINE
  8
_0-2_線色２__白__
  6
CONTINUOUS
 62
    7
 10
1030.321105109042
 20
589.94608017696919
 11
1030.3662765308673
 21
590.1665885784405
  0
LINE
  8
_0-2_線色２__白__
  6
CONTINUOUS
 62
    7
 10
1030.2834408931767
 20
589.7227402667113
 11
1030.321105109042
 21
589.94608017696919
  0
LINE
  8
_0-2_線色２__白__
  6
CONTINUOUS
 62
    7
 10
1030.250374113516
 20
589.49766633169247
 11
1030.2834408931767
 21
589.7227402667113
  0
LINE
  8
_0-2_線色２__白__
  6
CONTINUOUS
 62
    7
 10
1030.2321553259935
 20
589.3667613850107
 11
1030.250374113516
 21
589.49766633169247
  0
LINE
  8
_0-2_線色２__白__
  6
CONTINUOUS
 62
    7
 10
977.53527467668164
 20
587.81791017193655
 11
1024.3398729017895
 21
587.81791017193655
  0
LINE
  8
_0-2_線色２__白__
  6
CONTINUOUS
 62
    7
 10
1024.3398729017895
 20
587.81791017193655
 11
1028.3912214777456
 21
584.3667613850107
  0
ARC
  8
_0-2_線色２__白__
  6
CONTINUOUS
 62
    7
 10
985.53527467668346
 20
595.81791017193609
 40
8
 50
180
 51
270
  0
LINE
  8
_0-2_線色２__白__
  6
CONTINUOUS
 62
    7
 10
1028.3912214777456
 20
584.3667613850107
 11
1036.2292873929255
 21
584.3667613850107
  0
LINE
  8
_0-4_線色４__黄__
  6
CONTINUOUS
 62
    2
 10
1036.2292873929255
 20
589.3667613850107
 11
1036.2292873929255
 21
584.3667613850107
  0
LINE
  8
_0-4_線色４__黄__
  6
CONTINUOUS
 62
    2
 10
982.53527467668391
 20
595.81791017193609
 11
982.53527467668391
 21
907.14855445377566
  0
ARC
  8
_0-4_線色４__黄__
  6
CONTINUOUS
 62
    2
 10
985.53527467668346
 20
595.81791017193609
 40
3.0000000000000004
 50
180
 51
270
  0
LINE
  8
_0-d_断熱__ハッチ
  6
CONTINUOUS
 62
    4
 10
980.72039002290694
 20
574.3667613850107
 11
1014.5203900229058
 21
540.56676138501302
  0
LINE
  8
_0-d_断熱__ハッチ
  6
CONTINUOUS
 62
    4
 10
1197.7616490578362
 20
539.36676138501184
 11
1232.7616490578339
 21
574.3667613850107
  0
LINE
  8
_0-d_断熱__ハッチ
  6
CONTINUOUS
 62
    4
 10
1169.4773778103718
 20
539.36676138501412
 11
1204.4773778103672
 21
574.3667613850107
  0
LINE
  8
_0-d_断熱__ハッチ
  6
CONTINUOUS
 62
    4
 10
1142.3931065629108
 20
540.56676138501075
 11
1176.1931065629096
 21
574.3667613850107
  0
LINE
  8
_0-d_断熱__ハッチ
  6
CONTINUOUS
 62
    4
 10
1114.1088353154441
 20
540.56676138501189
 11
1147.908835315443
 21
574.3667613850107
  0
LINE
  8
_0-d_断熱__ハッチ
  6
CONTINUOUS
 62
    4
 10
1085.8245640679866
 20
540.56676138501075
 11
1119.6245640679854
 21
574.3667613850107
  0
LINE
  8
_0-d_断熱__ハッチ
  6
CONTINUOUS
 62
    4
 10
1057.5402928205199
 20
540.56676138501189
 11
1091.3402928205187
 21
574.3667613850107
  0
LINE
  8
_0-d_断熱__ハッチ
  6
CONTINUOUS
 62
    4
 10
1029.2560215730623
 20
540.56676138501075
 11
1063.0560215730611
 21
574.3667613850107
  0
LINE
  8
_0-d_断熱__ハッチ
  6
CONTINUOUS
 62
    4
 10
1000.9717503255979
 20
540.56676138501302
 11
1034.7717503255944
 21
574.3667613850107
  0
LINE
  8
_0-d_断熱__ハッチ
  6
CONTINUOUS
 62
    4
 10
977.53527467668164
 20
545.41455698355435
 11
1006.4874790781369
 21
574.3667613850107
  0
LINE
  8
_0-d_断熱__ハッチ
  6
CONTINUOUS
 62
    4
 10
1009.0046612703645
 20
574.3667613850107
 11
1042.8046612703656
 21
540.56676138501075
  0
LINE
  8
_0-d_断熱__ハッチ
  6
CONTINUOUS
 62
    4
 10
1037.2889325178312
 20
574.3667613850107
 11
1071.0889325178323
 21
540.56676138501075
  0
LINE
  8
_0-d_断熱__ハッチ
  6
CONTINUOUS
 62
    4
 10
1065.5732037652888
 20
574.3667613850107
 11
1099.3732037652899
 21
540.56676138501075
  0
LINE
  8
_0-d_断熱__ハッチ
  6
CONTINUOUS
 62
    4
 10
1093.8574750127509
 20
574.3667613850107
 11
1127.657475012752
 21
540.56676138501075
  0
LINE
  8
_0-d_断熱__ハッチ
  6
CONTINUOUS
 62
    4
 10
1122.141746260213
 20
574.3667613850107
 11
1155.9417462602141
 21
540.56676138501075
  0
LINE
  8
_0-d_断熱__ハッチ
  6
CONTINUOUS
 62
    4
 10
1150.4260175076706
 20
574.3667613850107
 11
1185.4260175076729
 21
539.36676138500843
  0
LINE
  8
_0-d_断熱__ハッチ
  6
CONTINUOUS
 62
    4
 10
1178.7102887551373
 20
574.3667613850107
 11
1213.7102887551396
 21
539.36676138500957
  0
ARC
  8
_0-1_線色１__水色__
  6
CONTINUOUS
 62
    4
 10
1137.8872948169669
 20
577.82509472410879
 40
1.2083333333333581
 50
307.52351320333912
 51
232.47648680464988
  0
ARC
  8
_0-1_線色１__水色__
  6
CONTINUOUS
 62
    4
 10
1139.3592549614414
 20
575.90842805750981
 40
1.2083333333333177
 50
127.52351320610693
 51
52.47648680188081
  0
ARC
  8
_0-1_線色１__水色__
  6
CONTINUOUS
 62
    4
 10
1134.943374528284
 20
577.82509472390416
 40
1.2083333333333581
 50
307.52351320333912
 51
232.47648680464988
  0
ARC
  8
_0-1_線色１__水色__
  6
CONTINUOUS
 62
    4
 10
1136.4153346727585
 20
575.90842805730404
 40
1.2083333333333177
 50
127.52351320610693
 51
52.47648680188081
  0
ARC
  8
_0-1_線色１__水色__
  6
CONTINUOUS
 62
    4
 10
1131.9994542395989
 20
577.82509472369952
 40
1.2083333333333581
 50
307.52351320333912
 51
232.47648680464988
  0
ARC
  8
_0-1_線色１__水色__
  6
CONTINUOUS
 62
    4
 10
1133.4714143840756
 20
575.9084280570994
 40
1.2083333333333177
 50
127.52351320610693
 51
52.47648680188081
  0
ARC
  8
_0-1_線色１__水色__
  6
CONTINUOUS
 62
    4
 10
1129.055533950916
 20
577.82509472349375
 40
1.2083333333333581
 50
307.52351320333912
 51
232.47648680464988
  0
ARC
  8
_0-1_線色１__水色__
  6
CONTINUOUS
 62
    4
 10
1130.5274940953927
 20
575.90842805689476
 40
1.2083333333333177
 50
127.52351320610693
 51
52.47648680188081
  0
ARC
  8
_0-1_線色１__水色__
  6
CONTINUOUS
 62
    4
 10
1164.3825774151173
 20
577.82509472410879
 40
1.2083333333333581
 50
307.52351320333912
 51
232.47648680464988
  0
ARC
  8
_0-1_線色１__水色__
  6
CONTINUOUS
 62
    4
 10
1165.8545375595918
 20
575.90842805750981
 40
1.2083333333333177
 50
127.52351320610693
 51
52.47648680188081
  0
ARC
  8
_0-1_線色１__水色__
  6
CONTINUOUS
 62
    4
 10
1161.4386571264322
 20
577.82509472390416
 40
1.2083333333333581
 50
307.52351320333912
 51
232.47648680464988
  0
ARC
  8
_0-1_線色１__水色__
  6
CONTINUOUS
 62
    4
 10
1162.9106172709089
 20
575.90842805730404
 40
1.2083333333333177
 50
127.52351320610693
 51
52.47648680188081
  0
ARC
  8
_0-1_線色１__水色__
  6
CONTINUOUS
 62
    4
 10
1158.4947368377493
 20
577.82509472369952
 40
1.2083333333333581
 50
307.52351320333912
 51
232.47648680464988
  0
ARC
  8
_0-1_線色１__水色__
  6
CONTINUOUS
 62
    4
 10
1159.966696982226
 20
575.9084280570994
 40
1.2083333333333177
 50
127.52351320610693
 51
52.47648680188081
  0
ARC
  8
_0-1_線色１__水色__
  6
CONTINUOUS
 62
    4
 10
1155.5508165490664
 20
577.82509472349375
 40
1.2083333333333581
 50
307.52351320333912
 51
232.47648680464988
  0
ARC
  8
_0-1_線色１__水色__
  6
CONTINUOUS
 62
    4
 10
1157.0227766935409
 20
575.90842805689476
 40
1.2083333333333177
 50
127.52351320610693
 51
52.47648680188081
  0
ARC
  8
_0-1_線色１__水色__
  6
CONTINUOUS
 62
    4
 10
1152.6068962603836
 20
577.82509472328798
 40
1.2083333333333581
 50
307.52351320333912
 51
232.47648680464988
  0
ARC
  8
_0-1_線色１__水色__
  6
CONTINUOUS
 62
    4
 10
1154.078856404858
 20
575.90842805668899
 40
1.2083333333333177
 50
127.52351320610693
 51
52.47648680188081
  0
ARC
  8
_0-1_線色１__水色__
  6
CONTINUOUS
 62
    4
 10
1149.6629759717007
 20
577.82509472308334
 40
1.2083333333333581
 50
307.52351320333912
 51
232.47648680464988
  0
ARC
  8
_0-1_線色１__水色__
  6
CONTINUOUS
 62
    4
 10
1151.1349361161751
 20
575.90842805648322
 40
1.2083333333333177
 50
127.52351320610693
 51
52.47648680188081
  0
ARC
  8
_0-1_線色１__水色__
  6
CONTINUOUS
 62
    4
 10
1143.7751353943327
 20
577.82509472267293
 40
1.2083333333333581
 50
307.52351320333912
 51
232.47648680464988
  0
ARC
  8
_0-1_線色１__水色__
  6
CONTINUOUS
 62
    4
 10
1146.7190556830155
 20
577.8250947228787
 40
1.2083333333333581
 50
307.52351320333912
 51
232.47648680464988
  0
ARC
  8
_0-1_線色１__水色__
  6
CONTINUOUS
 62
    4
 10
1145.2470955388094
 20
575.90842805607394
 40
1.2083333333333177
 50
127.52351320610693
 51
52.47648680188081
  0
ARC
  8
_0-1_線色１__水色__
  6
CONTINUOUS
 62
    4
 10
1148.1910158274923
 20
575.90842805627858
 40
1.2083333333333177
 50
127.52351320610693
 51
52.47648680188081
  0
ARC
  8
_0-1_線色１__水色__
  6
CONTINUOUS
 62
    4
 10
1142.3031752501242
 20
575.90842805586817
 40
1.2083333333333177
 50
127.52351320610693
 51
52.47648680188081
  0
ARC
  8
_0-1_線色１__水色__
  6
CONTINUOUS
 62
    4
 10
1140.8312151056498
 20
577.82509472246716
 40
1.2083333333333581
 50
307.52351320333912
 51
232.47648680464988
  0
ARC
  8
_0-1_線色１__水色__
  6
CONTINUOUS
 62
    4
 10
1182.0460991472169
 20
577.82509472410879
 40
1.2083333333333581
 50
307.52351320333912
 51
232.47648680464988
  0
ARC
  8
_0-1_線色１__水色__
  6
CONTINUOUS
 62
    4
 10
1183.5180592916913
 20
575.90842805750981
 40
1.2083333333333177
 50
127.52351320610693
 51
52.47648680188081
  0
ARC
  8
_0-1_線色１__水色__
  6
CONTINUOUS
 62
    4
 10
1179.102178858534
 20
577.82509472390416
 40
1.2083333333333581
 50
307.52351320333912
 51
232.47648680464988
  0
ARC
  8
_0-1_線色１__水色__
  6
CONTINUOUS
 62
    4
 10
1180.5741390030084
 20
575.90842805730404
 40
1.2083333333333177
 50
127.52351320610693
 51
52.47648680188081
  0
ARC
  8
_0-1_線色１__水色__
  6
CONTINUOUS
 62
    4
 10
1176.1582585698511
 20
577.82509472369952
 40
1.2083333333333581
 50
307.52351320333912
 51
232.47648680464988
  0
ARC
  8
_0-1_線色１__水色__
  6
CONTINUOUS
 62
    4
 10
1177.6302187143256
 20
575.9084280570994
 40
1.2083333333333177
 50
127.52351320610693
 51
52.47648680188081
  0
ARC
  8
_0-1_線色１__水色__
  6
CONTINUOUS
 62
    4
 10
1173.214338281166
 20
577.82509472349375
 40
1.2083333333333581
 50
307.52351320333912
 51
232.47648680464988
  0
ARC
  8
_0-1_線色１__水色__
  6
CONTINUOUS
 62
    4
 10
1174.6862984256427
 20
575.90842805689476
 40
1.2083333333333177
 50
127.52351320610693
 51
52.47648680188081
  0
ARC
  8
_0-1_線色１__水色__
  6
CONTINUOUS
 62
    4
 10
1170.2704179924831
 20
577.82509472328798
 40
1.2083333333333581
 50
307.52351320333912
 51
232.47648680464988
  0
ARC
  8
_0-1_線色１__水色__
  6
CONTINUOUS
 62
    4
 10
1171.7423781369575
 20
575.90842805668899
 40
1.2083333333333177
 50
127.52351320610693
 51
52.47648680188081
  0
ARC
  8
_0-1_線色１__水色__
  6
CONTINUOUS
 62
    4
 10
1167.3264977038002
 20
577.82509472308334
 40
1.2083333333333581
 50
307.52351320333912
 51
232.47648680464988
  0
ARC
  8
_0-1_線色１__水色__
  6
CONTINUOUS
 62
    4
 10
1168.7984578482747
 20
575.90842805648322
 40
1.2083333333333177
 50
127.52351320610693
 51
52.47648680188081
  0
ARC
  8
_0-1_線色１__水色__
  6
CONTINUOUS
 62
    4
 10
1208.5413817453673
 20
577.82509472410879
 40
1.2083333333333581
 50
307.52351320333912
 51
232.47648680464988
  0
ARC
  8
_0-1_線色１__水色__
  6
CONTINUOUS
 62
    4
 10
1210.0133418898417
 20
575.90842805750981
 40
1.2083333333333177
 50
127.52351320610693
 51
52.47648680188081
  0
ARC
  8
_0-1_線色１__水色__
  6
CONTINUOUS
 62
    4
 10
1205.5974614566844
 20
577.82509472390416
 40
1.2083333333333581
 50
307.52351320333912
 51
232.47648680464988
  0
ARC
  8
_0-1_線色１__水色__
  6
CONTINUOUS
 62
    4
 10
1207.0694216011589
 20
575.90842805730404
 40
1.2083333333333177
 50
127.52351320610693
 51
52.47648680188081
  0
ARC
  8
_0-1_線色１__水色__
  6
CONTINUOUS
 62
    4
 10
1202.6535411679993
 20
577.82509472369952
 40
1.2083333333333581
 50
307.52351320333912
 51
232.47648680464988
  0
ARC
  8
_0-1_線色１__水色__
  6
CONTINUOUS
 62
    4
 10
1204.125501312476
 20
575.9084280570994
 40
1.2083333333333177
 50
127.52351320610693
 51
52.47648680188081
  0
ARC
  8
_0-1_線色１__水色__
  6
CONTINUOUS
 62
    4
 10
1199.7096208793164
 20
577.82509472349375
 40
1.2083333333333581
 50
307.52351320333912
 51
232.47648680464988
  0
ARC
  8
_0-1_線色１__水色__
  6
CONTINUOUS
 62
    4
 10
1201.1815810237931
 20
575.90842805689476
 40
1.2083333333333177
 50
127.52351320610693
 51
52.47648680188081
  0
ARC
  8
_0-1_線色１__水色__
  6
CONTINUOUS
 62
    4
 10
1196.7657005906335
 20
577.82509472328798
 40
1.2083333333333581
 50
307.52351320333912
 51
232.47648680464988
  0
ARC
  8
_0-1_線色１__水色__
  6
CONTINUOUS
 62
    4
 10
1198.237660735108
 20
575.90842805668899
 40
1.2083333333333177
 50
127.52351320610693
 51
52.47648680188081
  0
ARC
  8
_0-1_線色１__水色__
  6
CONTINUOUS
 62
    4
 10
1193.8217803019506
 20
577.82509472308334
 40
1.2083333333333581
 50
307.52351320333912
 51
232.47648680464988
  0
ARC
  8
_0-1_線色１__水色__
  6
CONTINUOUS
 62
    4
 10
1195.2937404464251
 20
575.90842805648322
 40
1.2083333333333177
 50
127.52351320610693
 51
52.47648680188081
  0
ARC
  8
_0-1_線色１__水色__
  6
CONTINUOUS
 62
    4
 10
1187.9339397245826
 20
577.82509472267293
 40
1.2083333333333581
 50
307.52351320333912
 51
232.47648680464988
  0
ARC
  8
_0-1_線色１__水色__
  6
CONTINUOUS
 62
    4
 10
1190.8778600132678
 20
577.8250947228787
 40
1.2083333333333581
 50
307.52351320333912
 51
232.47648680464988
  0
ARC
  8
_0-1_線色１__水色__
  6
CONTINUOUS
 62
    4
 10
1189.4058998690593
 20
575.90842805607394
 40
1.2083333333333177
 50
127.52351320610693
 51
52.47648680188081
  0
ARC
  8
_0-1_線色１__水色__
  6
CONTINUOUS
 62
    4
 10
1192.3498201577422
 20
575.90842805627858
 40
1.2083333333333177
 50
127.52351320610693
 51
52.47648680188081
  0
ARC
  8
_0-1_線色１__水色__
  6
CONTINUOUS
 62
    4
 10
1186.4619795803742
 20
575.90842805586817
 40
1.2083333333333177
 50
127.52351320610693
 51
52.47648680188081
  0
ARC
  8
_0-1_線色１__水色__
  6
CONTINUOUS
 62
    4
 10
1184.9900194358997
 20
577.82509472246716
 40
1.2083333333333581
 50
307.52351320333912
 51
232.47648680464988
  0
ARC
  8
_0-1_線色１__水色__
  6
CONTINUOUS
 62
    4
 10
1235.0366643435177
 20
577.82509472410879
 40
1.2083333333333581
 50
307.52351320333912
 51
232.47648680464988
  0
ARC
  8
_0-1_線色１__水色__
  6
CONTINUOUS
 62
    4
 10
1232.0927440548326
 20
577.82509472390416
 40
1.2083333333333581
 50
307.52351320333912
 51
232.47648680464988
  0
ARC
  8
_0-1_線色１__水色__
  6
CONTINUOUS
 62
    4
 10
1233.5647041993093
 20
575.90842805730404
 40
1.2083333333333177
 50
127.52351320610693
 51
52.47648680188081
  0
ARC
  8
_0-1_線色１__水色__
  6
CONTINUOUS
 62
    4
 10
1229.1488237661497
 20
577.82509472369952
 40
1.2083333333333581
 50
307.52351320333912
 51
232.47648680464988
  0
ARC
  8
_0-1_線色１__水色__
  6
CONTINUOUS
 62
    4
 10
1230.6207839106264
 20
575.9084280570994
 40
1.2083333333333177
 50
127.52351320610693
 51
52.47648680188081
  0
ARC
  8
_0-1_線色１__水色__
  6
CONTINUOUS
 62
    4
 10
1226.2049034774668
 20
577.82509472349375
 40
1.2083333333333581
 50
307.52351320333912
 51
232.47648680464988
  0
ARC
  8
_0-1_線色１__水色__
  6
CONTINUOUS
 62
    4
 10
1227.6768636219413
 20
575.90842805689476
 40
1.2083333333333177
 50
127.52351320610693
 51
52.47648680188081
  0
ARC
  8
_0-1_線色１__水色__
  6
CONTINUOUS
 62
    4
 10
1223.2609831887839
 20
577.82509472328798
 40
1.2083333333333581
 50
307.52351320333912
 51
232.47648680464988
  0
ARC
  8
_0-1_線色１__水色__
  6
CONTINUOUS
 62
    4
 10
1224.7329433332584
 20
575.90842805668899
 40
1.2083333333333177
 50
127.52351320610693
 51
52.47648680188081
  0
ARC
  8
_0-1_線色１__水色__
  6
CONTINUOUS
 62
    4
 10
1220.3170629001011
 20
577.82509472308334
 40
1.2083333333333581
 50
307.52351320333912
 51
232.47648680464988
  0
ARC
  8
_0-1_線色１__水色__
  6
CONTINUOUS
 62
    4
 10
1221.7890230445755
 20
575.90842805648322
 40
1.2083333333333177
 50
127.52351320610693
 51
52.47648680188081
  0
ARC
  8
_0-1_線色１__水色__
  6
CONTINUOUS
 62
    4
 10
1214.429222322733
 20
577.82509472267293
 40
1.2083333333333581
 50
307.52351320333912
 51
232.47648680464988
  0
ARC
  8
_0-1_線色１__水色__
  6
CONTINUOUS
 62
    4
 10
1217.3731426114159
 20
577.8250947228787
 40
1.2083333333333581
 50
307.52351320333912
 51
232.47648680464988
  0
ARC
  8
_0-1_線色１__水色__
  6
CONTINUOUS
 62
    4
 10
1215.9011824672098
 20
575.90842805607394
 40
1.2083333333333177
 50
127.52351320610693
 51
52.47648680188081
  0
ARC
  8
_0-1_線色１__水色__
  6
CONTINUOUS
 62
    4
 10
1218.8451027558926
 20
575.90842805627858
 40
1.2083333333333177
 50
127.52351320610693
 51
52.47648680188081
  0
ARC
  8
_0-1_線色１__水色__
  6
CONTINUOUS
 62
    4
 10
1212.9572621785246
 20
575.90842805586817
 40
1.2083333333333177
 50
127.52351320610693
 51
52.47648680188081
  0
ARC
  8
_0-1_線色１__水色__
  6
CONTINUOUS
 62
    4
 10
1211.4853020340502
 20
577.82509472246716
 40
1.2083333333333581
 50
307.52351320333912
 51
232.47648680464988
  0
ARC
  8
_0-1_線色１__水色__
  6
CONTINUOUS
 62
    4
 10
1108.4480919301564
 20
577.82509472388597
 40
1.2083333333333581
 50
307.52351320333912
 51
232.47648680464988
  0
ARC
  8
_0-1_線色１__水色__
  6
CONTINUOUS
 62
    4
 10
1109.9200520746308
 20
575.90842805728698
 40
1.2083333333333177
 50
127.52351320610693
 51
52.47648680188081
  0
ARC
  8
_0-1_線色１__水色__
  6
CONTINUOUS
 62
    4
 10
1105.5041716414712
 20
577.82509472368133
 40
1.2083333333333581
 50
307.52351320333912
 51
232.47648680464988
  0
ARC
  8
_0-1_線色１__水色__
  6
CONTINUOUS
 62
    4
 10
1106.9761317859479
 20
575.90842805708121
 40
1.2083333333333177
 50
127.52351320610693
 51
52.47648680188081
  0
ARC
  8
_0-1_線色１__水色__
  6
CONTINUOUS
 62
    4
 10
1102.5602513527883
 20
577.82509472347556
 40
1.2083333333333581
 50
307.52351320333912
 51
232.47648680464988
  0
ARC
  8
_0-1_線色１__水色__
  6
CONTINUOUS
 62
    4
 10
1104.0322114972651
 20
575.90842805687657
 40
1.2083333333333177
 50
127.52351320610693
 51
52.47648680188081
  0
ARC
  8
_0-1_線色１__水色__
  6
CONTINUOUS
 62
    4
 10
1099.6163310641055
 20
577.82509472327092
 40
1.2083333333333581
 50
307.52351320333912
 51
232.47648680464988
  0
ARC
  8
_0-1_線色１__水色__
  6
CONTINUOUS
 62
    4
 10
1101.0882912085799
 20
575.9084280566708
 40
1.2083333333333177
 50
127.52351320610693
 51
52.47648680188081
  0
ARC
  8
_0-1_線色１__水色__
  6
CONTINUOUS
 62
    4
 10
1126.1116136622559
 20
577.82509472327092
 40
1.2083333333333581
 50
307.52351320333912
 51
232.47648680464988
  0
ARC
  8
_0-1_線色１__水色__
  6
CONTINUOUS
 62
    4
 10
1127.5835738067303
 20
575.9084280566708
 40
1.2083333333333177
 50
127.52351320610693
 51
52.47648680188081
  0
ARC
  8
_0-1_線色１__水色__
  6
CONTINUOUS
 62
    4
 10
1123.167693373573
 20
577.82509472306515
 40
1.2083333333333581
 50
307.52351320333912
 51
232.47648680464988
  0
ARC
  8
_0-1_線色１__水色__
  6
CONTINUOUS
 62
    4
 10
1124.6396535180475
 20
575.90842805646616
 40
1.2083333333333177
 50
127.52351320610693
 51
52.47648680188081
  0
ARC
  8
_0-1_線色１__水色__
  6
CONTINUOUS
 62
    4
 10
1120.2237730848879
 20
577.82509472286051
 40
1.2083333333333581
 50
307.52351320333912
 51
232.47648680464988
  0
ARC
  8
_0-1_線色１__水色__
  6
CONTINUOUS
 62
    4
 10
1121.6957332293646
 20
575.90842805626039
 40
1.2083333333333177
 50
127.52351320610693
 51
52.47648680188081
  0
ARC
  8
_0-1_線色１__水色__
  6
CONTINUOUS
 62
    4
 10
1114.3359325075221
 20
577.8250947224501
 40
1.2083333333333581
 50
307.52351320333912
 51
232.47648680464988
  0
ARC
  8
_0-1_線色１__水色__
  6
CONTINUOUS
 62
    4
 10
1117.279852796205
 20
577.82509472265474
 40
1.2083333333333581
 50
307.52351320333912
 51
232.47648680464988
  0
ARC
  8
_0-1_線色１__水色__
  6
CONTINUOUS
 62
    4
 10
1115.8078926519966
 20
575.90842805584998
 40
1.2083333333333177
 50
127.52351320610693
 51
52.47648680188081
  0
ARC
  8
_0-1_線色１__水色__
  6
CONTINUOUS
 62
    4
 10
1118.7518129406817
 20
575.90842805605575
 40
1.2083333333333177
 50
127.52351320610693
 51
52.47648680188081
  0
ARC
  8
_0-1_線色１__水色__
  6
CONTINUOUS
 62
    4
 10
1112.8639723633137
 20
575.90842805564535
 40
1.2083333333333177
 50
127.52351320610693
 51
52.47648680188081
  0
ARC
  8
_0-1_線色１__水色__
  6
CONTINUOUS
 62
    4
 10
1111.3920122188392
 20
577.82509472224433
 40
1.2083333333333581
 50
307.52351320333912
 51
232.47648680464988
  0
ARC
  8
_0-1_線色１__水色__
  6
CONTINUOUS
 62
    4
 10
1079.0088890433435
 20
577.82509472366314
 40
1.2083333333333581
 50
307.52351320333912
 51
232.47648680464988
  0
ARC
  8
_0-1_線色１__水色__
  6
CONTINUOUS
 62
    4
 10
1080.4808491878202
 20
575.90842805706302
 40
1.2083333333333177
 50
127.52351320610693
 51
52.47648680188081
  0
ARC
  8
_0-1_線色１__水色__
  6
CONTINUOUS
 62
    4
 10
1076.0649687546606
 20
577.82509472345851
 40
1.2083333333333581
 50
307.52351320333912
 51
232.47648680464988
  0
ARC
  8
_0-1_線色１__水色__
  6
CONTINUOUS
 62
    4
 10
1077.5369288991374
 20
575.90842805685838
 40
1.2083333333333177
 50
127.52351320610693
 51
52.47648680188081
  0
ARC
  8
_0-1_線色１__水色__
  6
CONTINUOUS
 62
    4
 10
1073.1210484659778
 20
577.82509472325273
 40
1.2083333333333581
 50
307.52351320333912
 51
232.47648680464988
  0
ARC
  8
_0-1_線色１__水色__
  6
CONTINUOUS
 62
    4
 10
1074.5930086104522
 20
575.90842805665375
 40
1.2083333333333177
 50
127.52351320610693
 51
52.47648680188081
  0
ARC
  8
_0-1_線色１__水色__
  6
CONTINUOUS
 62
    4
 10
1070.1771281772949
 20
577.82509472304696
 40
1.2083333333333581
 50
307.52351320333912
 51
232.47648680464988
  0
ARC
  8
_0-1_線色１__水色__
  6
CONTINUOUS
 62
    4
 10
1071.6490883217693
 20
575.90842805644797
 40
1.2083333333333177
 50
127.52351320610693
 51
52.47648680188081
  0
ARC
  8
_0-1_線色１__水色__
  6
CONTINUOUS
 62
    4
 10
1096.6724107754453
 20
577.82509472304696
 40
1.2083333333333581
 50
307.52351320333912
 51
232.47648680464988
  0
ARC
  8
_0-1_線色１__水色__
  6
CONTINUOUS
 62
    4
 10
1098.1443709199198
 20
575.90842805644797
 40
1.2083333333333177
 50
127.52351320610693
 51
52.47648680188081
  0
ARC
  8
_0-1_線色１__水色__
  6
CONTINUOUS
 62
    4
 10
1093.7284904867624
 20
577.82509472284232
 40
1.2083333333333581
 50
307.52351320333912
 51
232.47648680464988
  0
ARC
  8
_0-1_線色１__水色__
  6
CONTINUOUS
 62
    4
 10
1095.2004506312369
 20
575.9084280562422
 40
1.2083333333333177
 50
127.52351320610693
 51
52.47648680188081
  0
ARC
  8
_0-1_線色１__水色__
  6
CONTINUOUS
 62
    4
 10
1090.7845701980773
 20
577.82509472263769
 40
1.2083333333333581
 50
307.52351320333912
 51
232.47648680464988
  0
ARC
  8
_0-1_線色１__水色__
  6
CONTINUOUS
 62
    4
 10
1092.256530342554
 20
575.90842805603756
 40
1.2083333333333177
 50
127.52351320610693
 51
52.47648680188081
  0
ARC
  8
_0-1_線色１__水色__
  6
CONTINUOUS
 62
    4
 10
1084.8967296207115
 20
577.82509472222614
 40
1.2083333333333581
 50
307.52351320333912
 51
232.47648680464988
  0
ARC
  8
_0-1_線色１__水色__
  6
CONTINUOUS
 62
    4
 10
1087.8406499093944
 20
577.82509472243191
 40
1.2083333333333581
 50
307.52351320333912
 51
232.47648680464988
  0
ARC
  8
_0-1_線色１__水色__
  6
CONTINUOUS
 62
    4
 10
1086.368689765186
 20
575.90842805562716
 40
1.2083333333333177
 50
127.52351320610693
 51
52.47648680188081
  0
ARC
  8
_0-1_線色１__水色__
  6
CONTINUOUS
 62
    4
 10
1089.3126100538711
 20
575.90842805583293
 40
1.2083333333333177
 50
127.52351320610693
 51
52.47648680188081
  0
ARC
  8
_0-1_線色１__水色__
  6
CONTINUOUS
 62
    4
 10
1083.4247694765031
 20
575.90842805542138
 40
1.2083333333333177
 50
127.52351320610693
 51
52.47648680188081
  0
ARC
  8
_0-1_線色１__水色__
  6
CONTINUOUS
 62
    4
 10
1081.9528093320287
 20
577.8250947220215
 40
1.2083333333333581
 50
307.52351320333912
 51
232.47648680464988
  0
ARC
  8
_0-1_線色１__水色__
  6
CONTINUOUS
 62
    4
 10
1049.569686156533
 20
577.82509472344032
 40
1.2083333333333581
 50
307.52351320333912
 51
232.47648680464988
  0
ARC
  8
_0-1_線色１__水色__
  6
CONTINUOUS
 62
    4
 10
1051.0416463010097
 20
575.90842805684019
 40
1.2083333333333177
 50
127.52351320610693
 51
52.47648680188081
  0
ARC
  8
_0-1_線色１__水色__
  6
CONTINUOUS
 62
    4
 10
1046.6257658678501
 20
577.82509472323454
 40
1.2083333333333581
 50
307.52351320333912
 51
232.47648680464988
  0
ARC
  8
_0-1_線色１__水色__
  6
CONTINUOUS
 62
    4
 10
1048.0977260123268
 20
575.90842805663556
 40
1.2083333333333177
 50
127.52351320610693
 51
52.47648680188081
  0
ARC
  8
_0-1_線色１__水色__
  6
CONTINUOUS
 62
    4
 10
1043.6818455791672
 20
577.82509472302991
 40
1.2083333333333581
 50
307.52351320333912
 51
232.47648680464988
  0
ARC
  8
_0-1_線色１__水色__
  6
CONTINUOUS
 62
    4
 10
1045.1538057236417
 20
575.90842805642978
 40
1.2083333333333177
 50
127.52351320610693
 51
52.47648680188081
  0
ARC
  8
_0-1_線色１__水色__
  6
CONTINUOUS
 62
    4
 10
1040.7379252904843
 20
577.82509472282413
 40
1.2083333333333581
 50
307.52351320333912
 51
232.47648680464988
  0
ARC
  8
_0-1_線色１__水色__
  6
CONTINUOUS
 62
    4
 10
1042.2098854349588
 20
575.90842805622515
 40
1.2083333333333177
 50
127.52351320610693
 51
52.47648680188081
  0
ARC
  8
_0-1_線色１__水色__
  6
CONTINUOUS
 62
    4
 10
1067.2332078886348
 20
577.82509472282413
 40
1.2083333333333581
 50
307.52351320333912
 51
232.47648680464988
  0
ARC
  8
_0-1_線色１__水色__
  6
CONTINUOUS
 62
    4
 10
1068.7051680331092
 20
575.90842805622515
 40
1.2083333333333177
 50
127.52351320610693
 51
52.47648680188081
  0
ARC
  8
_0-1_線色１__水色__
  6
CONTINUOUS
 62
    4
 10
1064.2892875999519
 20
577.8250947226195
 40
1.2083333333333581
 50
307.52351320333912
 51
232.47648680464988
  0
ARC
  8
_0-1_線色１__水色__
  6
CONTINUOUS
 62
    4
 10
1065.7612477444263
 20
575.90842805601937
 40
1.2083333333333177
 50
127.52351320610693
 51
52.47648680188081
  0
ARC
  8
_0-1_線色１__水色__
  6
CONTINUOUS
 62
    4
 10
1061.3453673112667
 20
577.82509472241372
 40
1.2083333333333581
 50
307.52351320333912
 51
232.47648680464988
  0
ARC
  8
_0-1_線色１__水色__
  6
CONTINUOUS
 62
    4
 10
1062.8173274557435
 20
575.90842805581474
 40
1.2083333333333177
 50
127.52351320610693
 51
52.47648680188081
  0
ARC
  8
_0-1_線色１__水色__
  6
CONTINUOUS
 62
    4
 10
1055.457526733901
 20
577.82509472200331
 40
1.2083333333333581
 50
307.52351320333912
 51
232.47648680464988
  0
ARC
  8
_0-1_線色１__水色__
  6
CONTINUOUS
 62
    4
 10
1058.4014470225839
 20
577.82509472220909
 40
1.2083333333333581
 50
307.52351320333912
 51
232.47648680464988
  0
ARC
  8
_0-1_線色１__水色__
  6
CONTINUOUS
 62
    4
 10
1056.9294868783754
 20
575.90842805540433
 40
1.2083333333333177
 50
127.52351320610693
 51
52.47648680188081
  0
ARC
  8
_0-1_線色１__水色__
  6
CONTINUOUS
 62
    4
 10
1059.8734071670606
 20
575.90842805560897
 40
1.2083333333333177
 50
127.52351320610693
 51
52.47648680188081
  0
ARC
  8
_0-1_線色１__水色__
  6
CONTINUOUS
 62
    4
 10
1053.9855665896926
 20
575.90842805519856
 40
1.2083333333333177
 50
127.52351320610693
 51
52.47648680188081
  0
ARC
  8
_0-1_線色１__水色__
  6
CONTINUOUS
 62
    4
 10
1052.5136064452181
 20
577.82509472179868
 40
1.2083333333333581
 50
307.52351320333912
 51
232.47648680464988
  0
ARC
  8
_0-1_線色１__水色__
  6
CONTINUOUS
 62
    4
 10
1020.1304832697224
 20
577.82509472321749
 40
1.2083333333333581
 50
307.52351320333912
 51
232.47648680464988
  0
ARC
  8
_0-1_線色１__水色__
  6
CONTINUOUS
 62
    4
 10
1021.6024434141991
 20
575.90842805661737
 40
1.2083333333333177
 50
127.52351320610693
 51
52.47648680188081
  0
ARC
  8
_0-1_線色１__水色__
  6
CONTINUOUS
 62
    4
 10
1017.1865629810395
 20
577.82509472301172
 40
1.2083333333333581
 50
307.52351320333912
 51
232.47648680464988
  0
ARC
  8
_0-1_線色１__水色__
  6
CONTINUOUS
 62
    4
 10
1018.658523125514
 20
575.90842805641273
 40
1.2083333333333177
 50
127.52351320610693
 51
52.47648680188081
  0
ARC
  8
_0-1_線色１__水色__
  6
CONTINUOUS
 62
    4
 10
1014.2426426923566
 20
577.82509472280594
 40
1.2083333333333581
 50
307.52351320333912
 51
232.47648680464988
  0
ARC
  8
_0-1_線色１__水色__
  6
CONTINUOUS
 62
    4
 10
1015.7146028368311
 20
575.90842805620696
 40
1.2083333333333177
 50
127.52351320610693
 51
52.47648680188081
  0
ARC
  8
_0-1_線色１__水色__
  6
CONTINUOUS
 62
    4
 10
1011.2987224036738
 20
577.82509472260131
 40
1.2083333333333581
 50
307.52351320333912
 51
232.47648680464988
  0
ARC
  8
_0-1_線色１__水色__
  6
CONTINUOUS
 62
    4
 10
1012.7706825481482
 20
575.90842805600118
 40
1.2083333333333177
 50
127.52351320610693
 51
52.47648680188081
  0
ARC
  8
_0-1_線色１__水色__
  6
CONTINUOUS
 62
    4
 10
1037.7940050018242
 20
577.82509472260131
 40
1.2083333333333581
 50
307.52351320333912
 51
232.47648680464988
  0
ARC
  8
_0-1_線色１__水色__
  6
CONTINUOUS
 62
    4
 10
1039.2659651462986
 20
575.90842805600118
 40
1.2083333333333177
 50
127.52351320610693
 51
52.47648680188081
  0
ARC
  8
_0-1_線色１__水色__
  6
CONTINUOUS
 62
    4
 10
1034.850084713139
 20
577.82509472239667
 40
1.2083333333333581
 50
307.52351320333912
 51
232.47648680464988
  0
ARC
  8
_0-1_線色１__水色__
  6
CONTINUOUS
 62
    4
 10
1036.3220448576158
 20
575.90842805579655
 40
1.2083333333333177
 50
127.52351320610693
 51
52.47648680188081
  0
ARC
  8
_0-1_線色１__水色__
  6
CONTINUOUS
 62
    4
 10
1031.9061644244562
 20
577.8250947221909
 40
1.2083333333333581
 50
307.52351320333912
 51
232.47648680464988
  0
ARC
  8
_0-1_線色１__水色__
  6
CONTINUOUS
 62
    4
 10
1033.3781245689329
 20
575.90842805559191
 40
1.2083333333333177
 50
127.52351320610693
 51
52.47648680188081
  0
ARC
  8
_0-1_線色１__水色__
  6
CONTINUOUS
 62
    4
 10
1026.0183238470904
 20
577.82509472178049
 40
1.2083333333333581
 50
307.52351320333912
 51
232.47648680464988
  0
ARC
  8
_0-1_線色１__水色__
  6
CONTINUOUS
 62
    4
 10
1028.9622441357733
 20
577.82509472198512
 40
1.2083333333333581
 50
307.52351320333912
 51
232.47648680464988
  0
ARC
  8
_0-1_線色１__水色__
  6
CONTINUOUS
 62
    4
 10
1027.4902839915649
 20
575.90842805518037
 40
1.2083333333333177
 50
127.52351320610693
 51
52.47648680188081
  0
ARC
  8
_0-1_線色１__水色__
  6
CONTINUOUS
 62
    4
 10
1030.4342042802477
 20
575.90842805538614
 40
1.2083333333333177
 50
127.52351320610693
 51
52.47648680188081
  0
ARC
  8
_0-1_線色１__水色__
  6
CONTINUOUS
 62
    4
 10
1024.546363702882
 20
575.90842805497573
 40
1.2083333333333177
 50
127.52351320610693
 51
52.47648680188081
  0
ARC
  8
_0-1_線色１__水色__
  6
CONTINUOUS
 62
    4
 10
1023.0744035584075
 20
577.82509472157585
 40
1.2083333333333581
 50
307.52351320333912
 51
232.47648680464988
  0
ARC
  8
_0-1_線色１__水色__
  6
CONTINUOUS
 62
    4
 10
990.69128038291183
 20
577.82509472299353
 40
1.2083333333333581
 50
307.52351320333912
 51
232.47648680464988
  0
ARC
  8
_0-1_線色１__水色__
  6
CONTINUOUS
 62
    4
 10
992.16324052738855
 20
575.90842805639454
 40
1.2083333333333177
 50
127.52351320610693
 51
52.47648680188081
  0
ARC
  8
_0-1_線色１__水色__
  6
CONTINUOUS
 62
    4
 10
987.74736009422895
 20
577.82509472278889
 40
1.2083333333333581
 50
307.52351320333912
 51
232.47648680464988
  0
ARC
  8
_0-1_線色１__水色__
  6
CONTINUOUS
 62
    4
 10
989.2193202387034
 20
575.90842805618877
 40
1.2083333333333177
 50
127.52351320610693
 51
52.47648680188081
  0
ARC
  8
_0-1_線色１__水色__
  6
CONTINUOUS
 62
    4
 10
984.80343980554608
 20
577.82509472258312
 40
1.2083333333333581
 50
307.52351320333912
 51
232.47648680464988
  0
ARC
  8
_0-1_線色１__水色__
  6
CONTINUOUS
 62
    4
 10
986.27539995002053
 20
575.90842805598413
 40
1.2083333333333177
 50
127.52351320610693
 51
52.47648680188081
  0
ARC
  8
_0-1_線色１__水色__
  6
CONTINUOUS
 62
    4
 10
981.8595195168632
 20
577.82509472237848
 40
1.2083333333333581
 50
307.52351320333912
 51
232.47648680464988
  0
ARC
  8
_0-1_線色１__水色__
  6
CONTINUOUS
 62
    4
 10
983.33147966133765
 20
575.90842805577836
 40
1.2083333333333177
 50
127.52351320610693
 51
52.47648680188081
  0
ARC
  8
_0-1_線色１__水色__
  6
CONTINUOUS
 62
    4
 10
1008.3548021150136
 20
577.82509472237848
 40
1.2083333333333581
 50
307.52351320333912
 51
232.47648680464988
  0
ARC
  8
_0-1_線色１__水色__
  6
CONTINUOUS
 62
    4
 10
1009.8267622594881
 20
575.90842805577836
 40
1.2083333333333177
 50
127.52351320610693
 51
52.47648680188081
  0
ARC
  8
_0-1_線色１__水色__
  6
CONTINUOUS
 62
    4
 10
1005.4108818263285
 20
577.82509472217271
 40
1.2083333333333581
 50
307.52351320333912
 51
232.47648680464988
  0
ARC
  8
_0-1_線色１__水色__
  6
CONTINUOUS
 62
    4
 10
1006.8828419708052
 20
575.90842805557372
 40
1.2083333333333177
 50
127.52351320610693
 51
52.47648680188081
  0
ARC
  8
_0-1_線色１__水色__
  6
CONTINUOUS
 62
    4
 10
1002.4669615376456
 20
577.82509472196807
 40
1.2083333333333581
 50
307.52351320333912
 51
232.47648680464988
  0
ARC
  8
_0-1_線色１__水色__
  6
CONTINUOUS
 62
    4
 10
1003.9389216821223
 20
575.90842805536795
 40
1.2083333333333177
 50
127.52351320610693
 51
52.47648680188081
  0
ARC
  8
_0-1_線色１__水色__
  6
CONTINUOUS
 62
    4
 10
996.57912096027985
 20
577.82509472155766
 40
1.2083333333333581
 50
307.52351320333912
 51
232.47648680464988
  0
ARC
  8
_0-1_線色１__水色__
  6
CONTINUOUS
 62
    4
 10
999.52304124896273
 20
577.8250947217623
 40
1.2083333333333581
 50
307.52351320333912
 51
232.47648680464988
  0
ARC
  8
_0-1_線色１__水色__
  6
CONTINUOUS
 62
    4
 10
998.0510811047543
 20
575.90842805495754
 40
1.2083333333333177
 50
127.52351320610693
 51
52.47648680188081
  0
ARC
  8
_0-1_線色１__水色__
  6
CONTINUOUS
 62
    4
 10
1000.9950013934372
 20
575.90842805516331
 40
1.2083333333333177
 50
127.52351320610693
 51
52.47648680188081
  0
ARC
  8
_0-1_線色１__水色__
  6
CONTINUOUS
 62
    4
 10
995.10716081607143
 20
575.9084280547529
 40
1.2083333333333177
 50
127.52351320610693
 51
52.47648680188081
  0
ARC
  8
_0-1_線色１__水色__
  6
CONTINUOUS
 62
    4
 10
993.63520067159698
 20
577.82509472135189
 40
1.2083333333333581
 50
307.52351320333912
 51
232.47648680464988
  0
ARC
  8
_0-1_線色１__水色__
  6
CONTINUOUS
 62
    4
 10
978.91559922820306
 20
577.82509472215565
 40
1.2083333333333581
 50
307.52351320333912
 51
82.570446798685794
  0
ARC
  8
_0-1_線色１__水色__
  6
CONTINUOUS
 62
    4
 10
980.38755937267752
 20
575.90842805555553
 40
1.2083333333333177
 50
127.52351320610693
 51
154.32245408297459
  0
ARC
  8
_0-1_線色１__水色__
  6
CONTINUOUS
 62
    4
 10
980.38755937267752
 20
575.90842805555553
 40
1.2083333333333177
 50
215.67754591704434
 51
52.47648680188081
  0
LINE
  8
_0-6_鋼板__アングル
  6
CONTINUOUS
 62
    2
 10
824.53527467667755
 20
940.56676138501075
 11
824.53527467667755
 21
939.36676138500957
  0
LINE
  8
_0-6_鋼板__アングル
  6
CONTINUOUS
 62
    2
 10
977.53527467668164
 20
939.36676138500957
 11
824.53527467667755
 21
939.36676138500957
  0
LINE
  8
_0-6_鋼板__アングル
  6
CONTINUOUS
 62
    2
 10
978.73527467668055
 20
940.56676138501075
 11
824.53527467667755
 21
940.56676138501075
  0
LINE
  8
_0-6_鋼板__アングル
  6
CONTINUOUS
 62
    2
 10
978.73527467668055
 20
910.56676138501075
 11
977.53527467668164
 21
910.56676138501075
  0
LINE
  8
_0-6_鋼板__アングル
  6
CONTINUOUS
 62
    2
 10
977.53527467668164
 20
939.36676138500957
 11
977.53527467668164
 21
910.56676138501075
  0
LINE
  8
_0-6_鋼板__アングル
  6
CONTINUOUS
 62
    2
 10
978.73527467668055
 20
940.56676138501075
 11
978.73527467668055
 21
910.56676138501075
  0
LINE
  8
_0-6_鋼板__アングル
  6
CONTINUOUS
 62
    2
 10
959.53527467667982
 20
539.3667613850107
 11
1160.735274676681
 21
539.3667613850107
  0
LINE
  8
_0-6_鋼板__アングル
  6
CONTINUOUS
 62
    2
 10
960.735274676681
 20
540.56676138501075
 11
1160.735274676681
 21
540.56676138501075
  0
LINE
  8
_0-6_鋼板__アングル
  6
CONTINUOUS
 62
    2
 10
1160.735274676681
 20
539.3667613850107
 11
1160.735274676681
 21
540.56676138501075
  0
LINE
  8
_0-6_鋼板__アングル
  6
CONTINUOUS
 62
    2
 10
959.53527467667982
 20
539.3667613850107
 11
959.53527467667982
 21
640.56676138500961
  0
LINE
  8
_0-6_鋼板__アングル
  6
CONTINUOUS
 62
    2
 10
959.53527467667982
 20
640.56676138500961
 11
960.735274676681
 21
640.56676138500961
  0
LINE
  8
_0-6_鋼板__アングル
  6
CONTINUOUS
 62
    2
 10
960.735274676681
 20
540.56676138501075
 11
960.735274676681
 21
640.56676138500961
  0
LINE
  8
_0-6_鋼板__アングル
  6
CONTINUOUS
 62
    2
 10
977.53527467668164
 20
582.81791017193655
 11
978.86435332739438
 21
567.62647168005401
  0
LINE
  8
_0-6_鋼板__アングル
  6
CONTINUOUS
 62
    2
 10
978.84484487795362
 20
581.61791017192513
 11
980.06893713241425
 21
567.62647168005401
  0
LINE
  8
_0-6_鋼板__アングル
  6
CONTINUOUS
 62
    2
 10
978.86435332739438
 20
567.62647168005401
 11
980.06893713241425
 21
567.62647168005401
  0
LINE
  8
_0-6_鋼板__アングル
  6
CONTINUOUS
 62
    2
 10
978.84484487795362
 20
581.61791017192513
 11
994.53821840184219
 21
581.61791017192513
  0
LINE
  8
_0-6_鋼板__アングル
  6
CONTINUOUS
 62
    2
 10
1007.3882615226898
 20
582.320207745787
 11
1004.785274676683
 21
580.31791017193655
  0
ARC
  8
_0-6_鋼板__アングル
  6
CONTINUOUS
 62
    2
 10
1008.8515673487291
 20
580.41791017193646
 40
2.3999999999999999
 50
90
 51
127.56859202882603
  0
LINE
  8
_0-6_鋼板__アングル
  6
CONTINUOUS
 62
    2
 10
995.68228783067525
 20
582.320207745787
 11
998.28527467668209
 21
580.31791017193655
  0
ARC
  8
_0-6_鋼板__アングル
  6
CONTINUOUS
 62
    2
 10
994.21898200463602
 20
580.41791017193646
 40
2.3999999999999999
 50
52.431407971173961
 51
90
  0
LINE
  8
_0-6_鋼板__アングル
  6
CONTINUOUS
 62
    4
 10
1008.8515673487291
 20
582.81791017193655
 11
994.21898200463602
 21
582.81791017193655
  0
LINE
  8
_0-6_鋼板__アングル
  6
CONTINUOUS
 62
    4
 10
998.28527467668209
 20
580.31791017193655
 11
1004.785274676683
 21
580.31791017193655
  0
LINE
  8
_0-6_鋼板__アングル
  6
CONTINUOUS
 62
    2
 10
1004.785274676683
 20
580.31791017193655
 11
1005.5169275897015
 21
579.3667613850107
  0
LINE
  8
_0-6_鋼板__アングル
  6
CONTINUOUS
 62
    2
 10
998.28527467668209
 20
580.31791017193655
 11
997.55362176366361
 21
579.3667613850107
  0
LINE
  8
_0-6_鋼板__アングル
  6
CONTINUOUS
 62
    4
 10
997.55362176366361
 20
579.3667613850107
 11
1005.5169275897015
 21
579.3667613850107
  0
LINE
  8
_0-6_鋼板__アングル
  6
CONTINUOUS
 62
    2
 10
1008.1199144357083
 20
581.36905895886116
 11
1005.5169275897015
 21
579.3667613850107
  0
ARC
  8
_0-6_鋼板__アングル
  6
CONTINUOUS
 62
    2
 10
1008.8515673487291
 20
580.41791017193646
 40
1.2
 50
90
 51
127.56859202882507
  0
LINE
  8
_0-6_鋼板__アングル
  6
CONTINUOUS
 62
    2
 10
994.95063491765677
 20
581.36905895886116
 11
997.55362176366361
 21
579.3667613850107
  0
ARC
  8
_0-6_鋼板__アングル
  6
CONTINUOUS
 62
    2
 10
994.21898200463602
 20
580.41791017193646
 40
1.2
 50
52.431407971171978
 51
90.000000000000057
  0
LINE
  8
_0-6_鋼板__アングル
  6
CONTINUOUS
 62
    2
 10
977.53527467668164
 20
582.81791017193655
 11
994.21898200463602
 21
582.81791017193655
  0
LINE
  8
_0-6_鋼板__アングル
  6
CONTINUOUS
 62
    2
 10
1022.4775344588875
 20
581.2597750176667
 11
1024.757114929962
 21
579.31791017193632
  0
ARC
  8
_0-6_鋼板__アングル
  6
CONTINUOUS
 62
    2
 10
1021.5048347754896
 20
580.11791017193673
 40
2.7000000000000002
 50
49.573921259901446
 51
90
  0
ARC
  8
_0-6_鋼板__アングル
  6
CONTINUOUS
 62
    2
 10
1021.5048347754896
 20
580.11791017193559
 40
1.5000000000000002
 50
49.573921259901446
 51
90
  0
LINE
  8
_0-6_鋼板__アングル
  6
CONTINUOUS
 62
    2
 10
1023.255694205609
 20
582.17326689425022
 11
1025.5352746766835
 21
580.23140204851984
  0
LINE
  8
_0-6_鋼板__アングル
  6
CONTINUOUS
 62
    2
 10
1025.5352746766835
 20
580.23140204851984
 11
1024.757114929962
 21
579.31791017193632
  0
LINE
  8
_0-6_鋼板__アングル
  6
CONTINUOUS
 62
    2
 10
1008.8515673487291
 20
582.81791017193655
 11
1021.5048347754896
 21
582.81791017193655
  0
LINE
  8
_0-6_鋼板__アングル
  6
CONTINUOUS
 62
    2
 10
1008.5323309515525
 20
581.61791017192513
 11
1021.5048347754896
 21
581.61791017192513
  0
LINE
  8
ADD_LINE
  6
DOT
 62
    4
 10
1001.5352746766825
 20
594.37069887278426
 11
1001.5352746766825
 21
560.18634268272081
  0
LINE
  8
_0-8_笠木他
  6
CONTINUOUS
 62
    4
 10
940.42120780038431
 20
949.56676138501052
 11
867.84902116036164
 21
949.56676138501052
  0
LINE
  8
_0-8_笠木他
  6
CONTINUOUS
 62
    4
 10
941.22767224202789
 20
945.56676138501075
 11
867.0430934907472
 21
945.56676138501075
  0
LINE
  8
_0-8_笠木他
  6
CONTINUOUS
 62
    4
 10
867.0430934907472
 20
945.56676138501075
 11
867.04655911779355
 21
974.12162028611533
  0
LINE
  8
_0-8_笠木他
  6
CONTINUOUS
 62
    4
 10
867.84902116036164
 20
949.56676138501052
 11
867.83890627873006
 21
975.47190480300287
  0
LINE
  8
_0-8_笠木他
  6
CONTINUOUS
 62
    4
 10
941.22767224202789
 20
945.56676138501075
 11
941.22369027192008
 21
969.17647809971868
  0
LINE
  8
_0-8_笠木他
  6
CONTINUOUS
 62
    4
 10
940.42120780038431
 20
949.56676138501052
 11
940.43266554772117
 21
970.6323207446178
  0
LINE
  8
ADD_LINE
  6
DOT
 62
    4
 10
904.13527467668018
 20
1002.0490826739433
 11
904.13527467668018
 21
894.69702028454662
  0
LINE
  8
ADD_LINE
  6
DOT
 62
    4
 10
875.13527467667927
 20
949.56676138501052
 11
875.13527467667927
 21
915.56676138501075
  0
LINE
  8
ADD_LINE
  6
DOT
 62
    4
 10
933.13527467667882
 20
949.56676138501052
 11
933.13527467667882
 21
915.56676138501075
  0
LINE
  8
_0-8_笠木他
  6
CONTINUOUS
 62
    4
 10
1000.7352746766787
 20
914.81000979388682
 11
1000.7352746766787
 21
919.12893428070561
  0
LINE
  8
_0-8_笠木他
  6
CONTINUOUS
 62
    4
 10
806.13527467667836
 20
914.75328469220926
 11
806.13527467667836
 21
979.78592428592037
  0
LINE
  8
_0-8_笠木他
  6
CONTINUOUS
 62
    4
 10
867.83890627873006
 20
975.47190480300287
 11
812.65289155715891
 21
979.15097253253975
  0
LINE
  8
_0-8_笠木他
  6
CONTINUOUS
 62
    4
 10
867.04655911779355
 20
974.12162028611533
 11
814.00238372882313
 21
977.6578987236519
  0
LINE
  8
_0-8_笠木他
  6
CONTINUOUS
 62
    4
 10
806.13527467667836
 20
914.75328469220926
 11
808.12727167668072
 21
914.75260615928732
  0
LINE
  8
_0-8_笠木他
  6
CONTINUOUS
 62
    4
 10
808.12727167668072
 20
914.75260615928732
 11
808.12626401107536
 21
912.75703015928798
  0
LINE
  8
_0-8_笠木他
  6
CONTINUOUS
 62
    4
 10
804.13527467668018
 20
912.75703015928798
 11
808.12626401107536
 21
912.75703015928798
  0
LINE
  8
_0-8_笠木他
  6
CONTINUOUS
 62
    4
 10
804.13527467668018
 20
912.75703015928798
 11
804.13527467668018
 21
981.92369713951734
  0
LINE
  8
_0-8_笠木他
  6
CONTINUOUS
 62
    4
 10
807.54200544859259
 20
918.52744711306627
 11
814.00238372882313
 21
977.6578987236519
  0
LINE
  8
_0-8_笠木他
  6
CONTINUOUS
 62
    4
 10
807.54240070857577
 20
914.75280538358675
 11
807.54200544859259
 21
918.52744711306627
  0
LINE
  8
_0-8_笠木他
  6
CONTINUOUS
 62
    4
 10
806.13527467667836
 20
919.26690778330681
 11
812.65289155715891
 21
979.15097253253975
  0
LINE
  8
_0-8_笠木他
  6
CONTINUOUS
 62
    4
 10
1004.1352746766802
 20
968.59036351106624
 11
804.13527467668018
 21
981.92369713951734
  0
LINE
  8
_0-8_笠木他
  6
CONTINUOUS
 62
    4
 10
1002.1352746766797
 20
966.71925733003832
 11
806.13527467667836
 21
979.78592428592037
  0
LINE
  8
_0-8_笠木他
  6
CONTINUOUS
 62
    4
 10
995.37470840746209
 20
966.96951780622953
 11
940.43266554772117
 21
970.6323207446178
  0
LINE
  8
_0-8_笠木他
  6
CONTINUOUS
 62
    4
 10
1002.1352746766797
 20
919.61576701322883
 11
995.37470840746209
 21
966.96951780622953
  0
LINE
  8
_0-8_笠木他
  6
CONTINUOUS
 62
    4
 10
994.10551462408193
 20
965.65102306487574
 11
941.22369027192008
 21
969.17647809971868
  0
LINE
  8
_0-8_笠木他
  6
CONTINUOUS
 62
    4
 10
1000.7352746766787
 20
919.12893428070561
 11
994.10551462408193
 21
965.65102306487574
  0
LINE
  8
_0-8_笠木他
  6
CONTINUOUS
 62
    4
 10
1000.15445067668
 20
914.80016615928776
 11
1000.1554823576953
 21
912.75703015928798
  0
LINE
  8
_0-8_笠木他
  6
CONTINUOUS
 62
    4
 10
1002.1352746766797
 20
914.79977165298919
 11
1000.15445067668
 21
914.80016615928776
  0
LINE
  8
_0-8_笠木他
  6
CONTINUOUS
 62
    4
 10
1002.1352746766797
 20
914.79977165298919
 11
1002.1352746766797
 21
966.71925733003832
  0
LINE
  8
_0-8_笠木他
  6
CONTINUOUS
 62
    4
 10
1000.1554823576953
 20
912.75703015928798
 11
1004.1352746766802
 21
912.75703015928798
  0
LINE
  8
_0-8_笠木他
  6
CONTINUOUS
 62
    4
 10
1004.1352746766802
 20
912.75703015928798
 11
1004.1352746766802
 21
968.59036351106624
  0
LINE
  8
_0-2_線色２__白__
  6
CONTINUOUS
 62
    7
 10
1160.735274676681
 20
539.3667613850107
 11
1239.452544776675
 21
539.3667613850107
  0
TEXT
  8
_0-a_文字
 62
    7
 10
932.19930747951605
 20
1043.2250856046369
 40
14.999999999999858
 41
1.0000000000000071
 50
0
  1
ロンシーラントＬ
  0
LINE
  8
_0-a_文字
  6
CONTINUOUS
 62
    7
 10
879.19637199784347
 20
1075.7250856046369
 11
899.19637199784347
 21
1075.7250856046369
  0
TEXT
  8
_0-a_文字
 62
    7
 10
904.19637199784358
 20
1068.2250856046369
 40
14.999999999999503
 41
1.0000000000000309
 50
0
  1
笠木（別途工事）
  0
LINE
  8
_0-a_文字
  6
CONTINUOUS
 62
    7
 10
893.82825990182482
 20
1050.7250856046369
 11
927.19930747951594
 21
1050.7250856046369
  0
LINE
  8
_0-a_文字
  6
CONTINUOUS
 62
    7
 10
906.7845829362318
 20
1025.7250856046369
 11
926.7845829362318
 21
1025.7250856046369
  0
LINE
  8
_0-a_文字
  6
CONTINUOUS
 62
    7
 10
892.35082620649109
 20
1000.7250856046369
 11
926.7845829362318
 21
1000.7250856046369
  0
TEXT
  8
_0-a_文字
 62
    7
 10
931.78458293623009
 20
993.22508560463689
 40
15.000000000000213
 41
0.999999999999992
 50
0
  1
ブチルテープ（別途工事）
  0
LINE
  8
_0-a_文字
  6
CONTINUOUS
 62
    7
 10
856.28539058033084
 20
938.25791870302396
 11
906.7845829362318
 21
1025.7250856046369
  0
LINE
  8
_0-a_文字
  6
CONTINUOUS
 62
    7
 10
843.59936933783501
 20
940.56676138501075
 11
907.19930747951594
 21
1050.7250856046369
  0
LINE
  8
_0-a_文字
  6
CONTINUOUS
 62
    7
 10
832.99276302471526
 20
945.3549141097858
 11
893.82825990182482
 21
1050.7250856046369
  0
LINE
  8
_0-a_文字
  6
CONTINUOUS
 62
    7
 10
1159.8693923669452
 20
659.3667613850107
 11
1179.8693923669452
 21
659.3667613850107
  0
TEXT
  8
_0-a_文字
 62
    7
 10
1184.8693923669434
 20
626.86676138501082
 40
14.999999999999858
 41
1.0000000000000153
 50
0
  1
ラジアルシートＬ６００
  0
LINE
  8
_0-a_文字
  6
CONTINUOUS
 62
    7
 10
1131.0018789074638
 20
609.3667613850107
 11
1179.8693923669452
 21
609.3667613850107
  0
LINE
  8
_0-a_文字
  6
CONTINUOUS
 62
    7
 10
1145.4356356372045
 20
634.3667613850107
 11
1179.8693923669452
 21
634.3667613850107
  0
TEXT
  8
_0-a_文字
 62
    7
 10
1184.8693923669443
 20
601.86676138501082
 40
14.999999999999858
 41
0.999999999999992
 50
0
  1
断熱材
  0
TEXT
  8
_0-a_文字
 62
    7
 10
1116.8340507908149
 20
676.8667613850107
 40
14.999999999999858
 41
1.0000000000000027
 50
0
  1
プルーフシーラー
  0
LINE
  8
_0-a_文字
  6
CONTINUOUS
 62
    7
 10
1091.8340507908147
 20
684.3667613850107
 11
1111.8340507908147
 21
684.3667613850107
  0
LINE
  8
_0-a_文字
  6
CONTINUOUS
 62
    7
 10
1038.1222009589396
 20
591.33510850769426
 11
1091.8340507908147
 21
684.3667613850107
  0
TEXT
  8
_0-a_文字
 62
    7
 10
1037.5352746766864
 20
801.8667613850107
 40
14.999999999999858
 41
1.0000000000000051
 50
0
  1
塩ビシート接着工法
  0
LINE
  8
_0-a_文字
  6
CONTINUOUS
 62
    7
 10
1012.5352746766862
 20
809.3667613850107
 11
1032.5352746766862
 21
809.3667613850107
  0
LINE
  8
_0-a_文字
  6
CONTINUOUS
 62
    7
 10
998.10151794694548
 20
784.3667613850107
 11
1032.5352746766862
 21
784.3667613850107
  0
LINE
  8
_0-a_文字
  6
CONTINUOUS
 62
    7
 10
969.24521103576581
 20
734.38617169604754
 11
1012.5352746766862
 21
809.3667613850107
  0
TEXT
  8
_0-a_文字
 62
    7
 10
1184.8693923669437
 20
651.86676138500957
 40
14.999999999999858
 41
1.000000000000014
 50
0
  1
塩ビシート機械的固定工法
  0
TEXT
  8
_0-a_文字
 62
    7
 10
1037.5352746766862
 20
776.86676138501082
 40
14.999999999999503
 41
1.0000000000000333
 50
0
  1
硬質木片セメント板（別途工事）
  0
LINE
  8
_0-a_文字
  6
CONTINUOUS
 62
    7
 10
1100.6909897750097
 20
556.8667613850107
 11
1159.8693923669452
 21
659.3667613850107
  0
TEXT
  8
_0-a_文字
 62
    7
 10
931.78458293623123
 20
1018.2250856046369
 40
15.000000000000213
 41
0.9999999999999816
 50
0
  1
亜鉛めっき鋼板 t=1.2以上（別途工事）
  0
LINE
  8
_0-a_文字
  6
CONTINUOUS
 62
    7
 10
1074.5982879901885
 20
709.3667613850107
 11
1094.5982879901885
 21
709.3667613850107
  0
TEXT
  8
_0-a_文字
 62
    7
 10
1099.5982879901867
 20
701.8667613850107
 40
14.999999999999858
 41
1.0000000000000246
 50
0
  1
ＢＰ－Ｈ１５
  0
LINE
  8
_0-a_文字
  6
CONTINUOUS
 62
    7
 10
1001.5352746766825
 20
582.81791017193427
 11
1074.5982879901885
 21
709.3667613850107
  0
LINE
  8
_0-a_文字
  6
CONTINUOUS
 62
    7
 10
824.26530969104078
 20
980.58169477552269
 11
879.19637199784347
 21
1075.7250856046369
  0
LINE
  8
ADD_LINE
  6
DOT
 62
    4
 10
989.53527549138926
 20
427.41277038850171
 11
989.53527549138926
 21
556.06712123170382
  0
LINE
  8
ADD_LINE
  6
DOT
 62
    4
 10
1189.5352754913893
 20
427.41277038850171
 11
1189.5352754913893
 21
556.06712123170382
  0
LINE
  8
_0-5_金属
  6
CONTINUOUS
 62
    7
 10
959.53527467667982
 20
593.6667613850102
 11
959.53527467667982
 21
374.0676116202701
  0
LINE
  8
_0-5_金属
  6
CONTINUOUS
 62
    7
 10
939.53527467667755
 20
589.36676138500957
 11
939.53527467667755
 21
374.0676116202701
  0
LINE
  8
_0-5_金属
  6
CONTINUOUS
 62
    7
 10
879.53527467667755
 20
589.36676138500957
 11
879.53527467667755
 21
374.0676116202701
  0
LINE
  8
_0-3_線色３__緑__
  6
CONTINUOUS
 62
    3
 10
824.53527467667755
 20
374.0676116202701
 11
824.53527467667755
 21
939.36676138500957
  0
LINE
  8
_0-2_線色２__白__
  6
CONTINUOUS
 62
    7
 10
859.53527467667755
 20
374.0676116202701
 11
859.53527467667755
 21
939.36676138500957
  0
LINE
  8
_0-d_断熱__ハッチ
  6
CONTINUOUS
 62
    4
 10
833.28527467667755
 20
937.36676138501139
 11
833.28527467667755
 21
374.0676116202701
  0
LINE
  8
_0-d_断熱__ハッチ
  6
CONTINUOUS
 62
    4
 10
850.78527467667755
 20
937.36676138501139
 11
850.78527467667755
 21
374.0676116202701
  0
LINE
  8
_0-d_断熱__ハッチ
  6
CONTINUOUS
 62
    4
 10
842.03527467667755
 20
937.36676138501139
 11
842.03527467667755
 21
374.0676116202701
  0
LINE
  8
_0-5_金属
  6
CONTINUOUS
 62
    7
 10
859.53527467667755
 20
593.6667613850102
 11
859.53527467667755
 21
374.0676116202701
  0
LINE
  8
_0-4_線色４__黄__
  6
CONTINUOUS
 62
    2
 10
1036.2292873929255
 20
584.3667613850107
 11
1289.5352530413879
 21
584.3667613850107
  0
LINE
  8
_0-2_線色２__白__
  6
CONTINUOUS
 62
    7
 10
979.47923819434891
 20
574.3667613850107
 11
1289.5352530413879
 21
574.3667613850107
  0
LINE
  8
_0-2_線色２__白__
  6
CONTINUOUS
 62
    7
 10
979.04179487671854
 20
579.3667613850107
 11
1289.5352530413879
 21
579.3667613850107
  0
ARC
  8
_0-1_線色１__水色__
  6
CONTINUOUS
 62
    4
 10
1258.5880266529603
 20
577.82509472573224
 40
1.2083333333333581
 50
307.52351320333912
 51
232.47648680464988
  0
ARC
  8
_0-1_線色１__水色__
  6
CONTINUOUS
 62
    4
 10
1255.6441063642774
 20
577.82509472552761
 40
1.2083333333333581
 50
307.52351320333912
 51
232.47648680464988
  0
ARC
  8
_0-1_線色１__水色__
  6
CONTINUOUS
 62
    4
 10
1257.1160665087518
 20
575.90842805892748
 40
1.2083333333333177
 50
127.52351320610693
 51
52.47648680188081
  0
ARC
  8
_0-1_線色１__水色__
  6
CONTINUOUS
 62
    4
 10
1252.7001860755945
 20
577.82509472532297
 40
1.2083333333333581
 50
307.52351320333912
 51
232.47648680464988
  0
ARC
  8
_0-1_線色１__水色__
  6
CONTINUOUS
 62
    4
 10
1254.172146220069
 20
575.90842805872285
 40
1.2083333333333177
 50
127.52351320610693
 51
52.47648680188081
  0
ARC
  8
_0-1_線色１__水色__
  6
CONTINUOUS
 62
    4
 10
1249.7562657869094
 20
577.8250947251172
 40
1.2083333333333581
 50
307.52351320333912
 51
232.47648680464988
  0
ARC
  8
_0-1_線色１__水色__
  6
CONTINUOUS
 62
    4
 10
1251.2282259313861
 20
575.90842805851821
 40
1.2083333333333177
 50
127.52351320610693
 51
52.47648680188081
  0
ARC
  8
_0-1_線色１__水色__
  6
CONTINUOUS
 62
    4
 10
1246.8123454982265
 20
577.82509472491142
 40
1.2083333333333581
 50
307.52351320333912
 51
232.47648680464988
  0
ARC
  8
_0-1_線色１__水色__
  6
CONTINUOUS
 62
    4
 10
1248.2843056427032
 20
575.90842805831244
 40
1.2083333333333177
 50
127.52351320610693
 51
52.47648680188081
  0
ARC
  8
_0-1_線色１__水色__
  6
CONTINUOUS
 62
    4
 10
1243.8684252095436
 20
577.82509472470679
 40
1.2083333333333581
 50
307.52351320333912
 51
232.47648680464988
  0
ARC
  8
_0-1_線色１__水色__
  6
CONTINUOUS
 62
    4
 10
1245.3403853540181
 20
575.90842805810667
 40
1.2083333333333177
 50
127.52351320610693
 51
52.47648680188081
  0
ARC
  8
_0-1_線色１__水色__
  6
CONTINUOUS
 62
    4
 10
1237.9805846321779
 20
577.82509472429638
 40
1.2083333333333581
 50
307.52351320333912
 51
232.47648680464988
  0
ARC
  8
_0-1_線色１__水色__
  6
CONTINUOUS
 62
    4
 10
1240.9245049208607
 20
577.82509472450215
 40
1.2083333333333581
 50
307.52351320333912
 51
232.47648680464988
  0
ARC
  8
_0-1_線色１__水色__
  6
CONTINUOUS
 62
    4
 10
1239.4525447766523
 20
575.90842805769739
 40
1.2083333333333177
 50
127.52351320610693
 51
52.47648680188081
  0
ARC
  8
_0-1_線色１__水色__
  6
CONTINUOUS
 62
    4
 10
1242.3964650653352
 20
575.90842805790203
 40
1.2083333333333177
 50
127.52351320610693
 51
52.47648680188081
  0
ARC
  8
_0-1_線色１__水色__
  6
CONTINUOUS
 62
    4
 10
1236.5086244879694
 20
575.90842805749162
 40
1.2083333333333177
 50
127.52351320610693
 51
52.47648680188081
  0
ARC
  8
_0-1_線色１__水色__
  6
CONTINUOUS
 62
    4
 10
1282.1393889624028
 20
577.82509472735569
 40
1.2083333333333581
 50
307.52351320333912
 51
232.47648680464988
  0
ARC
  8
_0-1_線色１__水色__
  6
CONTINUOUS
 62
    4
 10
1279.1954686737199
 20
577.82509472715105
 40
1.2083333333333581
 50
307.52351320333912
 51
232.47648680464988
  0
ARC
  8
_0-1_線色１__水色__
  6
CONTINUOUS
 62
    4
 10
1280.6674288181966
 20
575.90842806055093
 40
1.2083333333333177
 50
127.52351320610693
 51
52.47648680188081
  0
ARC
  8
_0-1_線色１__水色__
  6
CONTINUOUS
 62
    4
 10
1276.251548385037
 20
577.82509472694642
 40
1.2083333333333581
 50
307.52351320333912
 51
232.47648680464988
  0
ARC
  8
_0-1_線色１__水色__
  6
CONTINUOUS
 62
    4
 10
1277.7235085295115
 20
575.9084280603463
 40
1.2083333333333177
 50
127.52351320610693
 51
52.47648680188081
  0
ARC
  8
_0-1_線色１__水色__
  6
CONTINUOUS
 62
    4
 10
1273.3076280963542
 20
577.82509472674178
 40
1.2083333333333581
 50
307.52351320333912
 51
232.47648680464988
  0
ARC
  8
_0-1_線色１__水色__
  6
CONTINUOUS
 62
    4
 10
1274.7795882408286
 20
575.90842806014166
 40
1.2083333333333177
 50
127.52351320610693
 51
52.47648680188081
  0
ARC
  8
_0-1_線色１__水色__
  6
CONTINUOUS
 62
    4
 10
1270.3637078076713
 20
577.82509472653487
 40
1.2083333333333581
 50
307.52351320333912
 51
232.47648680464988
  0
ARC
  8
_0-1_線色１__水色__
  6
CONTINUOUS
 62
    4
 10
1271.8356679521457
 20
575.90842805993702
 40
1.2083333333333177
 50
127.52351320610693
 51
52.47648680188081
  0
ARC
  8
_0-1_線色１__水色__
  6
CONTINUOUS
 62
    4
 10
1267.4197875189861
 20
577.82509472633024
 40
1.2083333333333581
 50
307.52351320333912
 51
232.47648680464988
  0
ARC
  8
_0-1_線色１__水色__
  6
CONTINUOUS
 62
    4
 10
1268.8917476634629
 20
575.90842805973011
 40
1.2083333333333177
 50
127.52351320610693
 51
52.47648680188081
  0
ARC
  8
_0-1_線色１__水色__
  6
CONTINUOUS
 62
    4
 10
1261.5319469416204
 20
577.82509472592096
 40
1.2083333333333581
 50
307.52351320333912
 51
232.47648680464988
  0
ARC
  8
_0-1_線色１__水色__
  6
CONTINUOUS
 62
    4
 10
1264.4758672303033
 20
577.8250947261256
 40
1.2083333333333581
 50
307.52351320333912
 51
232.47648680464988
  0
ARC
  8
_0-1_線色１__水色__
  6
CONTINUOUS
 62
    4
 10
1263.0039070860948
 20
575.90842805932084
 40
1.2083333333333177
 50
127.52351320610693
 51
52.47648680188081
  0
ARC
  8
_0-1_線色１__水色__
  6
CONTINUOUS
 62
    4
 10
1265.94782737478
 20
575.90842805952548
 40
1.2083333333333177
 50
127.52351320610693
 51
52.47648680188081
  0
ARC
  8
_0-1_線色１__水色__
  6
CONTINUOUS
 62
    4
 10
1260.059986797412
 20
575.9084280591162
 40
1.2083333333333177
 50
127.52351320610693
 51
52.47648680188081
  0
ARC
  8
_0-1_線色１__水色__
  6
CONTINUOUS
 62
    4
 10
1285.0833092510629
 20
577.82509472754441
 40
1.2083333333333581
 50
307.52351320333912
 51
232.47648680464988
  0
ARC
  8
_0-1_線色１__水色__
  6
CONTINUOUS
 62
    4
 10
1288.0272295397481
 20
577.82509472775018
 40
1.2083333333333581
 50
307.52351320333912
 51
232.47648680464988
  0
ARC
  8
_0-1_線色１__水色__
  6
CONTINUOUS
 62
    4
 10
1286.5552693955397
 20
575.90842806094543
 40
1.2083333333333177
 50
127.52351320610693
 51
52.47648680188081
  0
ARC
  8
_0-1_線色１__水色__
  6
CONTINUOUS
 62
    4
 10
1283.6113491068545
 20
575.90842806073965
 40
1.2083333333333177
 50
127.52351320610693
 51
52.47648680188081
  0
LINE
  8
_0-d_断熱__ハッチ
  6
CONTINUOUS
 62
    4
 10
1226.0459203053028
 20
539.36676138501184
 11
1261.0459203053006
 21
574.3667613850107
  0
LINE
  8
_0-d_断熱__ハッチ
  6
CONTINUOUS
 62
    4
 10
1206.994560002604
 20
574.3667613850107
 11
1241.9945600026062
 21
539.36676138500957
  0
LINE
  8
_0-d_断熱__ハッチ
  6
CONTINUOUS
 62
    4
 10
1254.3301915527695
 20
539.36676138501184
 11
1289.3301915527672
 21
574.3667613850107
  0
LINE
  8
_0-d_断熱__ハッチ
  6
CONTINUOUS
 62
    4
 10
1235.2788312500707
 20
574.3667613850107
 11
1270.2788312500729
 21
539.36676138500957
  0
ARC
  8
_0-1_線色１__水色__
  6
CONTINUOUS
 62
    4
 10
1289.4991896842225
 20
575.90842806115006
 40
1.2083333333333177
 50
127.52351320610693
 51
271.71027727617667
  0
LINE
  8
_0-d_断熱__ハッチ
  6
CONTINUOUS
 62
    4
 10
1282.6144628002362
 20
539.36676138501184
 11
1289.5352530413879
 21
546.28755162616585
  0
LINE
  8
_0-d_断熱__ハッチ
  6
CONTINUOUS
 62
    4
 10
1263.5631024975373
 20
574.3667613850107
 11
1289.5352530413879
 21
548.39461084115896
  0
LINE
  8
_0-5_金属
  6
CONTINUOUS
 62
    7
 10
959.53527467667982
 20
439.36674138501076
 11
1289.5352530413879
 21
439.36674138501076
  0
LINE
  8
ADD_LINE
  6
DOT
 62
    4
 10
1001.5352746766825
 20
499.69854550998548
 11
1001.5352746766825
 21
589.3152652526021
  0
LINE
  8
_0-7_ビス
  6
CONTINUOUS
 62
    7
 10
1007.5352746766816
 20
582.43329478732051
 11
1007.5352746766816
 21
582.81791017193655
  0
LINE
  8
_0-7_ビス
  6
DASHED3
 62
    7
 10
1003.0027427929372
 20
580.26854064110864
 11
1004.0852905128304
 21
582.81791017193655
  0
LINE
  8
_0-7_ビス
  6
CONTINUOUS
 62
    7
 10
995.53527467668346
 20
582.43329478732051
 11
995.53527467668346
 21
582.81791017193655
  0
LINE
  8
_0-7_ビス
  6
DASHED3
 62
    7
 10
1000.0678065604279
 20
580.26854064110864
 11
998.98525884053242
 21
582.81791017193655
  0
LINE
  8
_0-7_ビス
  6
CONTINUOUS
 62
    7
 10
1007.5352746766816
 20
582.43329478732051
 11
995.53527467668346
 21
582.43329478732051
  0
LINE
  8
_0-7_ビス
  6
CONTINUOUS
 62
    7
 10
1007.5352746766816
 20
582.81791017193655
 11
995.53527467668346
 21
582.81791017193655
  0
ARC
  8
_0-7_ビス
  6
DASHED3
 62
    7
 10
1001.5352746766825
 20
581.37908373937535
 40
1.8403175392666382
 50
217.11750793457031
 51
322.88247680664062
  0
LINE
  8
_0-7_ビス
  6
CONTINUOUS
 62
    7
 10
1005.6210611143092
 20
580.51908122494751
 11
1007.5352746766816
 21
582.43329478732051
  0
ARC
  8
_0-7_ビス
  6
CONTINUOUS
 62
    7
 10
1007.0352746766821
 20
579.10486766257463
 40
2
 50
135.00000000000153
 51
180.00000000000003
  0
LINE
  8
_0-7_ビス
  6
CONTINUOUS
 62
    7
 10
997.44948823905588
 20
580.51908122494751
 11
995.53527467668346
 21
582.43329478732051
  0
ARC
  8
_0-7_ビス
  6
CONTINUOUS
 62
    7
 10
996.03527467668073
 20
579.10486766257463
 40
2
 50
0
 51
44.999999999998501
  0
LINE
  8
_0-7_ビス
  6
CONTINUOUS
 62
    7
 10
1005.0352746766816
 20
578.81791017193621
 11
998.03527467668346
 21
578.81791017193621
  0
LINE
  8
_0-7_ビス
  6
CONTINUOUS
 62
    7
 10
998.03527467668346
 20
509.83863611409902
 11
1001.5352746766825
 21
507.81791017193655
  0
LINE
  8
_0-7_ビス
  6
CONTINUOUS
 62
    7
 10
998.03527467668346
 20
579.10486766257463
 11
998.03527467668346
 21
509.83863611409902
  0
LINE
  8
_0-7_ビス
  6
CONTINUOUS
 62
    7
 10
1005.0352746766816
 20
513.31791017193609
 11
998.03527467668346
 21
513.31791017193609
  0
LINE
  8
_0-7_ビス
  6
CONTINUOUS
 62
    7
 10
1005.0352746766816
 20
509.83863611410015
 11
1001.5352746766825
 21
507.81791017193655
  0
LINE
  8
_0-7_ビス
  6
CONTINUOUS
 62
    7
 10
1005.0352746766816
 20
579.10486766257463
 11
1005.0352746766816
 21
509.83863611410015
  0
LINE
  8
_0-7_ビス
  6
CONTINUOUS
 62
    7
 10
1005.0352746766816
 20
567.81791017193655
 11
998.03527467668346
 21
567.81791017193655
  0
LINE
  8
_0-7_ビス
  6
CONTINUOUS
 62
    4
 10
998.03527467668346
 20
566.61810681254224
 11
1002.5128551186231
 21
567.81791017193655
  0
LINE
  8
_0-7_ビス
  6
CONTINUOUS
 62
    4
 10
998.03527467668346
 20
554.31188628316477
 11
1005.0352746766816
 21
556.18759206325421
  0
LINE
  8
_0-7_ビス
  6
CONTINUOUS
 62
    4
 10
998.03527467668346
 20
556.31188628316522
 11
1005.0352746766816
 21
558.18759206325353
  0
LINE
  8
_0-7_ビス
  6
CONTINUOUS
 62
    4
 10
998.03527467668346
 20
558.31188628316568
 11
1005.0352746766816
 21
560.18759206325399
  0
LINE
  8
_0-7_ビス
  6
CONTINUOUS
 62
    4
 10
998.03527467668346
 20
560.31188628316499
 11
1005.0352746766816
 21
562.18759206325387
  0
LINE
  8
_0-7_ビス
  6
CONTINUOUS
 62
    4
 10
998.03527467668346
 20
562.31188628316545
 11
1005.0352746766816
 21
564.18759206325376
  0
LINE
  8
_0-7_ビス
  6
CONTINUOUS
 62
    4
 10
998.03527467668346
 20
564.3118862831659
 11
1005.0352746766816
 21
566.18759206325421
  0
LINE
  8
_0-7_ビス
  6
CONTINUOUS
 62
    4
 10
998.03527467668346
 20
542.00566575378843
 11
1005.0352746766816
 21
543.88137153387675
  0
LINE
  8
_0-7_ビス
  6
CONTINUOUS
 62
    4
 10
998.03527467668346
 20
544.00566575378889
 11
1005.0352746766816
 21
545.8813715338772
  0
LINE
  8
_0-7_ビス
  6
CONTINUOUS
 62
    4
 10
998.03527467668346
 20
546.00566575378821
 11
1005.0352746766816
 21
547.88137153387652
  0
LINE
  8
_0-7_ビス
  6
CONTINUOUS
 62
    4
 10
998.03527467668346
 20
548.00566575378866
 11
1005.0352746766816
 21
549.88137153387697
  0
LINE
  8
_0-7_ビス
  6
CONTINUOUS
 62
    4
 10
998.03527467668346
 20
550.00566575378798
 11
1005.0352746766816
 21
551.88137153387686
  0
LINE
  8
_0-7_ビス
  6
CONTINUOUS
 62
    4
 10
998.03527467668346
 20
552.00566575378843
 11
1005.0352746766816
 21
553.88137153387731
  0
LINE
  8
_0-7_ビス
  6
CONTINUOUS
 62
    4
 10
998.03527467668346
 20
529.69944522441097
 11
1005.0352746766816
 21
531.57515100450041
  0
LINE
  8
_0-7_ビス
  6
CONTINUOUS
 62
    4
 10
998.03527467668346
 20
531.69944522441142
 11
1005.0352746766816
 21
533.57515100449973
  0
LINE
  8
_0-7_ビス
  6
CONTINUOUS
 62
    4
 10
998.03527467668346
 20
533.69944522441187
 11
1005.0352746766816
 21
535.57515100450019
  0
LINE
  8
_0-7_ビス
  6
CONTINUOUS
 62
    4
 10
998.03527467668346
 20
535.69944522441119
 11
1005.0352746766816
 21
537.57515100450064
  0
LINE
  8
_0-7_ビス
  6
CONTINUOUS
 62
    4
 10
998.03527467668346
 20
537.69944522441165
 11
1005.0352746766816
 21
539.57515100449996
  0
LINE
  8
_0-7_ビス
  6
CONTINUOUS
 62
    4
 10
998.03527467668346
 20
539.6994452244121
 11
1005.0352746766816
 21
541.57515100450041
  0
LINE
  8
_0-7_ビス
  6
CONTINUOUS
 62
    4
 10
998.03527467668346
 20
517.39322469503463
 11
1005.0352746766816
 21
519.26893047512294
  0
LINE
  8
_0-7_ビス
  6
CONTINUOUS
 62
    4
 10
998.03527467668346
 20
519.39322469503509
 11
1005.0352746766816
 21
521.2689304751234
  0
LINE
  8
_0-7_ビス
  6
CONTINUOUS
 62
    4
 10
998.03527467668346
 20
521.39322469503441
 11
1005.0352746766816
 21
523.26893047512272
  0
LINE
  8
_0-7_ビス
  6
CONTINUOUS
 62
    4
 10
998.03527467668346
 20
523.39322469503486
 11
1005.0352746766816
 21
525.26893047512317
  0
LINE
  8
_0-7_ビス
  6
CONTINUOUS
 62
    4
 10
998.03527467668346
 20
525.39322469503418
 11
1005.0352746766816
 21
527.26893047512363
  0
LINE
  8
_0-7_ビス
  6
CONTINUOUS
 62
    4
 10
998.03527467668346
 20
527.39322469503463
 11
1005.0352746766816
 21
529.26893047512408
  0
LINE
  8
_0-7_ビス
  6
CONTINUOUS
 62
    4
 10
998.03527467668346
 20
515.0870041656583
 11
1005.0352746766816
 21
516.96270994574661
  0
LINE
  8
_0-7_ビス
  6
CONTINUOUS
 62
    4
 10
998.8969993997739
 20
513.31791017193609
 11
1005.0352746766816
 21
514.96270994574616
  0
LINE
  8
_0-5_金属
  6
CONTINUOUS
 62
    7
 10
969.53527467667982
 20
451.36676138501002
 11
1009.5352154913894
 21
451.36676138501002
  0
ARC
  8
_0-5_金属
  6
CONTINUOUS
 62
    7
 10
1027.8722954913883
 20
535.60316138501094
 40
2.9999997999999999
 50
90
 51
167.90458000000001
  0
ARC
  8
_0-5_金属
  6
CONTINUOUS
 62
    7
 10
1009.5352154913894
 20
451.36683138501098
 40
2.9999997999999999
 50
270
 51
347.90458000000001
  0
LINE
  8
_0-5_金属
  6
CONTINUOUS
 62
    7
 10
1009.5352154913894
 20
451.36676138501002
 11
1024.9388957177871
 21
536.23178254932895
  0
LINE
  8
_0-5_金属
  6
CONTINUOUS
 62
    7
 10
1027.8606454913893
 20
535.56677138501072
 11
1012.4686152649929
 21
450.73821022069296
  0
LINE
  8
_0-5_金属
  6
CONTINUOUS
 62
    7
 10
1169.5352855913893
 20
448.36680138501038
 11
1209.5351655913896
 21
448.36680138501038
  0
ARC
  8
_0-5_金属
  6
CONTINUOUS
 62
    7
 10
1227.8871855913894
 20
535.56275138501064
 40
2.9999997999999999
 50
90
 51
167.90458000000001
  0
ARC
  8
_0-5_金属
  6
CONTINUOUS
 62
    7
 10
1151.1721055913881
 20
535.55819138501079
 40
2.9999997999999999
 50
12.095412999999999
 51
90.000000000000028
  0
LINE
  8
_0-5_金属
  6
CONTINUOUS
 62
    7
 10
1151.2097955913896
 20
535.56677138501072
 11
1027.8606454913893
 21
535.56677138501072
  0
ARC
  8
_0-5_金属
  6
CONTINUOUS
 62
    7
 10
1169.5352855913893
 20
451.36683138501098
 40
2.9999997999999999
 50
192.09540999999999
 51
270
  0
ARC
  8
_0-5_金属
  6
CONTINUOUS
 62
    7
 10
1209.5351655913896
 20
451.36683138501098
 40
2.9999997999999999
 50
270
 51
347.90458000000001
  0
LINE
  8
_0-5_金属
  6
CONTINUOUS
 62
    7
 10
1166.6018857080712
 20
450.73821073266686
 11
1151.2097955913896
 21
535.56677138501072
  0
LINE
  8
_0-5_金属
  6
CONTINUOUS
 62
    7
 10
1227.8605955913895
 20
535.56677138501072
 11
1212.4685653649908
 21
450.73821022069296
  0
LINE
  8
_0-5_金属
  6
CONTINUOUS
 62
    7
 10
1154.1055054417916
 20
536.18681219094583
 11
1169.5352910851261
 21
451.36667118501123
  0
LINE
  8
_0-5_金属
  6
CONTINUOUS
 62
    7
 10
1169.5352910851261
 20
451.36667118501123
 11
1209.5351491956808
 21
451.36667118501123
  0
LINE
  8
_0-5_金属
  6
CONTINUOUS
 62
    7
 10
1209.5351491956808
 20
451.36667118501123
 11
1224.953785817786
 21
536.19137254932866
  0
LINE
  8
_0-5_金属
  6
CONTINUOUS
 62
    7
 10
969.53527467667982
 20
451.36676138501002
 11
969.53527467667982
 21
448.36674138501053
  0
LINE
  8
_0-5_金属
  6
CONTINUOUS
 62
    7
 10
1289.5352530413879
 20
448.36674138501053
 11
959.53527467667982
 21
448.36674138501053
  0
LINE
  8
_0-5_金属
  6
CONTINUOUS
 62
    7
 10
1227.8605955913895
 20
535.56677138501072
 11
1289.5352530413879
 21
535.56677138501072
  0
ARC
  8
_0-5_金属
  6
CONTINUOUS
 62
    7
 10
975.58523549138954
 20
465.41671138501101
 40
1.0499997999999999
 50
90
 51
270
  0
ARC
  8
_0-5_金属
  6
CONTINUOUS
 62
    7
 10
975.58523549138954
 20
465.41671138501101
 40
0.2499999
 50
90
 51
270
  0
ARC
  8
_0-5_金属
  6
CONTINUOUS
 62
    7
 10
1003.485315491389
 20
465.41671138501101
 40
1.0499997999999999
 50
270
 51
90
  0
ARC
  8
_0-5_金属
  6
CONTINUOUS
 62
    7
 10
1003.485315491389
 20
465.41671138501101
 40
0.2499999
 50
270
 51
90
  0
ARC
  8
_0-5_金属
  6
CONTINUOUS
 62
    7
 10
987.93532549138945
 20
467.26676138501034
 40
0.7999998999999997
 50
270
 51
0
  0
ARC
  8
_0-5_金属
  6
CONTINUOUS
 62
    7
 10
987.93532549138945
 20
467.26676138501034
 40
1.5999999
 50
270
 51
0
  0
ARC
  8
_0-5_金属
  6
CONTINUOUS
 62
    7
 10
991.13522549138906
 20
467.26676138501034
 40
0.7999998999999997
 50
180
 51
270
  0
ARC
  8
_0-5_金属
  6
CONTINUOUS
 62
    7
 10
991.13522549138906
 20
467.26676138501034
 40
1.5999999
 50
180
 51
270
  0
ARC
  8
_0-5_金属
  6
CONTINUOUS
 62
    7
 10
987.93532549138945
 20
536.96678138501056
 40
0.7999998999999997
 50
0
 51
90
  0
ARC
  8
_0-5_金属
  6
CONTINUOUS
 62
    7
 10
987.93532549138945
 20
536.96678138501056
 40
1.5999999
 50
0
 51
90
  0
ARC
  8
_0-5_金属
  6
CONTINUOUS
 62
    7
 10
991.13522549138906
 20
537.76676138501102
 40
0.7999998999999997
 50
90
 51
180
  0
ARC
  8
_0-5_金属
  6
CONTINUOUS
 62
    7
 10
991.13522549138906
 20
537.76676138501102
 40
1.5999999
 50
90
 51
180
  0
LINE
  8
_0-5_金属
  6
CONTINUOUS
 62
    7
 10
989.53527549138926
 20
534.51564138501112
 11
989.53527549138926
 21
524.07480138501001
  0
LINE
  8
_0-5_金属
  6
CONTINUOUS
 62
    7
 10
987.9702154913889
 20
525.63979138501054
 11
989.53527549138926
 21
524.07480138501001
  0
LINE
  8
_0-5_金属
  6
CONTINUOUS
 62
    7
 10
989.53527549138926
 20
534.51564138501112
 11
987.9702154913889
 21
525.63979138501054
  0
LINE
  8
_0-5_金属
  6
CONTINUOUS
 62
    7
 10
989.53527549138926
 20
524.07480138501001
 11
989.53527549138926
 21
467.26676138501034
  0
LINE
  8
_0-5_金属
  6
CONTINUOUS
 62
    7
 10
987.11005549138918
 20
525.36860138501083
 11
988.73530549138877
 21
523.74335138501124
  0
LINE
  8
_0-5_金属
  6
CONTINUOUS
 62
    7
 10
988.73530549138877
 20
523.74335138501124
 11
988.73530549138877
 21
467.26676138501034
  0
LINE
  8
_0-5_金属
  6
CONTINUOUS
 62
    7
 10
988.73530549138877
 20
534.58579138501022
 11
987.11005549138918
 21
525.36860138501083
  0
LINE
  8
_0-5_金属
  6
CONTINUOUS
 62
    7
 10
989.53527549138926
 20
537.76676138501102
 11
989.53527549138926
 21
534.51564138501112
  0
LINE
  8
_0-5_金属
  6
CONTINUOUS
 62
    7
 10
988.73530549138877
 20
536.96678138501056
 11
988.73530549138877
 21
534.58579138501022
  0
LINE
  8
_0-5_金属
  6
CONTINUOUS
 62
    7
 10
974.53528549139037
 20
537.76682138501087
 11
987.93532549138945
 21
537.76682138501087
  0
LINE
  8
_0-5_金属
  6
CONTINUOUS
 62
    7
 10
990.33524549138974
 20
537.76676138501102
 11
990.33524549138974
 21
467.26676138501034
  0
LINE
  8
_0-5_金属
  6
CONTINUOUS
 62
    7
 10
975.58523549138954
 20
465.66675138501068
 11
987.93532549138945
 21
465.66675138501068
  0
LINE
  8
_0-5_金属
  6
CONTINUOUS
 62
    7
 10
975.58523549138954
 20
465.16668138501132
 11
1003.485315491389
 21
465.16668138501132
  0
LINE
  8
_0-5_金属
  6
CONTINUOUS
 62
    7
 10
975.58523549138954
 20
466.46666138501018
 11
987.93532549138945
 21
466.46666138501018
  0
LINE
  8
_0-5_金属
  6
CONTINUOUS
 62
    7
 10
991.13522549138906
 20
466.46666138501018
 11
1003.485315491389
 21
466.46666138501018
  0
LINE
  8
_0-5_金属
  6
CONTINUOUS
 62
    7
 10
991.13522549138906
 20
465.66675138501068
 11
1003.485315491389
 21
465.66675138501068
  0
LINE
  8
_0-5_金属
  6
CONTINUOUS
 62
    7
 10
975.58523549138954
 20
464.36671158501099
 11
1003.485315491389
 21
464.36671158501099
  0
LINE
  8
_0-5_金属
  6
CONTINUOUS
 62
    7
 10
1187.9352755913897
 20
539.3667613850107
 11
990.98585549138988
 21
539.3667613850107
  0
ARC
  8
_0-5_金属
  6
CONTINUOUS
 62
    7
 10
1203.4852655913892
 20
465.41671138501101
 40
1.0499997999999999
 50
270
 51
90
  0
ARC
  8
_0-5_金属
  6
CONTINUOUS
 62
    7
 10
1203.4852655913892
 20
465.41671138501101
 40
0.2499999
 50
270
 51
90
  0
ARC
  8
_0-5_金属
  6
CONTINUOUS
 62
    7
 10
1175.5851855913897
 20
465.41671138501101
 40
1.0499997999999999
 50
90
 51
270
  0
ARC
  8
_0-5_金属
  6
CONTINUOUS
 62
    7
 10
1175.5851855913897
 20
465.41671138501101
 40
0.2499999
 50
90
 51
270
  0
ARC
  8
_0-5_金属
  6
CONTINUOUS
 62
    7
 10
1191.1351755913893
 20
467.26676138501034
 40
0.7999998999999997
 50
180
 51
270
  0
ARC
  8
_0-5_金属
  6
CONTINUOUS
 62
    7
 10
1191.1351755913893
 20
467.26676138501034
 40
1.5999999
 50
180
 51
270
  0
ARC
  8
_0-5_金属
  6
CONTINUOUS
 62
    7
 10
1187.9352755913897
 20
467.26676138501034
 40
0.7999998999999997
 50
270
 51
0
  0
ARC
  8
_0-5_金属
  6
CONTINUOUS
 62
    7
 10
1187.9352755913897
 20
467.26676138501034
 40
1.5999999
 50
270
 51
0
  0
ARC
  8
_0-5_金属
  6
CONTINUOUS
 62
    7
 10
1191.1351755913893
 20
537.76676138501102
 40
0.7999998999999997
 50
90
 51
180
  0
ARC
  8
_0-5_金属
  6
CONTINUOUS
 62
    7
 10
1191.1351755913893
 20
537.76676138501102
 40
1.5999999
 50
90
 51
180
  0
ARC
  8
_0-5_金属
  6
CONTINUOUS
 62
    7
 10
1187.9352755913897
 20
537.76676138501102
 40
0.7999998999999997
 50
0
 51
90
  0
ARC
  8
_0-5_金属
  6
CONTINUOUS
 62
    7
 10
1187.9352755913897
 20
537.76676138501102
 40
1.5999999
 50
0
 51
90
  0
LINE
  8
_0-5_金属
  6
CONTINUOUS
 62
    7
 10
1190.3351955913899
 20
537.76676138501102
 11
1190.3351955913899
 21
467.26676138501034
  0
LINE
  8
_0-5_金属
  6
CONTINUOUS
 62
    7
 10
1188.735255591389
 20
537.76676138501102
 11
1188.735255591389
 21
467.26676138501034
  0
LINE
  8
_0-5_金属
  6
CONTINUOUS
 62
    7
 10
1189.5352255913895
 20
537.76676138501102
 11
1189.5352255913895
 21
467.26676138501034
  0
LINE
  8
_0-5_金属
  6
CONTINUOUS
 62
    7
 10
1203.4852655913892
 20
465.66675138501068
 11
1191.1351755913893
 21
465.66675138501068
  0
LINE
  8
_0-5_金属
  6
CONTINUOUS
 62
    7
 10
1203.4852655913892
 20
465.16668138501132
 11
1175.5851855913897
 21
465.16668138501132
  0
LINE
  8
_0-5_金属
  6
CONTINUOUS
 62
    7
 10
1203.4852655913892
 20
466.46666138501018
 11
1191.1351755913893
 21
466.46666138501018
  0
LINE
  8
_0-5_金属
  6
CONTINUOUS
 62
    7
 10
1187.9352755913897
 20
466.46666138501018
 11
1175.5851855913897
 21
466.46666138501018
  0
LINE
  8
_0-5_金属
  6
CONTINUOUS
 62
    7
 10
1187.9352755913897
 20
465.66675138501068
 11
1175.5851855913897
 21
465.66675138501068
  0
LINE
  8
_0-5_金属
  6
CONTINUOUS
 62
    7
 10
1175.5851855913897
 20
464.36671158501099
 11
1203.4852655913892
 21
464.36671158501099
  0
LINE
  8
_0-5_金属
  6
CONTINUOUS
 62
    7
 10
1187.9352755913897
 20
538.56679138501022
 11
991.13522549138906
 21
538.56679138501022
  0
LINE
  8
_0-5_金属
  6
CONTINUOUS
 62
    7
 10
974.53528549139037
 20
538.56679138501022
 11
974.53528549139037
 21
537.76682138501087
  0
LINE
  8
_0-5_金属
  6
CONTINUOUS
 62
    7
 10
974.53528549139037
 20
538.56679138501022
 11
987.93532549138945
 21
538.56679138501022
  0
LINE
  8
_0-5_金属
  6
CONTINUOUS
 62
    7
 10
1289.5352530413879
 20
538.56679138501022
 11
1190.9953755913898
 21
538.56679138501022
  0
LINE
  8
_0-5_金属
  6
CONTINUOUS
 62
    7
 10
1191.1351755913893
 20
539.3667613850107
 11
1289.5352530413879
 21
539.3667613850107
  0
LINE
  8
_0-a_文字
  6
CONTINUOUS
 62
    7
 10
1071.0770185141109
 20
538.96677638501046
 11
1171.8823841748804
 21
364.3667613850107
  0
LINE
  8
_0-a_文字
  6
CONTINUOUS
 62
    7
 10
963.96456233423351
 20
539.8433337878248
 11
1079.7097653772084
 21
339.3667613850107
  0
LINE
  8
_0-a_文字
  6
CONTINUOUS
 62
    7
 10
1079.7097653772084
 20
339.3667613850107
 11
1099.7097653772084
 21
339.3667613850107
  0
TEXT
  8
_0-a_文字
 62
    7
 10
1104.7097653772094
 20
331.8667613850107
 40
14.999999999999858
 41
0.999999999999999
 50
0
  1
亜鉛めっき鋼板 t=1.2以上
  0
TEXT
  8
_0-a_文字
 62
    7
 10
1104.7097653772089
 20
311.8667613850107
 40
14.999999999999858
 41
0.9999999999999996
 50
0
  1
（別途工事）
  0
LINE
  8
_0-a_文字
  6
CONTINUOUS
 62
    7
 10
1171.8823841748804
 20
364.3667613850107
 11
1191.8823841748804
 21
364.3667613850107
  0
TEXT
  8
_0-a_文字
 62
    7
 10
1196.8823841748763
 20
356.8667613850107
 40
14.999999999999858
 41
1.0000000000000153
 50
0
  1
タイトフレーム（別途工事）
  0
LINE
  8
_0-a_文字
  6
CONTINUOUS
 62
    7
 10
1145.9016220613444
 20
409.3667613850107
 11
1191.8823841748804
 21
409.3667613850107
  0
TEXT
  8
_0-a_文字
 62
    7
 10
1196.8823841748781
 20
401.8667613850107
 40
14.999999999999858
 41
1.0000000000000073
 50
0
  1
デッキプレート フラットタイプ H=75
  0
TEXT
  8
_0-a_文字
 62
    7
 10
1196.8823841748779
 20
381.8667613850107
 40
14.999999999999858
 41
1.0000000000000084
 50
0
  1
t=1.0 または t=1.2（別途工事）
  0
TEXT
  8
_f-0_
 62
    7
 10
405.30228976001922
 20
1163.75
 40
17.499999999999993
 41
1.0000000000000004
 50
0
  1
ＳＤ－Ｆ仕様 パラペット 立上り接着工法（笠木あり）
  0
ENDSEC
  0
EOF
