  0
SECTION
  2
HEADER
  9
$ACADVER
  1
AC1009
  9
$INSBASE
 10
0
 20
0
 30
0
  9
$EXTMIN
 10
0
 20
0
  9
$EXTMAX
 10
2100
 20
1485
  9
$LIMMIN
 10
0
 20
0
  9
$LIMMAX
 10
2100
 20
1485
  9
$LTSCALE
 40
5
  0
ENDSEC
  0
SECTION
  2
TABLES
  0
TABLE
  2
LTYPE
 70
     9
  0
LTYPE
  2
CONTINUOUS
 70
    64
  3
実線
 72
    65
 73
     0
 40
0.0
  0
LTYPE
  2
DASHED1
 70
    64
  3
--  --  --  --  --  --  --  --  
 72
    65
 73
     2
 40
2.5
 49
1.25
 49
-1.25
  0
LTYPE
  2
DASHED2
 70
    64
  3
----    ----    ----    ----    
 72
    65
 73
     2
 40
5.0
 49
2.5
 49
-2.5
  0
LTYPE
  2
DASHED3
 70
    64
  3
------  ------  ------  ------  
 72
    65
 73
     2
 40
5.0
 49
3.75
 49
-1.25
  0
LTYPE
  2
CENTER1
 70
    64
  3
----- - ----- - ----- - ----- - 
 72
    65
 73
     4
 40
10.0
 49
6.25
 49
-1.25
 49
1.25
 49
-1.25
  0
LTYPE
  2
CENTER2
 70
    64
  3
----------  --  ----------  --  
 72
    65
 73
     4
 40
20.0
 49
12.5
 49
-2.5
 49
2.5
 49
-2.5
  0
LTYPE
  2
PHANTOM1
 70
    64
  3
--- - - --- - - --- - - --- - - 
 72
    65
 73
     6
 40
10.0
 49
3.25
 49
-1.25
 49
1.25
 49
-1.25
 49
1.25
 49
-1.25
  0
LTYPE
  2
PHANTOM2
 70
    64
  3
--------  -  -  --------  -  -  
 72
    65
 73
     6
 40
20.0
 49
10.0
 49
-2.5
 49
1.25
 49
-2.5
 49
1.25
 49
-2.5
  0
LTYPE
  2
DOT
 70
    64
  3
-   -   -   -   -   -   -   -   
 72
    65
 73
     2
 40
2.5
 49
0.625
 49
-1.875
  0
LTYPE
  2
DUMMY
 70
    64
  3
ダミー
 72
    65
 73
     0
 40
0.0
  0
LTYPE
  2
RAND1
 70
    64
  3
ランダム線1
 72
    65
 73
     4
 40
10.0
 49
1.0
 49
-2.0
 49
3.0
 49
-4.0
  0
LTYPE
  2
RAND2
 70
    64
  3
ランダム線2
 72
    65
 73
     4
 40
14.0
 49
2.0
 49
-3.0
 49
4.0
 49
-5.0
  0
LTYPE
  2
RAND3
 70
    64
  3
ランダム線3
 72
    65
 73
     4
 40
18.0
 49
3.0
 49
-4.0
 49
5.0
 49
-6.0
  0
LTYPE
  2
RAND4
 70
    64
  3
ランダム線4
 72
    65
 73
     4
 40
22.0
 49
4.0
 49
-5.0
 49
6.0
 49
-7.0
  0
LTYPE
  2
RAND5
 70
    64
  3
ランダム線5
 72
    65
 73
     4
 40
26.0
 49
5.0
 49
-6.0
 49
7.0
 49
-8.0
  0
LTYPE
  2
LONG1
 70
    64
  3
----------  --  ----------  --  
 72
    65
 73
     4
 40
40.0
 49
32.5
 49
-2.5
 49
2.5
 49
-2.5
  0
LTYPE
  2
LONG2
 70
    64
  3
--------  -  -  --------  -  -  
 72
    65
 73
     6
 40
40.0
 49
30.0
 49
-2.5
 49
1.25
 49
-2.5
 49
1.25
 49
-2.5
  0
LTYPE
  2
LONG3
 70
    64
  3
+++++++++++++++..+++++++++++++++
 72
    65
 73
     2
 40
40.0
 49
37.5
 49
-2.5
  0
LTYPE
  2
LONG4
 70
    64
  3
+++++++++++++++..+++++++++++++++
 72
    65
 73
     2
 40
80.0
 49
75.0
 49
-5.0
  0
LTYPE
  2
LONG5
 70
    64
  3
----------  --  ----------  --  
 72
    65
 73
     4
 40
60.0
 49
37.5
 49
-7.5
 49
7.5
 49
-7.5
  0
LTYPE
  2
dashed
 70
   64
  3
-------   -------------   ------
 72
   65
 73
    2
 40
7.5
 49
6
 49
-1.5
  0
LTYPE
  2
dashed_spaced
 70
   64
  3
----        --------        ----
 72
   65
 73
    2
 40
12
 49
6
 49
-6
  0
LTYPE
  2
long_dashed_dotted
 70
   64
  3
------------- --- --------------
 72
   65
 73
    4
 40
15.25
 49
12
 49
-1.5
 49
0.25
 49
-1.5
  0
LTYPE
  2
long_dashed_double-dotted
 70
   64
  3
----------- --- --- ------------
 72
   65
 73
    6
 40
17
 49
12
 49
-1.5
 49
0.25
 49
-1.5
 49
0.25
 49
-1.5
  0
LTYPE
  2
long_dashed_triplicate-dotted
 70
   64
  3
--------- --- --- --- ----------
 72
   65
 73
    8
 40
18.75
 49
12
 49
-1.5
 49
0.25
 49
-1.5
 49
0.25
 49
-1.5
 49
0.25
 49
-1.5
  0
LTYPE
  2
dotted
 70
   64
  3
   -       -       -       -    
 72
   65
 73
    2
 40
1.75
 49
0.25
 49
-1.5
  0
LTYPE
  2
chain
 70
   64
  3
-------------- -- --------------
 72
   65
 73
    4
 40
18.5
 49
12
 49
-1.5
 49
3.5
 49
-1.5
  0
LTYPE
  2
chain_double_dash
 70
   64
  3
------------ -- -- -------------
 72
   65
 73
    6
 40
23.5
 49
12
 49
-1.5
 49
3.5
 49
-1.5
 49
3.5
 49
-1.5
  0
LTYPE
  2
dashed_dotted
 70
   64
  3
-----------     -     ----------
 72
   65
 73
    4
 40
9.25
 49
6
 49
-1.5
 49
0.25
 49
-1.5
  0
LTYPE
  2
double-dashed_dotted
 70
   64
  3
------   -----------   -   -----
 72
   65
 73
    6
 40
16.75
 49
6
 49
-1.5
 49
6
 49
-1.5
 49
0.25
 49
-1.5
  0
LTYPE
  2
dashed_double-dotted
 70
   64
  3
---------    -    -    ---------
 72
   65
 73
    6
 40
11
 49
6
 49
-1.5
 49
0.25
 49
-1.5
 49
0.25
 49
-1.5
  0
LTYPE
  2
double-dashed_double-dotted
 70
   64
  3
-----   ---------   -   -   ----
 72
   65
 73
    8
 40
18.5
 49
6
 49
-1.5
 49
6
 49
-1.5
 49
0.25
 49
-1.5
 49
0.25
 49
-1.5
  0
LTYPE
  2
dashed_triplicate-dotted
 70
   64
  3
-------    -    -    -    ------
 72
   65
 73
    8
 40
12.75
 49
6
 49
-1.5
 49
0.25
 49
-1.5
 49
0.25
 49
-1.5
 49
0.25
 49
-1.5
  0
LTYPE
  2
double-dashed_triplicate-dotted
 70
   64
  3
-----  ---------  -  -  -  -----
 72
   65
 73
   10
 40
20.25
 49
6
 49
-1.5
 49
6
 49
-1.5
 49
0.25
 49
-1.5
 49
0.25
 49
-1.5
 49
0.25
 49
-1.5
  0
LTYPE
  2
undefined
 70
   64
  3
--------------------------------
 72
   65
 73
    0
 40
0
  0
ENDTAB
  0
TABLE
  2
STYLE
  5
3
100
AcDbSymbolTable
 70
     1
  0
STYLE
  5
10
100
AcDbSymbolTableRecord
100
AcDbTextStyleTableRecord
  2
STANDARD
 70
     0
 40
0.0
 41
1.0
 50
0.0
 71
     0
 42
0.2
  3
txt
  4
bigfont.shx
  0
STYLE
  5
26
100
AcDbSymbolTableRecord
100
AcDbTextStyleTableRecord
  2
TATEGAKI
 70
    68
 40
0.0
 41
1.0
 50
0.0
 71
     0
 42
1.0
  3
txt
  4
bigfont.shx
  0
ENDTAB
  0
TABLE
  2
LAYER
 70
   14
  0
LAYER
  2
_0-1_線色１__水色__
 70
   64
 62
    7
  6
CONTINUOUS
  0
LAYER
  2
_0-2_線色２__白__
 70
   64
 62
    7
  6
CONTINUOUS
  0
LAYER
  2
_0-3_線色３__緑__
 70
   64
 62
    7
  6
CONTINUOUS
  0
LAYER
  2
_0-4_線色４__黄__
 70
   64
 62
    7
  6
CONTINUOUS
  0
LAYER
  2
_0-5_金属
 70
   64
 62
    7
  6
CONTINUOUS
  0
LAYER
  2
_0-6_鋼板__アングル
 70
   64
 62
    7
  6
CONTINUOUS
  0
LAYER
  2
_0-7_ビス
 70
   64
 62
    7
  6
CONTINUOUS
  0
LAYER
  2
_0-8_笠木他
 70
   64
 62
    7
  6
CONTINUOUS
  0
LAYER
  2
_0-a_文字
 70
   64
 62
    7
  6
CONTINUOUS
  0
LAYER
  2
_0-b_寸法
 70
   64
 62
    7
  6
CONTINUOUS
  0
LAYER
  2
_0-d_断熱__ハッチ
 70
   64
 62
    7
  6
CONTINUOUS
  0
LAYER
  2
_f-0_
 70
   64
 62
    7
  6
CONTINUOUS
  0
LAYER
  2
_f-f_
 70
   64
 62
    7
  6
CONTINUOUS
  0
LAYER
  2
ADD_LINE
 70
   64
 62
    7
  6
CONTINUOUS
  0
ENDTAB
  0
ENDSEC
  0
SECTION
  2
BLOCKS
  0
ENDSEC
  0
SECTION
  2
ENTITIES
  0
LINE
  8
_f-0_
  6
CONTINUOUS
 62
  136
 10
1714.9999999999989
 20
1192.5
 11
385
 21
1192.5
  0
LINE
  8
_f-0_
  6
CONTINUOUS
 62
  136
 10
385
 20
277.50000000000341
 11
1714.9999999999989
 21
277.50000000000341
  0
LINE
  8
_f-0_
  6
CONTINUOUS
 62
  136
 10
385
 20
1192.5
 11
385
 21
277.50000000000341
  0
LINE
  8
_f-0_
  6
CONTINUOUS
 62
  136
 10
1714.9999999999989
 20
1192.5
 11
1714.9999999999989
 21
277.50000000000341
  0
LINE
  8
_f-0_
  6
CONTINUOUS
 62
    6
 10
1714.9999999999989
 20
1152.5
 11
385
 21
1152.5
  0
LINE
  8
_f-f_
  6
CONTINUOUS
 62
    9
 10
310
 20
217.5
 11
310
 21
1267.5
  0
LINE
  8
_f-f_
  6
CONTINUOUS
 62
    9
 10
1790
 20
217.5
 11
310
 21
217.5
  0
LINE
  8
_f-f_
  6
CONTINUOUS
 62
    9
 10
1790
 20
1267.5
 11
310
 21
1267.5
  0
LINE
  8
_f-f_
  6
CONTINUOUS
 62
    9
 10
1790
 20
1267.5
 11
1790
 21
217.5
  0
LINE
  8
ADD_LINE
  6
DOT
 62
  136
 10
1764.9999999999989
 20
1242.5
 11
335
 21
1242.5
  0
LINE
  8
ADD_LINE
  6
DOT
 62
  136
 10
335
 20
242.50000000000227
 11
335
 21
1242.5
  0
LINE
  8
ADD_LINE
  6
DOT
 62
  136
 10
1765
 20
1242.5
 11
1765
 21
242.5
  0
LINE
  8
ADD_LINE
  6
DOT
 62
  136
 10
1765
 20
242.5
 11
335.00000000000114
 21
242.5
  0
TEXT
  8
_0-a_文字
 62
    7
 10
405
 20
287.50000000000313
 40
15.000000000000568
 41
0.9999999999999666
 50
0
  1
※ 本図面は防水納まりの参考図であり、下地等の構造を保証するものではありません
  0
TEXT
  8
_0-a_文字
 62
    7
 10
405
 20
307.50000000000313
 40
15.000000000000568
 41
0.9999999999999668
 50
0
  1
※ デッキ端部などの開口部には、必要に応じ遮炎性を満たす処理をお願いします（別途工事）
  0
TEXT
  8
_0-a_文字
 62
    7
 10
405
 20
327.50000000000313
 40
15.000000000000568
 41
0.9999999999999666
 50
0
  1
※ ラジアルシートＬ６００は、断熱材の種類がポリスチレンフォームの場合のみ使用
  0
LINE
  8
_0-5_金属
  6
CONTINUOUS
 62
    7
 10
957.23527467667736
 20
593.6667613850102
 11
957.23527467667736
 21
635.06676138500893
  0
LINE
  8
_0-5_金属
  6
CONTINUOUS
 62
    7
 10
959.53527467667982
 20
593.6667613850102
 11
959.53527467667982
 21
635.06676138500893
  0
ARC
  8
_0-5_金属
  6
CONTINUOUS
 62
    7
 10
863.83527467667818
 20
593.6667613850102
 40
4.2999999999999989
 50
180
 51
270
  0
LINE
  8
_0-5_金属
  6
CONTINUOUS
 62
    7
 10
863.83527467667818
 20
589.36676138500957
 11
879.53527467667755
 21
589.36676138500957
  0
LINE
  8
_0-5_金属
  6
CONTINUOUS
 62
    7
 10
859.53527467667755
 20
593.6667613850102
 11
859.53527467667755
 21
635.06676138500893
  0
ARC
  8
_0-5_金属
  6
CONTINUOUS
 62
    7
 10
863.83527467667818
 20
635.06676138500893
 40
4.2999999999999989
 50
90
 51
180
  0
LINE
  8
_0-5_金属
  6
CONTINUOUS
 62
    7
 10
863.83527467667818
 20
639.36676138500957
 11
955.23527467667918
 21
639.36676138500957
  0
ARC
  8
_0-5_金属
  6
CONTINUOUS
 62
    7
 10
955.23527467667918
 20
635.06676138500893
 40
4.2999999999999989
 50
0
 51
90
  0
ARC
  8
_0-5_金属
  6
CONTINUOUS
 62
    7
 10
955.23527467667918
 20
593.6667613850102
 40
4.2999999999999989
 50
270
 51
0
  0
LINE
  8
_0-5_金属
  6
CONTINUOUS
 62
    7
 10
955.23527467667918
 20
589.36676138500957
 11
939.53527467667755
 21
589.36676138500957
  0
ARC
  8
_0-5_金属
  6
CONTINUOUS
 62
    7
 10
955.23527467667918
 20
593.6667613850102
 40
2
 50
270
 51
0
  0
LINE
  8
_0-5_金属
  6
CONTINUOUS
 62
    7
 10
955.23527467667918
 20
591.66676138500975
 11
939.53527467667755
 21
591.66676138500975
  0
ARC
  8
_0-5_金属
  6
CONTINUOUS
 62
    7
 10
955.23527467667918
 20
635.06676138500893
 40
2
 50
0
 51
90.000000000000014
  0
LINE
  8
_0-5_金属
  6
CONTINUOUS
 62
    7
 10
955.23527467667918
 20
637.06676138500939
 11
863.83527467667818
 21
637.06676138500939
  0
ARC
  8
_0-5_金属
  6
CONTINUOUS
 62
    7
 10
863.83527467667818
 20
635.06676138500893
 40
2
 50
90
 51
180
  0
LINE
  8
_0-5_金属
  6
CONTINUOUS
 62
    7
 10
861.83527467668
 20
635.06676138500893
 11
861.83527467668
 21
593.6667613850102
  0
ARC
  8
_0-5_金属
  6
CONTINUOUS
 62
    7
 10
863.83527467667818
 20
593.6667613850102
 40
2
 50
180
 51
270
  0
LINE
  8
_0-5_金属
  6
CONTINUOUS
 62
    7
 10
863.83527467667818
 20
591.66676138500975
 11
879.53527467667755
 21
591.66676138500975
  0
LINE
  8
_0-5_金属
  6
CONTINUOUS
 62
    7
 10
957.23527467667736
 20
893.6667613850102
 11
957.23527467667736
 21
935.0667613850112
  0
ARC
  8
_0-5_金属
  6
CONTINUOUS
 62
    7
 10
863.83527467667818
 20
893.6667613850102
 40
4.2999999999999989
 50
180
 51
270
  0
LINE
  8
_0-5_金属
  6
CONTINUOUS
 62
    7
 10
863.83527467667818
 20
889.36676138500957
 11
879.53527467667755
 21
889.36676138500957
  0
LINE
  8
_0-5_金属
  6
CONTINUOUS
 62
    7
 10
859.53527467667755
 20
893.6667613850102
 11
859.53527467667755
 21
935.0667613850112
  0
ARC
  8
_0-5_金属
  6
CONTINUOUS
 62
    7
 10
863.83527467667818
 20
935.0667613850112
 40
4.2999999999999989
 50
90
 51
180
  0
ARC
  8
_0-5_金属
  6
CONTINUOUS
 62
    7
 10
955.23527467667918
 20
935.0667613850112
 40
4.2999999999999989
 50
0
 51
90
  0
ARC
  8
_0-5_金属
  6
CONTINUOUS
 62
    7
 10
955.23527467667918
 20
893.6667613850102
 40
4.2999999999999989
 50
270
 51
0
  0
LINE
  8
_0-5_金属
  6
CONTINUOUS
 62
    7
 10
955.23527467667918
 20
889.36676138500957
 11
939.53527467667755
 21
889.36676138500957
  0
ARC
  8
_0-5_金属
  6
CONTINUOUS
 62
    7
 10
955.23527467667918
 20
893.6667613850102
 40
2
 50
270
 51
0
  0
LINE
  8
_0-5_金属
  6
CONTINUOUS
 62
    7
 10
955.23527467667918
 20
891.66676138500975
 11
939.53527467667755
 21
891.66676138500975
  0
ARC
  8
_0-5_金属
  6
CONTINUOUS
 62
    7
 10
955.23527467667918
 20
935.0667613850112
 40
2
 50
0
 51
90.000000000000014
  0
ARC
  8
_0-5_金属
  6
CONTINUOUS
 62
    7
 10
863.83527467667818
 20
935.0667613850112
 40
2
 50
90
 51
180
  0
LINE
  8
_0-5_金属
  6
CONTINUOUS
 62
    7
 10
861.83527467668
 20
935.0667613850112
 11
861.83527467668
 21
893.6667613850102
  0
ARC
  8
_0-5_金属
  6
CONTINUOUS
 62
    7
 10
863.83527467667818
 20
893.6667613850102
 40
2
 50
180
 51
270
  0
LINE
  8
_0-5_金属
  6
CONTINUOUS
 62
    7
 10
863.83527467667818
 20
891.66676138500975
 11
879.53527467667755
 21
891.66676138500975
  0
LINE
  8
_0-5_金属
  6
CONTINUOUS
 62
    7
 10
939.53527467667755
 20
891.66676138500975
 11
939.53527467667755
 21
889.36676138500957
  0
LINE
  8
_0-5_金属
  6
CONTINUOUS
 62
    7
 10
879.53527467667755
 20
891.66676138500975
 11
879.53527467667755
 21
889.36676138500957
  0
LINE
  8
_0-5_金属
  6
CONTINUOUS
 62
    7
 10
939.53527467667755
 20
889.36676138500957
 11
939.53527467667755
 21
639.36676138500957
  0
LINE
  8
_0-5_金属
  6
CONTINUOUS
 62
    7
 10
879.53527467667755
 20
889.36676138500957
 11
879.53527467667755
 21
639.36676138500957
  0
LINE
  8
_0-5_金属
  6
CONTINUOUS
 62
    7
 10
955.23527467667918
 20
937.06676138500939
 11
863.83527467667818
 21
937.06676138500939
  0
LINE
  8
_0-5_金属
  6
CONTINUOUS
 62
    7
 10
863.83527467667818
 20
939.36676138500957
 11
955.23527467667918
 21
939.36676138500957
  0
LINE
  8
_0-5_金属
  6
CONTINUOUS
 62
    7
 10
859.53527467667755
 20
893.6667613850102
 11
859.53527467667755
 21
635.06676138500893
  0
LINE
  8
_0-2_線色２__白__
  6
CONTINUOUS
 62
    7
 10
959.53527467667982
 20
635.06676138500893
 11
959.53527467667982
 21
939.36676138500957
  0
LINE
  8
_0-5_金属
  6
CONTINUOUS
 62
    7
 10
959.53527467667755
 20
893.6667613850102
 11
959.53527467667755
 21
935.0667613850112
  0
LINE
  8
_0-5_金属
  6
CONTINUOUS
 62
    7
 10
879.53527467667755
 20
591.66676138500975
 11
879.53527467667755
 21
589.36676138500957
  0
LINE
  8
_0-5_金属
  6
CONTINUOUS
 62
    7
 10
939.53527467667755
 20
591.66676138500975
 11
939.53527467667755
 21
589.36676138500957
  0
LINE
  8
_0-2_線色２__白__
  6
CONTINUOUS
 62
    7
 10
824.53527467667755
 20
937.36676138501139
 11
859.53527467667755
 21
937.36676138501139
  0
LINE
  8
_0-d_断熱__ハッチ
  6
CONTINUOUS
 62
    4
 10
857.79175665220237
 20
937.36676138501139
 11
859.53527467667755
 21
939.11027940948429
  0
LINE
  8
_0-d_断熱__ハッチ
  6
CONTINUOUS
 62
    4
 10
854.25622274627131
 20
937.36676138501139
 11
856.25622274626949
 21
939.36676138500957
  0
LINE
  8
_0-d_断熱__ハッチ
  6
CONTINUOUS
 62
    4
 10
850.7206888403357
 20
937.36676138501139
 11
852.72068884033615
 21
939.36676138500957
  0
LINE
  8
_0-d_断熱__ハッチ
  6
CONTINUOUS
 62
    4
 10
847.18515493440464
 20
937.36676138501139
 11
849.18515493440509
 21
939.36676138501184
  0
LINE
  8
_0-d_断熱__ハッチ
  6
CONTINUOUS
 62
    4
 10
843.6496210284713
 20
937.36676138501139
 11
845.64962102847176
 21
939.36676138501184
  0
LINE
  8
_0-d_断熱__ハッチ
  6
CONTINUOUS
 62
    4
 10
840.11408712253797
 20
937.36676138501139
 11
842.11408712253615
 21
939.36676138501184
  0
LINE
  8
_0-d_断熱__ハッチ
  6
CONTINUOUS
 62
    4
 10
836.57855321660463
 20
937.36676138501139
 11
838.57855321660281
 21
939.36676138501184
  0
LINE
  8
_0-d_断熱__ハッチ
  6
CONTINUOUS
 62
    4
 10
833.04301931068039
 20
937.36676138501139
 11
835.04301931067857
 21
939.36676138501184
  0
LINE
  8
_0-d_断熱__ハッチ
  6
CONTINUOUS
 62
    4
 10
829.50748540474706
 20
937.36676138501139
 11
831.50748540474297
 21
939.36676138500729
  0
LINE
  8
_0-d_断熱__ハッチ
  6
CONTINUOUS
 62
    4
 10
825.97195149881372
 20
937.36676138501139
 11
827.9719514988119
 21
939.36676138500957
  0
LINE
  8
_0-2_線色２__白__
  6
CONTINUOUS
 62
    7
 10
822.02751077041512
 20
944.1282138035956
 11
822.00161222094493
 21
944.01791017193432
  0
LINE
  8
_0-2_線色２__白__
  6
CONTINUOUS
 62
    7
 10
822.07334766609165
 20
944.31788875069856
 11
822.02751077041512
 21
944.1282138035956
  0
LINE
  8
_0-2_線色２__白__
  6
CONTINUOUS
 62
    7
 10
822.12247407337827
 20
944.50616445287437
 11
822.07334766609165
 21
944.31788875069856
  0
LINE
  8
_0-2_線色２__白__
  6
CONTINUOUS
 62
    7
 10
822.17697196164863
 20
944.69215531206487
 11
822.12247407337827
 21
944.50616445287437
  0
LINE
  8
_0-2_線色２__白__
  6
CONTINUOUS
 62
    7
 10
822.23892330027184
 20
944.87497573021187
 11
822.17697196164863
 21
944.69215531206487
  0
LINE
  8
_0-2_線色２__白__
  6
CONTINUOUS
 62
    7
 10
822.31041005862153
 20
945.05374010926403
 11
822.23892330027184
 21
944.87497573021187
  0
LINE
  8
_0-2_線色２__白__
  6
CONTINUOUS
 62
    7
 10
822.35706191198005
 20
945.1552160003132
 11
822.31041005862153
 21
945.05374010926403
  0
LINE
  8
_0-2_線色２__白__
  6
CONTINUOUS
 62
    7
 10
822.39310182306781
 20
945.22686765815592
 11
822.35706191198005
 21
945.1552160003132
  0
LINE
  8
_0-2_線色２__白__
  6
CONTINUOUS
 62
    7
 10
822.46012232139492
 20
945.3481614118607
 11
822.39310182306781
 21
945.22686765815592
  0
LINE
  8
_0-2_線色２__白__
  6
CONTINUOUS
 62
    7
 10
822.53282988754108
 20
945.46657317655331
 11
822.46012232139492
 21
945.3481614118607
  0
LINE
  8
_0-2_線色２__白__
  6
CONTINUOUS
 62
    7
 10
822.61065057828546
 20
945.58205410926462
 11
822.53282988754108
 21
945.46657317655331
  0
LINE
  8
_0-2_線色２__白__
  6
CONTINUOUS
 62
    7
 10
822.69301045041857
 20
945.69455536702321
 11
822.61065057828546
 21
945.58205410926462
  0
LINE
  8
_0-2_線色２__白__
  6
CONTINUOUS
 62
    7
 10
822.77933556072412
 20
945.80402810685996
 11
822.69301045041857
 21
945.69455536702321
  0
LINE
  8
_0-2_線色２__白__
  6
CONTINUOUS
 62
    7
 10
822.83099483335945
 20
945.86611538238344
 11
822.77933556072412
 21
945.80402810685996
  0
LINE
  8
_0-2_線色２__白__
  6
CONTINUOUS
 62
    7
 10
822.92206341529891
 20
945.97031669059447
 11
822.83099483335945
 21
945.86611538238344
  0
LINE
  8
_0-2_線色２__白__
  6
CONTINUOUS
 62
    7
 10
823.08537728657711
 20
946.14359369360386
 11
822.92206341529891
 21
945.97031669059447
  0
LINE
  8
_0-2_線色２__白__
  6
CONTINUOUS
 62
    7
 10
823.25542248568809
 20
946.31007983645418
 11
823.08537728657711
 21
946.14359369360386
  0
LINE
  8
_0-2_線色２__白__
  6
CONTINUOUS
 62
    7
 10
823.4307546119112
 20
946.47127003437959
 11
823.25542248568809
 21
946.31007983645418
  0
LINE
  8
_0-2_線色２__白__
  6
CONTINUOUS
 62
    7
 10
823.60992926453719
 20
946.62865920262107
 11
823.4307546119112
 21
946.47127003437959
  0
LINE
  8
_0-2_線色２__白__
  6
CONTINUOUS
 62
    7
 10
823.7915020428477
 20
946.78374225641505
 11
823.60992926453719
 21
946.62865920262107
  0
LINE
  8
_0-2_線色２__白__
  6
CONTINUOUS
 62
    7
 10
823.89734390646481
 20
946.87322284031666
 11
823.7915020428477
 21
946.78374225641505
  0
LINE
  8
_0-2_線色２__白__
  6
CONTINUOUS
 62
    7
 10
823.98179707586905
 20
946.94448001940941
 11
823.89734390646481
 21
946.87322284031666
  0
LINE
  8
_0-2_線色２__白__
  6
CONTINUOUS
 62
    7
 10
824.12790467696368
 20
947.06668009933423
 11
823.98179707586905
 21
946.94448001940941
  0
LINE
  8
_0-2_線色２__白__
  6
CONTINUOUS
 62
    7
 10
824.2753095186572
 20
947.18701244838144
 11
824.12790467696368
 21
947.06668009933423
  0
LINE
  8
_0-2_線色２__白__
  6
CONTINUOUS
 62
    7
 10
824.42478600739378
 20
947.30427250077696
 11
824.2753095186572
 21
947.18701244838144
  0
LINE
  8
_0-2_線色２__白__
  6
CONTINUOUS
 62
    7
 10
824.57710854961533
 20
947.41725569074674
 11
824.42478600739378
 21
947.30427250077696
  0
LINE
  8
_0-2_線色２__白__
  6
CONTINUOUS
 62
    7
 10
824.73305155176831
 20
947.52475745251445
 11
824.57710854961533
 21
947.41725569074674
  0
LINE
  8
_0-2_線色２__白__
  6
CONTINUOUS
 62
    7
 10
824.82546254416775
 20
947.5841222223869
 11
824.73305155176831
 21
947.52475745251445
  0
LINE
  8
_0-2_線色２__白__
  6
CONTINUOUS
 62
    7
 10
824.91717755249283
 20
947.63980916389869
 11
824.82546254416775
 21
947.5841222223869
  0
LINE
  8
_0-2_線色２__白__
  6
CONTINUOUS
 62
    7
 10
825.07798127850492
 20
947.73176593462381
 11
824.91717755249283
 21
947.63980916389869
  0
LINE
  8
_0-2_線色２__白__
  6
CONTINUOUS
 62
    7
 10
825.24069870645917
 20
947.82086609695966
 11
825.07798127850492
 21
947.73176593462381
  0
LINE
  8
_0-2_線色２__白__
  6
CONTINUOUS
 62
    7
 10
825.40361865475234
 20
947.9097568054101
 11
825.24069870645917
 21
947.82086609695966
  0
LINE
  8
_0-2_線色２__白__
  6
CONTINUOUS
 62
    7
 10
825.56502994178345
 20
948.00108521448124
 11
825.40361865475234
 21
947.9097568054101
  0
LINE
  8
_0-2_線色２__白__
  6
CONTINUOUS
 62
    7
 10
825.72322138595382
 20
948.09749847867693
 11
825.56502994178345
 21
948.00108521448124
  0
LINE
  8
_0-2_線色２__白__
  6
CONTINUOUS
 62
    7
 10
825.81282279704283
 20
948.15679116905471
 11
825.72322138595382
 21
948.09749847867693
  0
LINE
  8
_0-2_線色２__白__
  6
CONTINUOUS
 62
    7
 10
825.8668500219369
 20
948.19465846544404
 11
825.81282279704283
 21
948.15679116905471
  0
LINE
  8
_0-2_線色２__白__
  6
CONTINUOUS
 62
    7
 10
825.95820452088901
 20
948.26258629497374
 11
825.8668500219369
 21
948.19465846544404
  0
LINE
  8
_0-2_線色２__白__
  6
CONTINUOUS
 62
    7
 10
826.04723453192491
 20
948.33367777166245
 11
825.95820452088901
 21
948.26258629497374
  0
LINE
  8
_0-2_線色２__白__
  6
CONTINUOUS
 62
    7
 10
826.1338805074206
 20
948.40772667498982
 11
826.04723453192491
 21
948.33367777166245
  0
LINE
  8
_0-2_線色２__白__
  6
CONTINUOUS
 62
    7
 10
826.21808289974979
 20
948.48452678443095
 11
826.1338805074206
 21
948.40772667498982
  0
LINE
  8
_0-2_線色２__白__
  6
CONTINUOUS
 62
    7
 10
826.29978216129075
 20
948.56387187946552
 11
826.21808289974979
 21
948.48452678443095
  0
LINE
  8
_0-2_線色２__白__
  6
CONTINUOUS
 62
    7
 10
826.34599733359437
 20
948.61097688537598
 11
826.29978216129075
 21
948.56387187946552
  0
LINE
  8
_0-2_線色２__白__
  6
CONTINUOUS
 62
    7
 10
826.47387934142216
 20
948.75022978515631
 11
826.34599733359437
 21
948.61097688537598
  0
LINE
  8
_0-2_線色２__白__
  6
CONTINUOUS
 62
    7
 10
826.67916496769749
 20
949.00307224091534
 11
826.47387934142216
 21
948.75022978515631
  0
LINE
  8
_0-2_線色２__白__
  6
CONTINUOUS
 62
    7
 10
826.86777696609624
 20
949.26950376210129
 11
826.67916496769749
 21
949.00307224091534
  0
LINE
  8
_0-2_線色２__白__
  6
CONTINUOUS
 62
    7
 10
827.04270095348193
 20
949.54655719011839
 11
826.86777696609624
 21
949.26950376210129
  0
LINE
  8
_0-2_線色２__白__
  6
CONTINUOUS
 62
    7
 10
827.20692254670894
 20
949.83126536637087
 11
827.04270095348193
 21
949.54655719011839
  0
LINE
  8
_0-2_線色２__白__
  6
CONTINUOUS
 62
    7
 10
827.36342736264078
 20
950.12066113225842
 11
827.20692254670894
 21
949.83126536637087
  0
LINE
  8
_0-2_線色２__白__
  6
CONTINUOUS
 62
    7
 10
827.451840816816
 20
950.28948931526543
 11
827.36342736264078
 21
950.12066113225842
  0
LINE
  8
_0-2_線色２__白__
  6
CONTINUOUS
 62
    7
 10
827.51679881144582
 20
950.41492906476492
 11
827.451840816816
 21
950.28948931526543
  0
LINE
  8
_0-2_線色２__白__
  6
CONTINUOUS
 62
    7
 10
827.62792580364476
 20
950.63106890402082
 11
827.51679881144582
 21
950.41492906476492
  0
LINE
  8
_0-2_線色２__白__
  6
CONTINUOUS
 62
    7
 10
827.73861322750236
 20
950.8468324450007
 11
827.62792580364476
 21
950.63106890402082
  0
LINE
  8
_0-2_線色２__白__
  6
CONTINUOUS
 62
    7
 10
827.84962983674859
 20
951.06198170607627
 11
827.73861322750236
 21
950.8468324450007
  0
LINE
  8
_0-2_線色２__白__
  6
CONTINUOUS
 62
    7
 10
827.96174438511343
 20
951.27627870561241
 11
827.84962983674859
 21
951.06198170607627
  0
LINE
  8
_0-2_線色２__白__
  6
CONTINUOUS
 62
    7
 10
828.07572562632231
 20
951.48948546198085
 11
827.96174438511343
 21
951.27627870561241
  0
LINE
  8
_0-2_線色２__白__
  6
CONTINUOUS
 62
    7
 10
828.1429929938281
 20
951.61255205411749
 11
828.07572562632231
 21
951.48948546198085
  0
LINE
  8
_0-2_線色２__白__
  6
CONTINUOUS
 62
    7
 10
828.20688332068812
 20
951.72723085114626
 11
828.1429929938281
 21
951.61255205411749
  0
LINE
  8
_0-2_線色２__白__
  6
CONTINUOUS
 62
    7
 10
828.31983617425522
 20
951.92348484992976
 11
828.20688332068812
 21
951.72723085114626
  0
LINE
  8
_0-2_線色２__白__
  6
CONTINUOUS
 62
    7
 10
828.43733693842523
 20
952.11719401907317
 11
828.31983617425522
 21
951.92348484992976
  0
LINE
  8
_0-2_線色２__白__
  6
CONTINUOUS
 62
    7
 10
828.56055684041166
 20
952.30756008016101
 11
828.43733693842523
 21
952.11719401907317
  0
LINE
  8
_0-2_線色２__白__
  6
CONTINUOUS
 62
    7
 10
828.69066710743027
 20
952.49378475478238
 11
828.56055684041166
 21
952.30756008016101
  0
LINE
  8
_0-2_線色２__白__
  6
CONTINUOUS
 62
    7
 10
828.8288389666991
 20
952.67506976451727
 11
828.69066710743027
 21
952.49378475478238
  0
LINE
  8
_0-2_線色２__白__
  6
CONTINUOUS
 62
    7
 10
828.91313399107048
 20
952.77763715250899
 11
828.8288389666991
 21
952.67506976451727
  0
LINE
  8
_0-2_線色２__白__
  6
CONTINUOUS
 62
    7
 10
828.98857607105583
 20
952.86449085650588
 11
828.91313399107048
 21
952.77763715250899
  0
LINE
  8
_0-2_線色２__白__
  6
CONTINUOUS
 62
    7
 10
829.12448552426213
 20
953.00951268583617
 11
828.98857607105583
 21
952.86449085650588
  0
LINE
  8
_0-2_線色２__白__
  6
CONTINUOUS
 62
    7
 10
829.26777986462639
 20
953.14693009168309
 11
829.12448552426213
 21
953.00951268583617
  0
LINE
  8
_0-2_線色２__白__
  6
CONTINUOUS
 62
    7
 10
829.41845491104459
 20
953.27485676499805
 11
829.26777986462639
 21
953.14693009168309
  0
LINE
  8
_0-2_線色２__白__
  6
CONTINUOUS
 62
    7
 10
829.5765064824036
 20
953.39140639673019
 11
829.41845491104459
 21
953.27485676499805
  0
LINE
  8
_0-2_線色２__白__
  6
CONTINUOUS
 62
    7
 10
829.74193039759484
 20
953.49469267782865
 11
829.5765064824036
 21
953.39140639673019
  0
LINE
  8
_0-2_線色２__白__
  6
CONTINUOUS
 62
    7
 10
829.84125262877342
 20
953.54777814975137
 11
829.74193039759484
 21
953.49469267782865
  0
LINE
  8
_0-2_線色２__白__
  6
CONTINUOUS
 62
    7
 10
829.95179045489294
 20
953.59938809040955
 11
829.84125262877342
 21
953.54777814975137
  0
LINE
  8
_0-2_線色２__白__
  6
CONTINUOUS
 62
    7
 10
830.14828443049282
 20
953.67528762414281
 11
829.95179045489294
 21
953.59938809040955
  0
LINE
  8
_0-2_線色２__白__
  6
CONTINUOUS
 62
    7
 10
830.35083763034891
 20
953.73769579104078
 11
830.14828443049282
 21
953.67528762414281
  0
LINE
  8
_0-2_線色２__白__
  6
CONTINUOUS
 62
    7
 10
830.55779457961535
 20
953.79018183274525
 11
830.35083763034891
 21
953.73769579104078
  0
LINE
  8
_0-2_線色２__白__
  6
CONTINUOUS
 62
    7
 10
830.76749980345312
 20
953.83631499089347
 11
830.55779457961535
 21
953.79018183274525
  0
LINE
  8
_0-2_線色２__白__
  6
CONTINUOUS
 62
    7
 10
830.97829782701638
 20
953.87966450712952
 11
830.76749980345312
 21
953.83631499089347
  0
LINE
  8
_0-2_線色２__白__
  6
CONTINUOUS
 62
    7
 10
831.10040905834467
 20
953.90493822862595
 11
830.97829782701638
 21
953.87966450712952
  0
LINE
  8
_0-2_線色２__白__
  6
CONTINUOUS
 62
    7
 10
831.20797128388176
 20
953.92792001551356
 11
831.10040905834467
 21
953.90493822862595
  0
LINE
  8
_0-2_線色２__白__
  6
CONTINUOUS
 62
    7
 10
831.39269082180817
 20
953.9683640130886
 11
831.20797128388176
 21
953.92792001551356
  0
LINE
  8
_0-2_線色２__白__
  6
CONTINUOUS
 62
    7
 10
831.57679641783034
 20
954.00842167779615
 11
831.39269082180817
 21
953.9683640130886
  0
LINE
  8
_0-2_線色２__白__
  6
CONTINUOUS
 62
    7
 10
831.76065245368818
 20
954.04643650382354
 11
831.57679641783034
 21
954.00842167779615
  0
LINE
  8
_0-2_線色２__白__
  6
CONTINUOUS
 62
    7
 10
831.94462331112845
 20
954.08075198536267
 11
831.76065245368818
 21
954.04643650382354
  0
LINE
  8
_0-2_線色２__白__
  6
CONTINUOUS
 62
    7
 10
832.1290733718979
 20
954.10971161660314
 11
831.94462331112845
 21
954.08075198536267
  0
LINE
  8
_0-2_線色２__白__
  6
CONTINUOUS
 62
    7
 10
832.23641756346524
 20
954.12340140268839
 11
832.1290733718979
 21
954.10971161660314
  0
LINE
  8
_0-2_線色２__白__
  6
CONTINUOUS
 62
    7
 10
832.38296903969967
 20
954.13783801146906
 11
832.23641756346524
 21
954.12340140268839
  0
LINE
  8
_0-2_線色２__白__
  6
CONTINUOUS
 62
    7
 10
832.63693422669121
 20
954.15190715947006
 11
832.38296903969967
 21
954.13783801146906
  0
LINE
  8
_0-2_線色２__白__
  6
CONTINUOUS
 62
    7
 10
832.89215201612478
 20
954.15353686671892
 11
832.63693422669121
 21
954.15190715947006
  0
LINE
  8
_0-2_線色２__白__
  6
CONTINUOUS
 62
    7
 10
833.14817985275567
 20
954.14419077553134
 11
832.89215201612478
 21
954.15353686671892
  0
LINE
  8
_0-2_線色２__白__
  6
CONTINUOUS
 62
    7
 10
833.4045751813369
 20
954.12533252823209
 11
833.14817985275567
 21
954.14419077553134
  0
LINE
  8
_0-2_線色２__白__
  6
CONTINUOUS
 62
    7
 10
833.66089544662373
 20
954.09842576714368
 11
833.4045751813369
 21
954.12533252823209
  0
LINE
  8
_0-2_線色２__白__
  6
CONTINUOUS
 62
    7
 10
833.80935241670613
 20
954.07970876787545
 11
833.66089544662373
 21
954.09842576714368
  0
LINE
  8
_0-2_線色２__白__
  6
CONTINUOUS
 62
    7
 10
833.932121264736
 20
954.06265540184108
 11
833.80935241670613
 21
954.07970876787545
  0
LINE
  8
_0-2_線色２__白__
  6
CONTINUOUS
 62
    7
 10
834.14296430829154
 20
954.0293026862048
 11
833.932121264736
 21
954.06265540184108
  0
LINE
  8
_0-2_線色２__白__
  6
CONTINUOUS
 62
    7
 10
834.3521437000004
 20
953.98967809109649
 11
834.14296430829154
 21
954.0293026862048
  0
LINE
  8
_0-2_線色２__白__
  6
CONTINUOUS
 62
    7
 10
834.55894277680954
 20
953.94230321736472
 11
834.3521437000004
 21
953.98967809109649
  0
LINE
  8
_0-2_線色２__白__
  6
CONTINUOUS
 62
    7
 10
834.76264487566823
 20
953.88569966586715
 11
834.55894277680954
 21
953.94230321736472
  0
LINE
  8
_0-2_線色２__白__
  6
CONTINUOUS
 62
    7
 10
834.96253333352115
 20
953.81838903745461
 11
834.76264487566823
 21
953.88569966586715
  0
LINE
  8
_0-2_線色２__白__
  6
CONTINUOUS
 62
    7
 10
835.07643882626098
 20
953.7738603241894
 11
834.96253333352115
 21
953.81838903745461
  0
LINE
  8
_0-2_線色２__白__
  6
CONTINUOUS
 62
    7
 10
835.17783508742923
 20
953.72997805326918
 11
835.07643882626098
 21
953.7738603241894
  0
LINE
  8
_0-2_線色２__白__
  6
CONTINUOUS
 62
    7
 10
835.34943318503338
 20
953.64646987275933
 11
835.17783508742923
 21
953.72997805326918
  0
LINE
  8
_0-2_線色２__白__
  6
CONTINUOUS
 62
    7
 10
835.51689082706389
 20
953.55384947747211
 11
835.34943318503338
 21
953.64646987275933
  0
LINE
  8
_0-2_線色２__白__
  6
CONTINUOUS
 62
    7
 10
835.68013748429166
 20
953.45307424604584
 11
835.51689082706389
 21
953.55384947747211
  0
LINE
  8
_0-2_線色２__白__
  6
CONTINUOUS
 62
    7
 10
835.83910262748077
 20
953.34510155711428
 11
835.68013748429166
 21
953.45307424604584
  0
LINE
  8
_0-2_線色２__白__
  6
CONTINUOUS
 62
    7
 10
835.9937157274021
 20
953.23088878931344
 11
835.83910262748077
 21
953.34510155711428
  0
LINE
  8
_0-2_線色２__白__
  6
CONTINUOUS
 62
    7
 10
836.08136942694273
 20
953.16216343681731
 11
835.9937157274021
 21
953.23088878931344
  0
LINE
  8
_0-2_線色２__白__
  6
CONTINUOUS
 62
    7
 10
836.1785968685308
 20
953.08261362953658
 11
836.08136942694273
 21
953.16216343681731
  0
LINE
  8
_0-2_線色２__白__
  6
CONTINUOUS
 62
    7
 10
836.34212171191166
 20
952.94115037670849
 11
836.1785968685308
 21
953.08261362953658
  0
LINE
  8
_0-2_線色２__白__
  6
CONTINUOUS
 62
    7
 10
836.50103566801818
 20
952.7949236463121
 11
836.34212171191166
 21
952.94115037670849
  0
LINE
  8
_0-2_線色２__白__
  6
CONTINUOUS
 62
    7
 10
836.65602474752177
 20
952.64473600739279
 11
836.50103566801818
 21
952.7949236463121
  0
LINE
  8
_0-2_線色２__白__
  6
CONTINUOUS
 62
    7
 10
836.80777496109158
 20
952.49139002899142
 11
836.65602474752177
 21
952.64473600739279
  0
LINE
  8
_0-2_線色２__白__
  6
CONTINUOUS
 62
    7
 10
836.95697231939903
 20
952.33568828016018
 11
836.80777496109158
 21
952.49139002899142
  0
LINE
  8
_0-2_線色２__白__
  6
CONTINUOUS
 62
    7
 10
837.04260739281381
 20
952.24461810576145
 11
836.95697231939903
 21
952.33568828016018
  0
LINE
  8
_0-2_線色２__白__
  6
CONTINUOUS
 62
    7
 10
837.1239632907259
 20
952.1571950127543
 11
837.04260739281381
 21
952.24461810576145
  0
LINE
  8
_0-2_線色２__白__
  6
CONTINUOUS
 62
    7
 10
837.26301238603355
 20
952.005449769498
 11
837.1239632907259
 21
952.1571950127543
  0
LINE
  8
_0-2_線色２__白__
  6
CONTINUOUS
 62
    7
 10
837.40027628285816
 20
951.85206978241126
 11
837.26301238603355
 21
952.005449769498
  0
LINE
  8
_0-2_線色２__白__
  6
CONTINUOUS
 62
    7
 10
837.53547442098579
 20
951.69664928894576
 11
837.40027628285816
 21
951.85206978241126
  0
LINE
  8
_0-2_線色２__白__
  6
CONTINUOUS
 62
    7
 10
837.66832624020708
 20
951.53878252655545
 11
837.53547442098579
 21
951.69664928894576
  0
LINE
  8
_0-2_線色２__白__
  6
CONTINUOUS
 62
    7
 10
837.79855118031037
 20
951.378063732692
 11
837.66832624020708
 21
951.53878252655545
  0
LINE
  8
_0-2_線色２__白__
  6
CONTINUOUS
 62
    7
 10
837.87276745424606
 20
951.28338013989037
 11
837.79855118031037
 21
951.378063732692
  0
LINE
  8
_0-2_線色２__白__
  6
CONTINUOUS
 62
    7
 10
837.93497503392473
 20
951.20201229268673
 11
837.87276745424606
 21
951.28338013989037
  0
LINE
  8
_0-2_線色２__白__
  6
CONTINUOUS
 62
    7
 10
838.03967437224173
 20
951.05958311189056
 11
837.93497503392473
 21
951.20201229268673
  0
LINE
  8
_0-2_線色２__白__
  6
CONTINUOUS
 62
    7
 10
838.13992346938676
 20
950.9142220701176
 11
838.03967437224173
 21
951.05958311189056
  0
LINE
  8
_0-2_線色２__白__
  6
CONTINUOUS
 62
    7
 10
838.23430845853409
 20
950.76566955431758
 11
838.13992346938676
 21
950.9142220701176
  0
LINE
  8
_0-2_線色２__白__
  6
CONTINUOUS
 62
    7
 10
838.32141547286028
 20
950.61366595143568
 11
838.23430845853409
 21
950.76566955431758
  0
LINE
  8
_0-2_線色２__白__
  6
CONTINUOUS
 62
    7
 10
838.3998306455419
 20
950.45795164842389
 11
838.32141547286028
 21
950.61366595143568
  0
LINE
  8
_0-2_線色２__白__
  6
CONTINUOUS
 62
    7
 10
838.44077170680521
 20
950.36583480883223
 11
838.3998306455419
 21
950.45795164842389
  0
LINE
  8
_0-2_線色２__白__
  6
CONTINUOUS
 62
    7
 10
838.48799540509845
 20
950.24586970583982
 11
838.44077170680521
 21
950.36583480883223
  0
LINE
  8
_0-2_線色２__白__
  6
CONTINUOUS
 62
    7
 10
838.55691054808858
 20
950.03431677402091
 11
838.48799540509845
 21
950.24586970583982
  0
LINE
  8
_0-2_線色２__白__
  6
CONTINUOUS
 62
    7
 10
838.61249894561752
 20
949.81773736536411
 11
838.55691054808858
 21
950.03431677402091
  0
LINE
  8
_0-2_線色２__白__
  6
CONTINUOUS
 62
    7
 10
838.65767036744273
 20
949.5972289638928
 11
838.61249894561752
 21
949.81773736536411
  0
LINE
  8
_0-2_線色２__白__
  6
CONTINUOUS
 62
    7
 10
838.69533458330807
 20
949.37388905363491
 11
838.65767036744273
 21
949.5972289638928
  0
LINE
  8
_0-2_線色２__白__
  6
CONTINUOUS
 62
    7
 10
838.72840136296873
 20
949.14881511861608
 11
838.69533458330807
 21
949.37388905363491
  0
LINE
  8
_0-2_線色２__白__
  6
CONTINUOUS
 62
    7
 10
838.74662015049125
 20
949.01791017193432
 11
838.72840136296873
 21
949.14881511861608
  0
LINE
  8
_0-4_線色４__黄__
  6
CONTINUOUS
 62
    2
 10
832.7494880835593
 20
949.01791017193432
 11
832.7494880835593
 21
944.01791017193432
  0
LINE
  8
_0-2_線色２__白__
  6
CONTINUOUS
 62
    7
 10
959.53527467667982
 20
939.36676138500957
 11
977.53527467667936
 21
939.36676138500957
  0
LINE
  8
_0-2_線色２__白__
  6
CONTINUOUS
 62
    7
 10
977.53527467667936
 20
540.56676138501075
 11
977.53527467667936
 21
939.36676138500957
  0
LINE
  8
_0-d_断熱__ハッチ
  6
CONTINUOUS
 62
    4
 10
969.53161091219044
 20
540.56676138500848
 11
977.53527467668164
 21
548.57042514949967
  0
LINE
  8
_0-d_断熱__ハッチ
  6
CONTINUOUS
 62
    4
 10
960.735274676681
 20
542.37702686729904
 11
977.53527467668164
 21
559.17702686729967
  0
LINE
  8
_0-d_断熱__ハッチ
  6
CONTINUOUS
 62
    4
 10
960.73527467667873
 20
552.98362858509449
 11
977.53527467667936
 21
569.78362858509286
  0
LINE
  8
_0-d_断熱__ハッチ
  6
CONTINUOUS
 62
    4
 10
960.73527467667873
 20
563.59023030288768
 11
977.53527467668164
 21
580.39023030289059
  0
LINE
  8
_0-d_断熱__ハッチ
  6
CONTINUOUS
 62
    4
 10
960.73527467667873
 20
574.19683202068768
 11
977.53527467667936
 21
590.99683202069059
  0
LINE
  8
_0-d_断熱__ハッチ
  6
CONTINUOUS
 62
    4
 10
960.73527467667873
 20
584.80343373848768
 11
977.53527467668164
 21
601.60343373849059
  0
LINE
  8
_0-d_断熱__ハッチ
  6
CONTINUOUS
 62
    4
 10
960.735274676681
 20
595.41003545628996
 11
977.53527467668164
 21
612.2100354562906
  0
LINE
  8
_0-d_断熱__ハッチ
  6
CONTINUOUS
 62
    4
 10
960.735274676681
 20
606.01663717408542
 11
977.53527467667936
 21
622.81663717408605
  0
LINE
  8
_0-d_断熱__ハッチ
  6
CONTINUOUS
 62
    4
 10
960.735274676681
 20
616.62323889188087
 11
977.53527467668164
 21
633.42323889188151
  0
LINE
  8
_0-d_断熱__ハッチ
  6
CONTINUOUS
 62
    4
 10
960.735274676681
 20
627.22984060968088
 11
977.53527467668164
 21
644.02984060968151
  0
LINE
  8
_0-d_断熱__ハッチ
  6
CONTINUOUS
 62
    4
 10
960.73527467667873
 20
637.83644232748088
 11
977.53527467668164
 21
654.63644232748152
  0
LINE
  8
_0-d_断熱__ハッチ
  6
CONTINUOUS
 62
    4
 10
959.53527467668209
 20
647.24304404528198
 11
977.53527467668164
 21
665.24304404528152
  0
LINE
  8
_0-d_断熱__ハッチ
  6
CONTINUOUS
 62
    4
 10
959.53527467667982
 20
657.84964576307516
 11
977.53527467667936
 21
675.84964576307698
  0
LINE
  8
_0-d_断熱__ハッチ
  6
CONTINUOUS
 62
    4
 10
959.53527467668209
 20
668.45624748087289
 11
977.53527467668164
 21
686.45624748087243
  0
LINE
  8
_0-d_断熱__ハッチ
  6
CONTINUOUS
 62
    4
 10
959.53527467667982
 20
679.06284919867289
 11
977.53527467668164
 21
697.06284919867244
  0
LINE
  8
_0-d_断熱__ハッチ
  6
CONTINUOUS
 62
    4
 10
959.53527467667982
 20
689.66945091647062
 11
977.53527467668164
 21
707.66945091647244
  0
LINE
  8
_0-d_断熱__ハッチ
  6
CONTINUOUS
 62
    4
 10
959.53527467668209
 20
700.2760526342729
 11
977.53527467667936
 21
718.27605263427245
  0
LINE
  8
_0-d_断熱__ハッチ
  6
CONTINUOUS
 62
    4
 10
959.53527467667982
 20
710.88265435206836
 11
977.53527467667936
 21
728.8826543520679
  0
LINE
  8
_0-d_断熱__ハッチ
  6
CONTINUOUS
 62
    4
 10
959.53527467668209
 20
721.48925606986381
 11
977.53527467668164
 21
739.48925606986563
  0
LINE
  8
_0-d_断熱__ハッチ
  6
CONTINUOUS
 62
    4
 10
959.53527467667982
 20
732.09585778766382
 11
977.53527467668164
 21
750.09585778766336
  0
LINE
  8
_0-d_断熱__ハッチ
  6
CONTINUOUS
 62
    4
 10
959.53527467667982
 20
742.70245950546155
 11
977.53527467668164
 21
760.70245950546564
  0
LINE
  8
_0-d_断熱__ハッチ
  6
CONTINUOUS
 62
    4
 10
959.53527467668209
 20
753.30906122326383
 11
977.53527467668164
 21
771.30906122326337
  0
LINE
  8
_0-d_断熱__ハッチ
  6
CONTINUOUS
 62
    4
 10
959.53527467668209
 20
763.91566294105928
 11
977.53527467668164
 21
781.91566294105883
  0
LINE
  8
_0-d_断熱__ハッチ
  6
CONTINUOUS
 62
    4
 10
959.53527467668209
 20
774.52226465885474
 11
977.53527467668391
 21
792.52226465885656
  0
LINE
  8
_0-d_断熱__ハッチ
  6
CONTINUOUS
 62
    4
 10
959.53527467667982
 20
785.12886637665474
 11
977.53527467668164
 21
803.12886637665429
  0
LINE
  8
_0-d_断熱__ハッチ
  6
CONTINUOUS
 62
    4
 10
959.53527467667982
 20
795.73546809445247
 11
977.53527467668164
 21
813.73546809445429
  0
LINE
  8
_0-d_断熱__ハッチ
  6
CONTINUOUS
 62
    4
 10
959.53527467668209
 20
806.34206981225475
 11
977.53527467668164
 21
824.34206981225429
  0
LINE
  8
_0-d_断熱__ハッチ
  6
CONTINUOUS
 62
    4
 10
959.53527467668209
 20
816.94867153005021
 11
977.53527467668164
 21
834.94867153004975
  0
LINE
  8
_0-d_断熱__ハッチ
  6
CONTINUOUS
 62
    4
 10
959.53527467668209
 20
827.55527324784566
 11
977.53527467667936
 21
845.55527324784521
  0
LINE
  8
_0-d_断熱__ハッチ
  6
CONTINUOUS
 62
    4
 10
959.53527467667982
 20
838.16187496564567
 11
977.53527467668164
 21
856.16187496564748
  0
LINE
  8
_0-d_断熱__ハッチ
  6
CONTINUOUS
 62
    4
 10
959.53527467667982
 20
848.7684766834434
 11
977.53527467668164
 21
866.76847668344521
  0
LINE
  8
_0-d_断熱__ハッチ
  6
CONTINUOUS
 62
    4
 10
959.53527467668209
 20
859.37507840124567
 11
977.53527467668164
 21
877.37507840124522
  0
LINE
  8
_0-d_断熱__ハッチ
  6
CONTINUOUS
 62
    4
 10
959.53527467668209
 20
869.98168011904568
 11
977.53527467668164
 21
887.9816801190475
  0
LINE
  8
_0-d_断熱__ハッチ
  6
CONTINUOUS
 62
    4
 10
959.53527467668209
 20
880.58828183683659
 11
977.53527467668164
 21
898.58828183683613
  0
LINE
  8
_0-d_断熱__ハッチ
  6
CONTINUOUS
 62
    4
 10
959.53527467667982
 20
891.19488355463659
 11
977.53527467668391
 21
909.19488355463841
  0
LINE
  8
_0-d_断熱__ハッチ
  6
CONTINUOUS
 62
    4
 10
959.53527467667982
 20
901.80148527243432
 11
977.53527467668164
 21
919.80148527243614
  0
LINE
  8
_0-d_断熱__ハッチ
  6
CONTINUOUS
 62
    4
 10
959.53527467668209
 20
912.4080869902366
 11
977.53527467668164
 21
930.40808699023614
  0
LINE
  8
_0-d_断熱__ハッチ
  6
CONTINUOUS
 62
    4
 10
959.53527467667982
 20
923.0146887080366
 11
975.88734735365506
 21
939.36676138500957
  0
LINE
  8
_0-d_断熱__ハッチ
  6
CONTINUOUS
 62
    4
 10
959.53527467668209
 20
933.62129042582751
 11
965.28074563586188
 21
939.36676138500957
  0
LINE
  8
_0-2_線色２__白__
  6
CONTINUOUS
 62
    7
 10
1160.735274676681
 20
539.36676138500957
 11
1239.452544776675
 21
539.36676138500957
  0
LINE
  8
_0-d_断熱__ハッチ
  6
CONTINUOUS
 62
    4
 10
977.53527467668164
 20
549.26760548377047
 11
986.23611877544135
 21
540.56676138501075
  0
LINE
  8
_0-5_金属
  6
CONTINUOUS
 62
    7
 10
959.53527467667982
 20
893.6667613850102
 11
959.53527467667982
 21
635.06676138500893
  0
LINE
  8
_0-2_線色２__白__
  6
CONTINUOUS
 62
    7
 10
1035.834666114738
 20
580.23140204851984
 11
1036.8496790675522
 21
579.36676138500957
  0
LINE
  8
_0-4_線色４__黄__
  6
CONTINUOUS
 62
    2
 10
1036.4801981880919
 20
592.81791017193541
 11
1040.531546764048
 21
589.36676138500957
  0
LINE
  8
_0-4_線色４__黄__
  6
CONTINUOUS
 62
    2
 10
989.19458807130695
 20
592.81791017193541
 11
1036.4801981880919
 21
592.81791017193541
  0
LINE
  8
_0-4_線色４__黄__
  6
CONTINUOUS
 62
    2
 10
986.24016481227045
 20
595.29696563893481
 11
985.86717157561679
 21
597.41231540080548
  0
ARC
  8
_0-4_線色４__黄__
  6
CONTINUOUS
 62
    2
 10
989.19458807130695
 20
595.81791017193495
 40
3.0000000000000004
 50
190.00000000000517
 51
270
  0
ARC
  8
_0-2_線色２__白__
  6
CONTINUOUS
 62
    7
 10
989.19458807130695
 20
595.81791017193495
 40
8
 50
190.00000000000517
 51
270
  0
LINE
  8
_0-2_線色２__白__
  6
CONTINUOUS
 62
    7
 10
1040.531546764048
 20
589.36676138500957
 11
1040.5497655515705
 21
589.49766633169133
  0
LINE
  8
_0-2_線色２__白__
  6
CONTINUOUS
 62
    7
 10
1040.5497655515705
 20
589.49766633169133
 11
1040.5828323312312
 21
589.72274026671016
  0
LINE
  8
_0-2_線色２__白__
  6
CONTINUOUS
 62
    7
 10
1040.5828323312312
 20
589.72274026671016
 11
1040.6204965470965
 21
589.94608017696805
  0
LINE
  8
_0-2_線色２__白__
  6
CONTINUOUS
 62
    7
 10
1040.6204965470965
 20
589.94608017696805
 11
1040.6656679689218
 21
590.16658857843936
  0
LINE
  8
_0-2_線色２__白__
  6
CONTINUOUS
 62
    7
 10
1040.6656679689218
 20
590.16658857843936
 11
1040.7212563664507
 21
590.38316798709616
  0
LINE
  8
_0-2_線色２__白__
  6
CONTINUOUS
 62
    7
 10
1040.7212563664507
 20
590.38316798709616
 11
1040.7901715094408
 21
590.59472091891735
  0
LINE
  8
_0-2_線色２__白__
  6
CONTINUOUS
 62
    7
 10
1040.7901715094408
 20
590.59472091891735
 11
1040.8373952077341
 21
590.71468602190976
  0
LINE
  8
_0-2_線色２__白__
  6
CONTINUOUS
 62
    7
 10
1040.8373952077341
 20
590.71468602190976
 11
1040.8783362689974
 21
590.80680286149914
  0
LINE
  8
_0-2_線色２__白__
  6
CONTINUOUS
 62
    7
 10
1040.8783362689974
 20
590.80680286149914
 11
1040.956751441679
 21
590.9625171645132
  0
LINE
  8
_0-2_線色２__白__
  6
CONTINUOUS
 62
    7
 10
1040.956751441679
 20
590.9625171645132
 11
1041.0438584560052
 21
591.11452076739283
  0
LINE
  8
_0-2_線色２__白__
  6
CONTINUOUS
 62
    7
 10
1041.0438584560052
 20
591.11452076739283
 11
1041.1382434451525
 21
591.26307328319285
  0
LINE
  8
_0-2_線色２__白__
  6
CONTINUOUS
 62
    7
 10
1041.1382434451525
 20
591.26307328319285
 11
1041.2384925422975
 21
591.40843432496581
  0
LINE
  8
_0-2_線色２__白__
  6
CONTINUOUS
 62
    7
 10
1041.2384925422975
 20
591.40843432496581
 11
1041.3431918806145
 21
591.55086350576198
  0
LINE
  8
_0-2_線色２__白__
  6
CONTINUOUS
 62
    7
 10
1041.3431918806145
 20
591.55086350576198
 11
1041.4053994602932
 21
591.63223135296562
  0
LINE
  8
_0-2_線色２__白__
  6
CONTINUOUS
 62
    7
 10
1041.4053994602932
 20
591.63223135296562
 11
1041.4796157342289
 21
591.72691494576952
  0
LINE
  8
_0-2_線色２__白__
  6
CONTINUOUS
 62
    7
 10
1041.4796157342289
 20
591.72691494576952
 11
1041.6098406743322
 21
591.8876337396307
  0
LINE
  8
_0-2_線色２__白__
  6
CONTINUOUS
 62
    7
 10
1041.6098406743322
 20
591.8876337396307
 11
1041.7426924935535
 21
592.04550050202101
  0
LINE
  8
_0-2_線色２__白__
  6
CONTINUOUS
 62
    7
 10
1041.7426924935535
 20
592.04550050202101
 11
1041.8778906316811
 21
592.20092099548651
  0
LINE
  8
_0-2_線色２__白__
  6
CONTINUOUS
 62
    7
 10
1041.8778906316811
 20
592.20092099548651
 11
1042.0151545285057
 21
592.35430098257552
  0
LINE
  8
_0-2_線色２__白__
  6
CONTINUOUS
 62
    7
 10
1042.0151545285057
 20
592.35430098257552
 11
1042.1542036238134
 21
592.50604622582955
  0
LINE
  8
_0-2_線色２__白__
  6
CONTINUOUS
 62
    7
 10
1042.1542036238134
 20
592.50604622582955
 11
1042.2355595217255
 21
592.5934693188367
  0
LINE
  8
_0-2_線色２__白__
  6
CONTINUOUS
 62
    7
 10
1042.2355595217255
 20
592.5934693188367
 11
1042.3211945951402
 21
592.68453949323543
  0
LINE
  8
_0-2_線色２__白__
  6
CONTINUOUS
 62
    7
 10
1042.3211945951402
 20
592.68453949323543
 11
1042.4703919534477
 21
592.84024124206667
  0
LINE
  8
_0-2_線色２__白__
  6
CONTINUOUS
 62
    7
 10
1042.4703919534477
 20
592.84024124206667
 11
1042.6221421670175
 21
592.99358722046804
  0
LINE
  8
_0-2_線色２__白__
  6
CONTINUOUS
 62
    7
 10
1042.6221421670175
 20
592.99358722046804
 11
1042.7771312465211
 21
593.14377485938735
  0
LINE
  8
_0-2_線色２__白__
  6
CONTINUOUS
 62
    7
 10
1042.7771312465211
 20
593.14377485938735
 11
1042.9360452026276
 21
593.29000158978602
  0
LINE
  8
_0-2_線色２__白__
  6
CONTINUOUS
 62
    7
 10
1042.9360452026276
 20
593.29000158978602
 11
1043.0995700460085
 21
593.4314648426141
  0
LINE
  8
_0-2_線色２__白__
  6
CONTINUOUS
 62
    7
 10
1043.0995700460085
 20
593.4314648426141
 11
1043.1967974875965
 21
593.51101464989483
  0
LINE
  8
_0-2_線色２__白__
  6
CONTINUOUS
 62
    7
 10
1043.1967974875965
 20
593.51101464989483
 11
1043.2844511871372
 21
593.57974000239096
  0
LINE
  8
_0-2_線色２__白__
  6
CONTINUOUS
 62
    7
 10
1043.2844511871372
 20
593.57974000239096
 11
1043.4390642870585
 21
593.69395277018953
  0
LINE
  8
_0-2_線色２__白__
  6
CONTINUOUS
 62
    7
 10
1043.4390642870585
 20
593.69395277018953
 11
1043.5980294302476
 21
593.80192545912109
  0
LINE
  8
_0-2_線色２__白__
  6
CONTINUOUS
 62
    7
 10
1043.5980294302476
 20
593.80192545912109
 11
1043.7612760874754
 21
593.90270069054736
  0
LINE
  8
_0-2_線色２__白__
  6
CONTINUOUS
 62
    7
 10
1043.7612760874754
 20
593.90270069054736
 11
1043.9287337295059
 21
593.99532108583458
  0
LINE
  8
_0-2_線色２__白__
  6
CONTINUOUS
 62
    7
 10
1043.9287337295059
 20
593.99532108583458
 11
1044.10033182711
 21
594.07882926634443
  0
LINE
  8
_0-2_線色２__白__
  6
CONTINUOUS
 62
    7
 10
1044.10033182711
 20
594.07882926634443
 11
1044.2017280882783
 21
594.12271153726465
  0
LINE
  8
_0-2_線色２__白__
  6
CONTINUOUS
 62
    7
 10
1044.2017280882783
 20
594.12271153726465
 11
1044.3156335810181
 21
594.16724025052986
  0
LINE
  8
_0-2_線色２__白__
  6
CONTINUOUS
 62
    7
 10
1044.3156335810181
 20
594.16724025052986
 11
1044.515522038871
 21
594.2345508789424
  0
LINE
  8
_0-2_線色２__白__
  6
CONTINUOUS
 62
    7
 10
1044.515522038871
 20
594.2345508789424
 11
1044.7192241377297
 21
594.29115443044225
  0
LINE
  8
_0-2_線色２__白__
  6
CONTINUOUS
 62
    7
 10
1044.7192241377297
 20
594.29115443044225
 11
1044.9260232145389
 21
594.33852930417174
  0
LINE
  8
_0-2_線色２__白__
  6
CONTINUOUS
 62
    7
 10
1044.9260232145389
 20
594.33852930417174
 11
1045.1352026062477
 21
594.37815389928005
  0
LINE
  8
_0-2_線色２__白__
  6
CONTINUOUS
 62
    7
 10
1045.1352026062477
 20
594.37815389928005
 11
1045.3460456498033
 21
594.41150661491633
  0
LINE
  8
_0-2_線色２__白__
  6
CONTINUOUS
 62
    7
 10
1045.3460456498033
 20
594.41150661491633
 11
1045.4688144978331
 21
594.42855998095069
  0
LINE
  8
_0-2_線色２__白__
  6
CONTINUOUS
 62
    7
 10
1045.4688144978331
 20
594.42855998095069
 11
1045.6172714679178
 21
594.44727698021893
  0
LINE
  8
_0-2_線色２__白__
  6
CONTINUOUS
 62
    7
 10
1045.6172714679178
 20
594.44727698021893
 11
1045.8735917332024
 21
594.47418374130734
  0
LINE
  8
_0-2_線色２__白__
  6
CONTINUOUS
 62
    7
 10
1045.8735917332024
 20
594.47418374130734
 11
1046.1299870617836
 21
594.49304198860659
  0
LINE
  8
_0-2_線色２__白__
  6
CONTINUOUS
 62
    7
 10
1046.1299870617836
 20
594.49304198860659
 11
1046.3860148984145
 21
594.50238807979417
  0
LINE
  8
_0-2_線色２__白__
  6
CONTINUOUS
 62
    7
 10
1046.3860148984145
 20
594.50238807979417
 11
1046.6412326878481
 21
594.50075837254758
  0
LINE
  8
_0-2_線色２__白__
  6
CONTINUOUS
 62
    7
 10
1046.6412326878481
 20
594.50075837254758
 11
1046.8951978748396
 21
594.48668922454431
  0
LINE
  8
_0-2_線色２__白__
  6
CONTINUOUS
 62
    7
 10
1046.8951978748396
 20
594.48668922454431
 11
1047.0417493510763
 21
594.47225261576364
  0
LINE
  8
_0-2_線色２__白__
  6
CONTINUOUS
 62
    7
 10
1047.0417493510763
 20
594.47225261576364
 11
1047.1490935426414
 21
594.45856282967839
  0
LINE
  8
_0-2_線色２__白__
  6
CONTINUOUS
 62
    7
 10
1047.1490935426414
 20
594.45856282967839
 11
1047.3335436034108
 21
594.42960319843792
  0
LINE
  8
_0-2_線色２__白__
  6
CONTINUOUS
 62
    7
 10
1047.3335436034108
 20
594.42960319843792
 11
1047.5175144608511
 21
594.39528771689879
  0
LINE
  8
_0-2_線色２__白__
  6
CONTINUOUS
 62
    7
 10
1047.5175144608511
 20
594.39528771689879
 11
1047.7013704967089
 21
594.3572728908714
  0
LINE
  8
_0-2_線色２__白__
  6
CONTINUOUS
 62
    7
 10
1047.7013704967089
 20
594.3572728908714
 11
1047.8854760927311
 21
594.31721522616613
  0
LINE
  8
_0-2_線色２__白__
  6
CONTINUOUS
 62
    7
 10
1047.8854760927311
 20
594.31721522616613
 11
1048.0701956306575
 21
594.27677122858881
  0
LINE
  8
_0-2_線色２__白__
  6
CONTINUOUS
 62
    7
 10
1048.0701956306575
 20
594.27677122858881
 11
1048.1777578561946
 21
594.25378944170347
  0
LINE
  8
_0-2_線色２__白__
  6
CONTINUOUS
 62
    7
 10
1048.1777578561946
 20
594.25378944170347
 11
1048.2998690875229
 21
594.22851572020477
  0
LINE
  8
_0-2_線色２__白__
  6
CONTINUOUS
 62
    7
 10
1048.2998690875229
 20
594.22851572020477
 11
1048.5106671110861
 21
594.18516620396872
  0
LINE
  8
_0-2_線色２__白__
  6
CONTINUOUS
 62
    7
 10
1048.5106671110861
 20
594.18516620396872
 11
1048.7203723349239
 21
594.1390330458205
  0
LINE
  8
_0-2_線色２__白__
  6
CONTINUOUS
 62
    7
 10
1048.7203723349239
 20
594.1390330458205
 11
1048.9273292841904
 21
594.08654700411603
  0
LINE
  8
_0-2_線色２__白__
  6
CONTINUOUS
 62
    7
 10
1048.9273292841904
 20
594.08654700411603
 11
1049.1298824840464
 21
594.02413883721806
  0
LINE
  8
_0-2_線色２__白__
  6
CONTINUOUS
 62
    7
 10
1049.1298824840464
 20
594.02413883721806
 11
1049.3263764596463
 21
593.9482393034848
  0
LINE
  8
_0-2_線色２__白__
  6
CONTINUOUS
 62
    7
 10
1049.3263764596463
 20
593.9482393034848
 11
1049.4369142857659
 21
593.89662936282662
  0
LINE
  8
_0-2_線色２__白__
  6
CONTINUOUS
 62
    7
 10
1049.4369142857659
 20
593.89662936282662
 11
1049.5362365169444
 21
593.8435438909039
  0
LINE
  8
_0-2_線色２__白__
  6
CONTINUOUS
 62
    7
 10
1049.5362365169444
 20
593.8435438909039
 11
1049.7016604321357
 21
593.74025760980544
  0
LINE
  8
_0-2_線色２__白__
  6
CONTINUOUS
 62
    7
 10
1049.7016604321357
 20
593.74025760980544
 11
1049.8597120034947
 21
593.6237079780733
  0
LINE
  8
_0-2_線色２__白__
  6
CONTINUOUS
 62
    7
 10
1049.8597120034947
 20
593.6237079780733
 11
1050.0103870499129
 21
593.49578130475834
  0
LINE
  8
_0-2_線色２__白__
  6
CONTINUOUS
 62
    7
 10
1050.0103870499129
 20
593.49578130475834
 11
1050.1536813902771
 21
593.35836389891142
  0
LINE
  8
_0-2_線色２__白__
  6
CONTINUOUS
 62
    7
 10
1050.1536813902771
 20
593.35836389891142
 11
1050.2895908434834
 21
593.21334206958113
  0
LINE
  8
_0-2_線色２__白__
  6
CONTINUOUS
 62
    7
 10
1050.2895908434834
 20
593.21334206958113
 11
1050.3650329234688
 21
593.12648836558424
  0
LINE
  8
_0-2_線色２__白__
  6
CONTINUOUS
 62
    7
 10
1050.3650329234688
 20
593.12648836558424
 11
1050.4493279478402
 21
593.0239209775948
  0
LINE
  8
_0-2_線色２__白__
  6
CONTINUOUS
 62
    7
 10
1050.4493279478402
 20
593.0239209775948
 11
1050.587499807109
 21
592.84263596785763
  0
LINE
  8
_0-2_線色２__白__
  6
CONTINUOUS
 62
    7
 10
1050.587499807109
 20
592.84263596785763
 11
1050.7176100741276
 21
592.65641129323626
  0
LINE
  8
_0-2_線色２__白__
  6
CONTINUOUS
 62
    7
 10
1050.7176100741276
 20
592.65641129323626
 11
1050.840829976114
 21
592.46604523214842
  0
LINE
  8
_0-2_線色２__白__
  6
CONTINUOUS
 62
    7
 10
1050.840829976114
 20
592.46604523214842
 11
1050.9583307402841
 21
592.27233606300501
  0
LINE
  8
_0-2_線色２__白__
  6
CONTINUOUS
 62
    7
 10
1050.9583307402841
 20
592.27233606300501
 11
1051.0712835938511
 21
592.07608206422151
  0
LINE
  8
_0-2_線色２__白__
  6
CONTINUOUS
 62
    7
 10
1051.0712835938511
 20
592.07608206422151
 11
1051.1351739207112
 21
591.96140326719274
  0
LINE
  8
_0-2_線色２__白__
  6
CONTINUOUS
 62
    7
 10
1051.1351739207112
 20
591.96140326719274
 11
1051.202441288217
 21
591.8383366750561
  0
LINE
  8
_0-2_線色２__白__
  6
CONTINUOUS
 62
    7
 10
1051.202441288217
 20
591.8383366750561
 11
1051.3164225294258
 21
591.62512991868766
  0
LINE
  8
_0-2_線色２__白__
  6
CONTINUOUS
 62
    7
 10
1051.3164225294258
 20
591.62512991868766
 11
1051.4285370777907
 21
591.41083291915152
  0
LINE
  8
_0-2_線色２__白__
  6
CONTINUOUS
 62
    7
 10
1051.4285370777907
 20
591.41083291915152
 11
1051.5395536870369
 21
591.19568365807822
  0
LINE
  8
_0-2_線色２__白__
  6
CONTINUOUS
 62
    7
 10
1051.5395536870369
 20
591.19568365807822
 11
1051.6502411108968
 21
590.97992011709607
  0
LINE
  8
_0-2_線色２__白__
  6
CONTINUOUS
 62
    7
 10
1051.6502411108968
 20
590.97992011709607
 11
1051.7613681030934
 21
590.76378027784017
  0
LINE
  8
_0-2_線色２__白__
  6
CONTINUOUS
 62
    7
 10
1051.7613681030934
 20
590.76378027784017
 11
1051.8263260977233
 21
590.63834052834068
  0
LINE
  8
_0-2_線色２__白__
  6
CONTINUOUS
 62
    7
 10
1051.8263260977233
 20
590.63834052834068
 11
1051.9147395519008
 21
590.46951234533367
  0
LINE
  8
_0-2_線色２__白__
  6
CONTINUOUS
 62
    7
 10
1051.9147395519008
 20
590.46951234533367
 11
1052.0712443678303
 21
590.18011657944612
  0
LINE
  8
_0-2_線色２__白__
  6
CONTINUOUS
 62
    7
 10
1052.0712443678303
 20
590.18011657944612
 11
1052.2354659610573
 21
589.89540840319592
  0
LINE
  8
_0-2_線色２__白__
  6
CONTINUOUS
 62
    7
 10
1052.2354659610573
 20
589.89540840319592
 11
1052.410389948443
 21
589.61835497517654
  0
LINE
  8
_0-2_線色２__白__
  6
CONTINUOUS
 62
    7
 10
1052.410389948443
 20
589.61835497517654
 11
1052.5990019468418
 21
589.35192345399059
  0
LINE
  8
_0-2_線色２__白__
  6
CONTINUOUS
 62
    7
 10
1052.5990019468418
 20
589.35192345399059
 11
1052.8042875731171
 21
589.09908099823383
  0
LINE
  8
_0-2_線色２__白__
  6
CONTINUOUS
 62
    7
 10
1052.8042875731171
 20
589.09908099823383
 11
1052.9321695809449
 21
588.95982809845123
  0
LINE
  8
_0-2_線色２__白__
  6
CONTINUOUS
 62
    7
 10
1052.9321695809449
 20
588.95982809845123
 11
1052.9783847532485
 21
588.91272309254305
  0
LINE
  8
_0-2_線色２__白__
  6
CONTINUOUS
 62
    7
 10
1052.9783847532485
 20
588.91272309254305
 11
1053.0600840147895
 21
588.8333779975062
  0
LINE
  8
_0-2_線色２__白__
  6
CONTINUOUS
 62
    7
 10
1053.0600840147895
 20
588.8333779975062
 11
1053.1442864071187
 21
588.75657788806507
  0
LINE
  8
_0-2_線色２__白__
  6
CONTINUOUS
 62
    7
 10
1053.1442864071187
 20
588.75657788806507
 11
1053.2309323826144
 21
588.68252898473997
  0
LINE
  8
_0-2_線色２__白__
  6
CONTINUOUS
 62
    7
 10
1053.2309323826144
 20
588.68252898473997
 11
1053.3199623936503
 21
588.61143750804899
  0
LINE
  8
_0-2_線色２__白__
  6
CONTINUOUS
 62
    7
 10
1053.3199623936503
 20
588.61143750804899
 11
1053.4113168926024
 21
588.54350967851929
  0
LINE
  8
_0-2_線色２__白__
  6
CONTINUOUS
 62
    7
 10
1053.4113168926024
 20
588.54350967851929
 11
1053.4653441174964
 21
588.50564238212996
  0
LINE
  8
_0-2_線色２__白__
  6
CONTINUOUS
 62
    7
 10
1053.4653441174964
 20
588.50564238212996
 11
1053.5549455285854
 21
588.44634969175218
  0
LINE
  8
_0-2_線色２__白__
  6
CONTINUOUS
 62
    7
 10
1053.5549455285854
 20
588.44634969175218
 11
1053.7131369727558
 21
588.34993642755649
  0
LINE
  8
_0-2_線色２__白__
  6
CONTINUOUS
 62
    7
 10
1053.7131369727558
 20
588.34993642755649
 11
1053.8745482597869
 21
588.25860801848535
  0
LINE
  8
_0-2_線色２__白__
  6
CONTINUOUS
 62
    7
 10
1053.8745482597869
 20
588.25860801848535
 11
1054.0374682080801
 21
588.16971731003491
  0
LINE
  8
_0-2_線色２__白__
  6
CONTINUOUS
 62
    7
 10
1054.0374682080801
 20
588.16971731003491
 11
1054.2001856360343
 21
588.08061714769906
  0
LINE
  8
_0-2_線色２__白__
  6
CONTINUOUS
 62
    7
 10
1054.2001856360343
 20
588.08061714769906
 11
1054.3609893620464
 21
587.98866037697394
  0
LINE
  8
_0-2_線色２__白__
  6
CONTINUOUS
 62
    7
 10
1054.3609893620464
 20
587.98866037697394
 11
1054.4527043703715
 21
587.93297343546215
  0
LINE
  8
_0-2_線色２__白__
  6
CONTINUOUS
 62
    7
 10
1054.4527043703715
 20
587.93297343546215
 11
1054.545115362771
 21
587.8736086655897
  0
LINE
  8
_0-2_線色２__白__
  6
CONTINUOUS
 62
    7
 10
1054.545115362771
 20
587.8736086655897
 11
1054.7010583649239
 21
587.76610690382199
  0
LINE
  8
_0-2_線色２__白__
  6
CONTINUOUS
 62
    7
 10
1054.7010583649239
 20
587.76610690382199
 11
1054.8533809071455
 21
587.65312371385221
  0
LINE
  8
_0-2_線色２__白__
  6
CONTINUOUS
 62
    7
 10
1054.8533809071455
 20
587.65312371385221
 11
1055.0028573958821
 21
587.53586366145896
  0
LINE
  8
_0-2_線色２__白__
  6
CONTINUOUS
 62
    7
 10
1055.0028573958821
 20
587.53586366145896
 11
1055.1502622375756
 21
587.41553131240948
  0
LINE
  8
_0-2_線色２__白__
  6
CONTINUOUS
 62
    7
 10
1055.1502622375756
 20
587.41553131240948
 11
1055.2963698386702
 21
587.29333123248466
  0
LINE
  8
_0-2_線色２__白__
  6
CONTINUOUS
 62
    7
 10
1055.2963698386702
 20
587.29333123248466
 11
1055.3808230080745
 21
587.22207405339191
  0
LINE
  8
_0-2_線色２__白__
  6
CONTINUOUS
 62
    7
 10
1055.3808230080745
 20
587.22207405339191
 11
1055.4866648716916
 21
587.1325934694903
  0
LINE
  8
_0-2_線色２__白__
  6
CONTINUOUS
 62
    7
 10
1055.4866648716916
 20
587.1325934694903
 11
1055.6682376500021
 21
586.97751041569632
  0
LINE
  8
_0-2_線色２__白__
  6
CONTINUOUS
 62
    7
 10
1055.6682376500021
 20
586.97751041569632
 11
1055.8474123026281
 21
586.82012124745484
  0
LINE
  8
_0-2_線色２__白__
  6
CONTINUOUS
 62
    7
 10
1055.8474123026281
 20
586.82012124745484
 11
1056.0227444288512
 21
586.65893104952943
  0
LINE
  8
_0-2_線色２__白__
  6
CONTINUOUS
 62
    7
 10
1056.0227444288512
 20
586.65893104952943
 11
1056.1927896279622
 21
586.49244490667911
  0
LINE
  8
_0-2_線色２__白__
  6
CONTINUOUS
 62
    7
 10
1056.1927896279622
 20
586.49244490667911
 11
1056.3561034992404
 21
586.31916790366972
  0
LINE
  8
_0-2_線色２__白__
  6
CONTINUOUS
 62
    7
 10
1056.3561034992404
 20
586.31916790366972
 11
1056.4471720811798
 21
586.21496659545869
  0
LINE
  8
_0-2_線色２__白__
  6
CONTINUOUS
 62
    7
 10
1056.4471720811798
 20
586.21496659545869
 11
1056.4988313538174
 21
586.15287931993521
  0
LINE
  8
_0-2_線色２__白__
  6
CONTINUOUS
 62
    7
 10
1056.4988313538174
 20
586.15287931993521
 11
1056.5851564641207
 21
586.04340658009846
  0
LINE
  8
_0-2_線色２__白__
  6
CONTINUOUS
 62
    7
 10
1056.5851564641207
 20
586.04340658009846
 11
1056.6675163362538
 21
585.93090532233987
  0
LINE
  8
_0-2_線色２__白__
  6
CONTINUOUS
 62
    7
 10
1056.6675163362538
 20
585.93090532233987
 11
1056.7453370269982
 21
585.81542438962856
  0
LINE
  8
_0-2_線色２__白__
  6
CONTINUOUS
 62
    7
 10
1056.7453370269982
 20
585.81542438962856
 11
1056.8180445931444
 21
585.69701262493595
  0
LINE
  8
_0-2_線色２__白__
  6
CONTINUOUS
 62
    7
 10
1056.8180445931444
 20
585.69701262493595
 11
1056.8850650914737
 21
585.57571887123117
  0
LINE
  8
_0-2_線色２__白__
  6
CONTINUOUS
 62
    7
 10
1056.8850650914737
 20
585.57571887123117
 11
1056.9211050025592
 21
585.50406721338845
  0
LINE
  8
_0-2_線色２__白__
  6
CONTINUOUS
 62
    7
 10
1056.9211050025592
 20
585.50406721338845
 11
1056.9677568559177
 21
585.40259132233928
  0
LINE
  8
_0-2_線色２__白__
  6
CONTINUOUS
 62
    7
 10
1056.9677568559177
 20
585.40259132233928
 11
1057.0392436142674
 21
585.2238269432894
  0
LINE
  8
_0-2_線色２__白__
  6
CONTINUOUS
 62
    7
 10
1057.0392436142674
 20
585.2238269432894
 11
1057.1011949528906
 21
585.04100652514012
  0
LINE
  8
_0-2_線色２__白__
  6
CONTINUOUS
 62
    7
 10
1057.1011949528906
 20
585.04100652514012
 11
1057.155692841161
 21
584.85501566594962
  0
LINE
  8
_0-2_線色２__白__
  6
CONTINUOUS
 62
    7
 10
1057.155692841161
 20
584.85501566594962
 11
1057.2048192484476
 21
584.66673996377608
  0
LINE
  8
_0-2_線色２__白__
  6
CONTINUOUS
 62
    7
 10
1057.2048192484476
 20
584.66673996377608
 11
1057.2506561441242
 21
584.47706501667085
  0
LINE
  8
_0-2_線色２__白__
  6
CONTINUOUS
 62
    7
 10
1057.2506561441242
 20
584.47706501667085
 11
1057.2765546935943
 21
584.36676138500957
  0
LINE
  8
_0-4_線色４__黄__
  6
CONTINUOUS
 62
    2
 10
1040.531546764048
 20
589.36676138500957
 11
1046.52867883098
 21
589.36676138500957
  0
LINE
  8
_0-2_線色２__白__
  6
CONTINUOUS
 62
    7
 10
990.91532260602662
 20
587.81791017193541
 11
990.91532260602662
 21
582.81791017193541
  0
LINE
  8
_0-2_線色２__白__
  6
CONTINUOUS
 62
    7
 10
989.19458807130695
 20
587.81791017193541
 11
1034.639264339844
 21
587.81791017193541
  0
LINE
  8
_0-2_線色２__白__
  6
CONTINUOUS
 62
    7
 10
1034.639264339844
 20
587.81791017193541
 11
1038.6906129158001
 21
584.36676138500957
  0
LINE
  8
_0-2_線色２__白__
  6
CONTINUOUS
 62
    7
 10
1038.6906129158001
 20
584.36676138500957
 11
1046.52867883098
 21
584.36676138500957
  0
LINE
  8
_0-4_線色４__黄__
  6
CONTINUOUS
 62
    2
 10
1046.52867883098
 20
589.36676138500957
 11
1046.52867883098
 21
584.36676138500957
  0
LINE
  8
_0-d_断熱__ハッチ
  6
CONTINUOUS
 62
    4
 10
977.53527467667936
 20
573.69882823102103
 11
978.20320783067018
 21
574.36676138500957
  0
LINE
  8
_0-d_断熱__ハッチ
  6
CONTINUOUS
 62
    4
 10
1169.4773778103718
 20
539.36676138501412
 11
1204.4773778103672
 21
574.36676138500957
  0
LINE
  8
_0-d_断熱__ハッチ
  6
CONTINUOUS
 62
    4
 10
1142.3931065629108
 20
540.56676138501075
 11
1176.1931065629096
 21
574.36676138500957
  0
LINE
  8
_0-d_断熱__ハッチ
  6
CONTINUOUS
 62
    4
 10
1114.1088353154441
 20
540.56676138501075
 11
1147.908835315443
 21
574.36676138500957
  0
LINE
  8
_0-d_断熱__ハッチ
  6
CONTINUOUS
 62
    4
 10
1085.8245640679866
 20
540.56676138501075
 11
1119.6245640679854
 21
574.36676138500957
  0
LINE
  8
_0-d_断熱__ハッチ
  6
CONTINUOUS
 62
    4
 10
1057.5402928205199
 20
540.56676138501075
 11
1091.3402928205187
 21
574.36676138500957
  0
LINE
  8
_0-d_断熱__ハッチ
  6
CONTINUOUS
 62
    4
 10
1029.2560215730623
 20
540.56676138501075
 11
1063.0560215730611
 21
574.36676138500957
  0
LINE
  8
_0-d_断熱__ハッチ
  6
CONTINUOUS
 62
    4
 10
1000.9717503255979
 20
540.56676138501302
 11
1034.7717503255944
 21
574.36676138500957
  0
LINE
  8
_0-d_断熱__ハッチ
  6
CONTINUOUS
 62
    4
 10
977.53527467667936
 20
545.41455698355435
 11
1006.4874790781369
 21
574.36676138500957
  0
LINE
  8
_0-d_断熱__ハッチ
  6
CONTINUOUS
 62
    4
 10
1009.0046612703645
 20
574.36676138500957
 11
1042.8046612703656
 21
540.56676138501075
  0
LINE
  8
_0-d_断熱__ハッチ
  6
CONTINUOUS
 62
    4
 10
1037.2889325178312
 20
574.36676138500957
 11
1071.0889325178323
 21
540.56676138501075
  0
LINE
  8
_0-d_断熱__ハッチ
  6
CONTINUOUS
 62
    4
 10
1065.5732037652888
 20
574.36676138500957
 11
1099.3732037652899
 21
540.56676138501075
  0
LINE
  8
_0-d_断熱__ハッチ
  6
CONTINUOUS
 62
    4
 10
1093.8574750127509
 20
574.36676138500957
 11
1127.657475012752
 21
540.56676138501075
  0
LINE
  8
_0-d_断熱__ハッチ
  6
CONTINUOUS
 62
    4
 10
1122.141746260213
 20
574.36676138500957
 11
1155.9417462602141
 21
540.56676138501075
  0
LINE
  8
_0-d_断熱__ハッチ
  6
CONTINUOUS
 62
    4
 10
1150.4260175076706
 20
574.36676138500957
 11
1185.4260175076729
 21
539.36676138500729
  0
LINE
  8
_0-d_断熱__ハッチ
  6
CONTINUOUS
 62
    4
 10
1178.7102887551373
 20
574.36676138500957
 11
1213.7102887551396
 21
539.36676138500957
  0
LINE
  8
_0-d_断熱__ハッチ
  6
CONTINUOUS
 62
    4
 10
980.72039002290694
 20
574.36676138500957
 11
1014.5203900229058
 21
540.56676138501302
  0
ARC
  8
_0-4_線色４__黄__
  6
CONTINUOUS
 62
    2
 10
980.735274676681
 20
942.56676138500893
 40
3.0000000000000004
 50
0
 51
90
  0
LINE
  8
_0-a_文字
  6
CONTINUOUS
 62
    7
 10
1170.168783805002
 20
659.36676138500957
 11
1190.168783805002
 21
659.36676138500957
  0
TEXT
  8
_0-a_文字
 62
    7
 10
1195.168783805002
 20
626.86676138500968
 40
14.999999999999858
 41
1.0000000000000093
 50
0
  1
ラジアルシートＬ６００
  0
LINE
  8
_0-a_文字
  6
CONTINUOUS
 62
    7
 10
1141.3012703455206
 20
609.36676138500957
 11
1190.168783805002
 21
609.36676138500957
  0
LINE
  8
_0-a_文字
  6
CONTINUOUS
 62
    7
 10
1155.7350270752613
 20
634.36676138500957
 11
1190.168783805002
 21
634.36676138500957
  0
TEXT
  8
_0-a_文字
 62
    7
 10
1195.1687838050022
 20
601.86676138500968
 40
14.999999999999858
 41
0.9999999999999978
 50
0
  1
断熱材
  0
TEXT
  8
_0-a_文字
 62
    7
 10
1127.1334422288717
 20
676.86676138500957
 40
14.999999999999858
 41
1.0000000000000064
 50
0
  1
プルーフシーラー
  0
LINE
  8
_0-a_文字
  6
CONTINUOUS
 62
    7
 10
1102.1334422288714
 20
684.36676138500957
 11
1122.1334422288714
 21
684.36676138500957
  0
LINE
  8
_0-a_文字
  6
CONTINUOUS
 62
    7
 10
1048.4215923969964
 20
591.33510850769312
 11
1102.1334422288714
 21
684.36676138500957
  0
TEXT
  8
_0-a_文字
 62
    7
 10
1195.1687838050018
 20
651.86676138500957
 40
14.999999999999858
 41
1.0000000000000127
 50
0
  1
塩ビシート機械的固定工法
  0
LINE
  8
_0-a_文字
  6
CONTINUOUS
 62
    7
 10
1110.9903812130642
 20
556.86676138500957
 11
1170.168783805002
 21
659.36676138500957
  0
POINT
  8
_0-b_寸法
 62
    1
 10
744.53527467667755
 20
574.36676138500957
  0
LINE
  8
_0-b_寸法
  6
CONTINUOUS
 62
    7
 10
744.53527467667755
 20
574.36676138500957
 11
814.53527467667755
 21
574.36676138500957
  0
POINT
  8
_0-b_寸法
 62
    1
 10
744.53527467667755
 20
939.36676138500957
  0
LINE
  8
_0-b_寸法
  6
CONTINUOUS
 62
    7
 10
744.53527467667755
 20
939.36676138500957
 11
744.53527467667755
 21
574.36676138500957
  0
LINE
  8
_0-b_寸法
  6
CONTINUOUS
 62
    7
 10
744.53527467667755
 20
939.36676138500957
 11
814.53527467667755
 21
939.36676138500957
  0
LINE
  8
_0-2_線色２__白__
  6
CONTINUOUS
 62
    7
 10
978.73527467668055
 20
910.56676138501075
 11
977.53527467667936
 21
908.48830041592805
  0
LINE
  8
_0-2_線色２__白__
  6
CONTINUOUS
 62
    7
 10
978.42320276475675
 20
600.62511752473142
 11
977.53527467667936
 21
601.60183842161473
  0
LINE
  8
_0-4_線色４__黄__
  6
CONTINUOUS
 62
    2
 10
983.24708740371989
 20
602.751878795533
 11
982.53527467667936
 21
603.53487279527485
  0
ARC
  8
_0-4_線色４__黄__
  6
CONTINUOUS
 62
    2
 10
975.32972861838743
 20
595.55427989976693
 40
10.700000000000003
 50
10.000000000005956
 51
42.273689006123831
  0
LINE
  8
_0-4_線色４__黄__
  6
CONTINUOUS
 62
    2
 10
982.53527467667936
 20
603.53487279527485
 11
982.53527467667936
 21
907.14855445377111
  0
LINE
  8
_0-4_線色４__黄__
  6
CONTINUOUS
 62
    2
 10
983.73527467668055
 20
909.22701542285381
 11
982.53527467667936
 21
907.14855445377111
  0
LINE
  8
_0-4_線色４__黄__
  6
CONTINUOUS
 62
    2
 10
983.73527467668055
 20
942.56676138500893
 11
983.73527467668055
 21
909.22701542285381
  0
TEXT
  8
_0-b_寸法
 62
    7
 10
742.03527467667755
 20
719.36676138500957
 40
15.000000000000568
 41
0.9999999999999622
 50
90
  1
立上り高さ
  0
ARC
  8
_0-1_線色１__水色__
  6
CONTINUOUS
 62
    4
 10
977.44363908404239
 20
575.90842804608087
 40
1.2083333333333177
 50
274.34927864086188
 51
52.476486801880853
  0
ARC
  8
_0-1_線色１__水色__
  6
CONTINUOUS
 62
    4
 10
1137.8872948169669
 20
577.82509472410879
 40
1.2083333333333581
 50
307.52351320333912
 51
232.47648680464988
  0
ARC
  8
_0-1_線色１__水色__
  6
CONTINUOUS
 62
    4
 10
1139.3592549614414
 20
575.90842805750867
 40
1.2083333333333177
 50
127.52351320610693
 51
52.47648680188081
  0
ARC
  8
_0-1_線色１__水色__
  6
CONTINUOUS
 62
    4
 10
1134.943374528284
 20
577.82509472390416
 40
1.2083333333333581
 50
307.52351320333912
 51
232.47648680464988
  0
ARC
  8
_0-1_線色１__水色__
  6
CONTINUOUS
 62
    4
 10
1136.4153346727585
 20
575.90842805730404
 40
1.2083333333333177
 50
127.52351320610693
 51
52.47648680188081
  0
ARC
  8
_0-1_線色１__水色__
  6
CONTINUOUS
 62
    4
 10
1131.9994542395989
 20
577.82509472369952
 40
1.2083333333333581
 50
307.52351320333912
 51
232.47648680464988
  0
ARC
  8
_0-1_線色１__水色__
  6
CONTINUOUS
 62
    4
 10
1133.4714143840756
 20
575.9084280570994
 40
1.2083333333333177
 50
127.52351320610693
 51
52.47648680188081
  0
ARC
  8
_0-1_線色１__水色__
  6
CONTINUOUS
 62
    4
 10
1129.055533950916
 20
577.82509472349261
 40
1.2083333333333581
 50
307.52351320333912
 51
232.47648680464988
  0
ARC
  8
_0-1_線色１__水色__
  6
CONTINUOUS
 62
    4
 10
1130.5274940953905
 20
575.90842805689476
 40
1.2083333333333177
 50
127.52351320610693
 51
52.47648680188081
  0
ARC
  8
_0-1_線色１__水色__
  6
CONTINUOUS
 62
    4
 10
1164.3825774151173
 20
577.82509472410879
 40
1.2083333333333581
 50
307.52351320333912
 51
232.47648680464988
  0
ARC
  8
_0-1_線色１__水色__
  6
CONTINUOUS
 62
    4
 10
1165.8545375595918
 20
575.90842805750867
 40
1.2083333333333177
 50
127.52351320610693
 51
52.47648680188081
  0
ARC
  8
_0-1_線色１__水色__
  6
CONTINUOUS
 62
    4
 10
1161.4386571264322
 20
577.82509472390416
 40
1.2083333333333581
 50
307.52351320333912
 51
232.47648680464988
  0
ARC
  8
_0-1_線色１__水色__
  6
CONTINUOUS
 62
    4
 10
1162.9106172709089
 20
575.90842805730404
 40
1.2083333333333177
 50
127.52351320610693
 51
52.47648680188081
  0
ARC
  8
_0-1_線色１__水色__
  6
CONTINUOUS
 62
    4
 10
1158.4947368377493
 20
577.82509472369952
 40
1.2083333333333581
 50
307.52351320333912
 51
232.47648680464988
  0
ARC
  8
_0-1_線色１__水色__
  6
CONTINUOUS
 62
    4
 10
1159.9666969822238
 20
575.9084280570994
 40
1.2083333333333177
 50
127.52351320610693
 51
52.47648680188081
  0
ARC
  8
_0-1_線色１__水色__
  6
CONTINUOUS
 62
    4
 10
1155.5508165490664
 20
577.82509472349261
 40
1.2083333333333581
 50
307.52351320333912
 51
232.47648680464988
  0
ARC
  8
_0-1_線色１__水色__
  6
CONTINUOUS
 62
    4
 10
1157.0227766935432
 20
575.90842805689476
 40
1.2083333333333177
 50
127.52351320610693
 51
52.47648680188081
  0
ARC
  8
_0-1_線色１__水色__
  6
CONTINUOUS
 62
    4
 10
1152.6068962603836
 20
577.82509472328798
 40
1.2083333333333581
 50
307.52351320333912
 51
232.47648680464988
  0
ARC
  8
_0-1_線色１__水色__
  6
CONTINUOUS
 62
    4
 10
1154.078856404858
 20
575.90842805668785
 40
1.2083333333333177
 50
127.52351320610693
 51
52.47648680188081
  0
ARC
  8
_0-1_線色１__水色__
  6
CONTINUOUS
 62
    4
 10
1149.6629759717007
 20
577.82509472308334
 40
1.2083333333333581
 50
307.52351320333912
 51
232.47648680464988
  0
ARC
  8
_0-1_線色１__水色__
  6
CONTINUOUS
 62
    4
 10
1151.1349361161751
 20
575.90842805648322
 40
1.2083333333333177
 50
127.52351320610693
 51
52.47648680188081
  0
ARC
  8
_0-1_線色１__水色__
  6
CONTINUOUS
 62
    4
 10
1143.7751353943327
 20
577.82509472267179
 40
1.2083333333333581
 50
307.52351320333912
 51
232.47648680464988
  0
ARC
  8
_0-1_線色１__水色__
  6
CONTINUOUS
 62
    4
 10
1146.7190556830155
 20
577.8250947228787
 40
1.2083333333333581
 50
307.52351320333912
 51
232.47648680464988
  0
ARC
  8
_0-1_線色１__水色__
  6
CONTINUOUS
 62
    4
 10
1145.2470955388071
 20
575.90842805607394
 40
1.2083333333333177
 50
127.52351320610693
 51
52.47648680188081
  0
ARC
  8
_0-1_線色１__水色__
  6
CONTINUOUS
 62
    4
 10
1148.1910158274923
 20
575.90842805627858
 40
1.2083333333333177
 50
127.52351320610693
 51
52.47648680188081
  0
ARC
  8
_0-1_線色１__水色__
  6
CONTINUOUS
 62
    4
 10
1142.3031752501242
 20
575.90842805586703
 40
1.2083333333333177
 50
127.52351320610693
 51
52.47648680188081
  0
ARC
  8
_0-1_線色１__水色__
  6
CONTINUOUS
 62
    4
 10
1140.8312151056498
 20
577.82509472246716
 40
1.2083333333333581
 50
307.52351320333912
 51
232.47648680464988
  0
ARC
  8
_0-1_線色１__水色__
  6
CONTINUOUS
 62
    4
 10
1182.0460991472169
 20
577.82509472410879
 40
1.2083333333333581
 50
307.52351320333912
 51
232.47648680464988
  0
ARC
  8
_0-1_線色１__水色__
  6
CONTINUOUS
 62
    4
 10
1183.5180592916913
 20
575.90842805750867
 40
1.2083333333333177
 50
127.52351320610693
 51
52.47648680188081
  0
ARC
  8
_0-1_線色１__水色__
  6
CONTINUOUS
 62
    4
 10
1179.102178858534
 20
577.82509472390416
 40
1.2083333333333581
 50
307.52351320333912
 51
232.47648680464988
  0
ARC
  8
_0-1_線色１__水色__
  6
CONTINUOUS
 62
    4
 10
1180.5741390030084
 20
575.90842805730404
 40
1.2083333333333177
 50
127.52351320610693
 51
52.47648680188081
  0
ARC
  8
_0-1_線色１__水色__
  6
CONTINUOUS
 62
    4
 10
1176.1582585698488
 20
577.82509472369952
 40
1.2083333333333581
 50
307.52351320333912
 51
232.47648680464988
  0
ARC
  8
_0-1_線色１__水色__
  6
CONTINUOUS
 62
    4
 10
1177.6302187143256
 20
575.9084280570994
 40
1.2083333333333177
 50
127.52351320610693
 51
52.47648680188081
  0
ARC
  8
_0-1_線色１__水色__
  6
CONTINUOUS
 62
    4
 10
1173.214338281166
 20
577.82509472349261
 40
1.2083333333333581
 50
307.52351320333912
 51
232.47648680464988
  0
ARC
  8
_0-1_線色１__水色__
  6
CONTINUOUS
 62
    4
 10
1174.6862984256404
 20
575.90842805689476
 40
1.2083333333333177
 50
127.52351320610693
 51
52.47648680188081
  0
ARC
  8
_0-1_線色１__水色__
  6
CONTINUOUS
 62
    4
 10
1170.2704179924831
 20
577.82509472328798
 40
1.2083333333333581
 50
307.52351320333912
 51
232.47648680464988
  0
ARC
  8
_0-1_線色１__水色__
  6
CONTINUOUS
 62
    4
 10
1171.7423781369575
 20
575.90842805668785
 40
1.2083333333333177
 50
127.52351320610693
 51
52.47648680188081
  0
ARC
  8
_0-1_線色１__水色__
  6
CONTINUOUS
 62
    4
 10
1167.3264977038002
 20
577.82509472308334
 40
1.2083333333333581
 50
307.52351320333912
 51
232.47648680464988
  0
ARC
  8
_0-1_線色１__水色__
  6
CONTINUOUS
 62
    4
 10
1168.7984578482747
 20
575.90842805648322
 40
1.2083333333333177
 50
127.52351320610693
 51
52.47648680188081
  0
ARC
  8
_0-1_線色１__水色__
  6
CONTINUOUS
 62
    4
 10
1208.5413817453673
 20
577.82509472410879
 40
1.2083333333333581
 50
307.52351320333912
 51
232.47648680464988
  0
ARC
  8
_0-1_線色１__水色__
  6
CONTINUOUS
 62
    4
 10
1210.0133418898417
 20
575.90842805750867
 40
1.2083333333333177
 50
127.52351320610693
 51
52.47648680188081
  0
ARC
  8
_0-1_線色１__水色__
  6
CONTINUOUS
 62
    4
 10
1205.5974614566821
 20
577.82509472390416
 40
1.2083333333333581
 50
307.52351320333912
 51
232.47648680464988
  0
ARC
  8
_0-1_線色１__水色__
  6
CONTINUOUS
 62
    4
 10
1207.0694216011589
 20
575.90842805730404
 40
1.2083333333333177
 50
127.52351320610693
 51
52.47648680188081
  0
ARC
  8
_0-1_線色１__水色__
  6
CONTINUOUS
 62
    4
 10
1202.6535411679993
 20
577.82509472369952
 40
1.2083333333333581
 50
307.52351320333912
 51
232.47648680464988
  0
ARC
  8
_0-1_線色１__水色__
  6
CONTINUOUS
 62
    4
 10
1204.125501312476
 20
575.9084280570994
 40
1.2083333333333177
 50
127.52351320610693
 51
52.47648680188081
  0
ARC
  8
_0-1_線色１__水色__
  6
CONTINUOUS
 62
    4
 10
1199.7096208793164
 20
577.82509472349261
 40
1.2083333333333581
 50
307.52351320333912
 51
232.47648680464988
  0
ARC
  8
_0-1_線色１__水色__
  6
CONTINUOUS
 62
    4
 10
1201.1815810237931
 20
575.90842805689476
 40
1.2083333333333177
 50
127.52351320610693
 51
52.47648680188081
  0
ARC
  8
_0-1_線色１__水色__
  6
CONTINUOUS
 62
    4
 10
1196.7657005906335
 20
577.82509472328798
 40
1.2083333333333581
 50
307.52351320333912
 51
232.47648680464988
  0
ARC
  8
_0-1_線色１__水色__
  6
CONTINUOUS
 62
    4
 10
1198.237660735108
 20
575.90842805668785
 40
1.2083333333333177
 50
127.52351320610693
 51
52.47648680188081
  0
ARC
  8
_0-1_線色１__水色__
  6
CONTINUOUS
 62
    4
 10
1193.8217803019506
 20
577.82509472308334
 40
1.2083333333333581
 50
307.52351320333912
 51
232.47648680464988
  0
ARC
  8
_0-1_線色１__水色__
  6
CONTINUOUS
 62
    4
 10
1195.2937404464251
 20
575.90842805648322
 40
1.2083333333333177
 50
127.52351320610693
 51
52.47648680188081
  0
ARC
  8
_0-1_線色１__水色__
  6
CONTINUOUS
 62
    4
 10
1187.9339397245826
 20
577.82509472267179
 40
1.2083333333333581
 50
307.52351320333912
 51
232.47648680464988
  0
ARC
  8
_0-1_線色１__水色__
  6
CONTINUOUS
 62
    4
 10
1190.8778600132655
 20
577.8250947228787
 40
1.2083333333333581
 50
307.52351320333912
 51
232.47648680464988
  0
ARC
  8
_0-1_線色１__水色__
  6
CONTINUOUS
 62
    4
 10
1189.4058998690593
 20
575.90842805607394
 40
1.2083333333333177
 50
127.52351320610693
 51
52.47648680188081
  0
ARC
  8
_0-1_線色１__水色__
  6
CONTINUOUS
 62
    4
 10
1192.3498201577422
 20
575.90842805627858
 40
1.2083333333333177
 50
127.52351320610693
 51
52.47648680188081
  0
ARC
  8
_0-1_線色１__水色__
  6
CONTINUOUS
 62
    4
 10
1186.4619795803765
 20
575.90842805586703
 40
1.2083333333333177
 50
127.52351320610693
 51
52.47648680188081
  0
ARC
  8
_0-1_線色１__水色__
  6
CONTINUOUS
 62
    4
 10
1184.9900194358997
 20
577.82509472246716
 40
1.2083333333333581
 50
307.52351320333912
 51
232.47648680464988
  0
ARC
  8
_0-1_線色１__水色__
  6
CONTINUOUS
 62
    4
 10
1235.0366643435154
 20
577.82509472410879
 40
1.2083333333333581
 50
307.52351320333912
 51
232.47648680464988
  0
ARC
  8
_0-1_線色１__水色__
  6
CONTINUOUS
 62
    4
 10
1232.0927440548348
 20
577.82509472390416
 40
1.2083333333333581
 50
307.52351320333912
 51
232.47648680464988
  0
ARC
  8
_0-1_線色１__水色__
  6
CONTINUOUS
 62
    4
 10
1233.5647041993093
 20
575.90842805730404
 40
1.2083333333333177
 50
127.52351320610693
 51
52.47648680188081
  0
ARC
  8
_0-1_線色１__水色__
  6
CONTINUOUS
 62
    4
 10
1229.1488237661497
 20
577.82509472369952
 40
1.2083333333333581
 50
307.52351320333912
 51
232.47648680464988
  0
ARC
  8
_0-1_線色１__水色__
  6
CONTINUOUS
 62
    4
 10
1230.6207839106264
 20
575.9084280570994
 40
1.2083333333333177
 50
127.52351320610693
 51
52.47648680188081
  0
ARC
  8
_0-1_線色１__水色__
  6
CONTINUOUS
 62
    4
 10
1226.2049034774668
 20
577.82509472349261
 40
1.2083333333333581
 50
307.52351320333912
 51
232.47648680464988
  0
ARC
  8
_0-1_線色１__水色__
  6
CONTINUOUS
 62
    4
 10
1227.6768636219413
 20
575.90842805689476
 40
1.2083333333333177
 50
127.52351320610693
 51
52.47648680188081
  0
ARC
  8
_0-1_線色１__水色__
  6
CONTINUOUS
 62
    4
 10
1223.2609831887839
 20
577.82509472328798
 40
1.2083333333333581
 50
307.52351320333912
 51
232.47648680464988
  0
ARC
  8
_0-1_線色１__水色__
  6
CONTINUOUS
 62
    4
 10
1224.7329433332584
 20
575.90842805668785
 40
1.2083333333333177
 50
127.52351320610693
 51
52.47648680188081
  0
ARC
  8
_0-1_線色１__水色__
  6
CONTINUOUS
 62
    4
 10
1220.3170629000988
 20
577.82509472308334
 40
1.2083333333333581
 50
307.52351320333912
 51
232.47648680464988
  0
ARC
  8
_0-1_線色１__水色__
  6
CONTINUOUS
 62
    4
 10
1221.7890230445755
 20
575.90842805648322
 40
1.2083333333333177
 50
127.52351320610693
 51
52.47648680188081
  0
ARC
  8
_0-1_線色１__水色__
  6
CONTINUOUS
 62
    4
 10
1214.429222322733
 20
577.82509472267179
 40
1.2083333333333581
 50
307.52351320333912
 51
232.47648680464988
  0
ARC
  8
_0-1_線色１__水色__
  6
CONTINUOUS
 62
    4
 10
1217.3731426114182
 20
577.8250947228787
 40
1.2083333333333581
 50
307.52351320333912
 51
232.47648680464988
  0
ARC
  8
_0-1_線色１__水色__
  6
CONTINUOUS
 62
    4
 10
1215.9011824672098
 20
575.90842805607394
 40
1.2083333333333177
 50
127.52351320610693
 51
52.47648680188081
  0
ARC
  8
_0-1_線色１__水色__
  6
CONTINUOUS
 62
    4
 10
1218.8451027558926
 20
575.90842805627858
 40
1.2083333333333177
 50
127.52351320610693
 51
52.47648680188081
  0
ARC
  8
_0-1_線色１__水色__
  6
CONTINUOUS
 62
    4
 10
1212.9572621785246
 20
575.90842805586703
 40
1.2083333333333177
 50
127.52351320610693
 51
52.47648680188081
  0
ARC
  8
_0-1_線色１__水色__
  6
CONTINUOUS
 62
    4
 10
1211.4853020340502
 20
577.82509472246716
 40
1.2083333333333581
 50
307.52351320333912
 51
232.47648680464988
  0
ARC
  8
_0-1_線色１__水色__
  6
CONTINUOUS
 62
    4
 10
1126.1116136622559
 20
577.82509472326979
 40
1.2083333333333581
 50
307.52351320333912
 51
232.47648680464988
  0
ARC
  8
_0-1_線色１__水色__
  6
CONTINUOUS
 62
    4
 10
1127.5835738067303
 20
575.90842805666966
 40
1.2083333333333177
 50
127.52351320610693
 51
52.47648680188081
  0
ARC
  8
_0-1_線色１__水色__
  6
CONTINUOUS
 62
    4
 10
1123.167693373573
 20
577.82509472306515
 40
1.2083333333333581
 50
307.52351320333912
 51
232.47648680464988
  0
ARC
  8
_0-1_線色１__水色__
  6
CONTINUOUS
 62
    4
 10
1124.6396535180475
 20
575.90842805646503
 40
1.2083333333333177
 50
127.52351320610693
 51
52.47648680188081
  0
ARC
  8
_0-1_線色１__水色__
  6
CONTINUOUS
 62
    4
 10
1120.2237730848901
 20
577.82509472286051
 40
1.2083333333333581
 50
307.52351320333912
 51
232.47648680464988
  0
ARC
  8
_0-1_線色１__水色__
  6
CONTINUOUS
 62
    4
 10
1121.6957332293646
 20
575.90842805626039
 40
1.2083333333333177
 50
127.52351320610693
 51
52.47648680188081
  0
ARC
  8
_0-1_線色１__水色__
  6
CONTINUOUS
 62
    4
 10
1118.7518129406817
 20
575.90842805605575
 40
1.2083333333333177
 50
127.52351320610693
 51
52.47648680188081
  0
ARC
  8
_0-1_線色１__水色__
  6
CONTINUOUS
 62
    4
 10
1117.279852796205
 20
577.82509472265588
 40
1.2083333333333581
 50
307.52351320333912
 51
232.47648680464988
  0
ARC
  8
_0-1_線色１__水色__
  6
CONTINUOUS
 62
    4
 10
1114.3359325075221
 20
577.82509472244897
 40
1.2083333333333581
 50
307.52351320333912
 51
232.47648680464988
  0
ARC
  8
_0-1_線色１__水色__
  6
CONTINUOUS
 62
    4
 10
1115.8078926519966
 20
575.90842805585112
 40
1.2083333333333177
 50
127.52351320610693
 51
52.47648680188081
  0
ARC
  8
_0-1_線色１__水色__
  6
CONTINUOUS
 62
    4
 10
1111.3920122188392
 20
577.82509472224433
 40
1.2083333333333581
 50
307.52351320333912
 51
232.47648680464988
  0
ARC
  8
_0-1_線色１__水色__
  6
CONTINUOUS
 62
    4
 10
1112.863972363316
 20
575.90842805564421
 40
1.2083333333333177
 50
127.52351320610693
 51
52.47648680188081
  0
ARC
  8
_0-1_線色１__水色__
  6
CONTINUOUS
 62
    4
 10
1108.4480919301564
 20
577.82509472203969
 40
1.2083333333333581
 50
307.52351320333912
 51
232.47648680464988
  0
ARC
  8
_0-1_線色１__水色__
  6
CONTINUOUS
 62
    4
 10
1109.9200520746308
 20
575.90842805543957
 40
1.2083333333333177
 50
127.52351320610693
 51
52.47648680188081
  0
ARC
  8
_0-1_線色１__水色__
  6
CONTINUOUS
 62
    4
 10
1105.5041716414962
 20
577.82509472181687
 40
1.2083333333333581
 50
307.52351320333912
 51
232.47648680464988
  0
ARC
  8
_0-1_線色１__水色__
  6
CONTINUOUS
 62
    4
 10
1106.9761317859707
 20
575.90842805521675
 40
1.2083333333333177
 50
127.52351320610693
 51
52.47648680188081
  0
ARC
  8
_0-1_線色１__水色__
  6
CONTINUOUS
 62
    4
 10
1102.5602513528111
 20
577.82509472160996
 40
1.2083333333333581
 50
307.52351320333912
 51
232.47648680464988
  0
ARC
  8
_0-1_線色１__水色__
  6
CONTINUOUS
 62
    4
 10
1104.0322114972878
 20
575.90842805501211
 40
1.2083333333333177
 50
127.52351320610693
 51
52.47648680188081
  0
ARC
  8
_0-1_線色１__水色__
  6
CONTINUOUS
 62
    4
 10
1099.6163310641282
 20
577.82509472140532
 40
1.2083333333333581
 50
307.52351320333912
 51
232.47648680464988
  0
ARC
  8
_0-1_線色１__水色__
  6
CONTINUOUS
 62
    4
 10
1101.0882912086026
 20
575.9084280548052
 40
1.2083333333333177
 50
127.52351320610693
 51
52.47648680188081
  0
ARC
  8
_0-1_線色１__水色__
  6
CONTINUOUS
 62
    4
 10
1098.144370919922
 20
575.90842805460056
 40
1.2083333333333177
 50
127.52351320610693
 51
52.47648680188081
  0
ARC
  8
_0-1_線色１__水色__
  6
CONTINUOUS
 62
    4
 10
1096.6724107754453
 20
577.82509472120068
 40
1.2083333333333581
 50
307.52351320333912
 51
232.47648680464988
  0
ARC
  8
_0-1_線色１__水色__
  6
CONTINUOUS
 62
    4
 10
1093.7284904867624
 20
577.82509472099605
 40
1.2083333333333581
 50
307.52351320333912
 51
232.47648680464988
  0
ARC
  8
_0-1_線色１__水色__
  6
CONTINUOUS
 62
    4
 10
1095.2004506312369
 20
575.90842805439593
 40
1.2083333333333177
 50
127.52351320610693
 51
52.47648680188081
  0
ARC
  8
_0-1_線色１__水色__
  6
CONTINUOUS
 62
    4
 10
1090.7845701980796
 20
577.82509472078914
 40
1.2083333333333581
 50
307.52351320333912
 51
232.47648680464988
  0
ARC
  8
_0-1_線色１__水色__
  6
CONTINUOUS
 62
    4
 10
1092.256530342554
 20
575.90842805419129
 40
1.2083333333333177
 50
127.52351320610693
 51
52.47648680188081
  0
ARC
  8
_0-1_線色１__水色__
  6
CONTINUOUS
 62
    4
 10
1087.8406499093944
 20
577.8250947205845
 40
1.2083333333333581
 50
307.52351320333912
 51
232.47648680464988
  0
ARC
  8
_0-1_線色１__水色__
  6
CONTINUOUS
 62
    4
 10
1089.3126100538711
 20
575.90842805398438
 40
1.2083333333333177
 50
127.52351320610693
 51
52.47648680188081
  0
ARC
  8
_0-1_線色１__水色__
  6
CONTINUOUS
 62
    4
 10
1084.8967296207366
 20
577.82509472036168
 40
1.2083333333333581
 50
307.52351320333912
 51
232.47648680464988
  0
ARC
  8
_0-1_線色１__水色__
  6
CONTINUOUS
 62
    4
 10
1086.368689765211
 20
575.90842805376155
 40
1.2083333333333177
 50
127.52351320610693
 51
52.47648680188081
  0
ARC
  8
_0-1_線色１__水色__
  6
CONTINUOUS
 62
    4
 10
1081.9528093320514
 20
577.82509472015704
 40
1.2083333333333581
 50
307.52351320333912
 51
232.47648680464988
  0
ARC
  8
_0-1_線色１__水色__
  6
CONTINUOUS
 62
    4
 10
1083.4247694765281
 20
575.90842805355692
 40
1.2083333333333177
 50
127.52351320610693
 51
52.47648680188081
  0
ARC
  8
_0-1_線色１__水色__
  6
CONTINUOUS
 62
    4
 10
1079.0088890433685
 20
577.8250947199524
 40
1.2083333333333581
 50
307.52351320333912
 51
232.47648680464988
  0
ARC
  8
_0-1_線色１__水色__
  6
CONTINUOUS
 62
    4
 10
1080.480849187843
 20
575.90842805335228
 40
1.2083333333333177
 50
127.52351320610693
 51
52.47648680188081
  0
ARC
  8
_0-1_線色１__水色__
  6
CONTINUOUS
 62
    4
 10
1077.5369288991601
 20
575.90842805314765
 40
1.2083333333333177
 50
127.52351320610693
 51
52.47648680188081
  0
ARC
  8
_0-1_線色１__水色__
  6
CONTINUOUS
 62
    4
 10
1076.0649687546857
 20
577.82509471974549
 40
1.2083333333333581
 50
307.52351320333912
 51
232.47648680464988
  0
ARC
  8
_0-1_線色１__水色__
  6
CONTINUOUS
 62
    4
 10
1073.1210484660028
 20
577.82509471954086
 40
1.2083333333333581
 50
307.52351320333912
 51
232.47648680464988
  0
ARC
  8
_0-1_線色１__水色__
  6
CONTINUOUS
 62
    4
 10
1074.5930086104772
 20
575.90842805294074
 40
1.2083333333333177
 50
127.52351320610693
 51
52.47648680188081
  0
ARC
  8
_0-1_線色１__水色__
  6
CONTINUOUS
 62
    4
 10
1070.1771281773199
 20
577.82509471933622
 40
1.2083333333333581
 50
307.52351320333912
 51
232.47648680464988
  0
ARC
  8
_0-1_線色１__水色__
  6
CONTINUOUS
 62
    4
 10
1071.6490883217944
 20
575.9084280527361
 40
1.2083333333333177
 50
127.52351320610693
 51
52.47648680188081
  0
ARC
  8
_0-1_線色１__水色__
  6
CONTINUOUS
 62
    4
 10
1067.2332078886348
 20
577.82509471913158
 40
1.2083333333333581
 50
307.52351320333912
 51
232.47648680464988
  0
ARC
  8
_0-1_線色１__水色__
  6
CONTINUOUS
 62
    4
 10
1068.7051680331115
 20
575.90842805253146
 40
1.2083333333333177
 50
127.52351320610693
 51
52.47648680188081
  0
ARC
  8
_0-1_線色１__水色__
  6
CONTINUOUS
 62
    4
 10
1064.2892875999746
 20
577.82509471890876
 40
1.2083333333333581
 50
307.52351320333912
 51
232.47648680464988
  0
ARC
  8
_0-1_線色１__水色__
  6
CONTINUOUS
 62
    4
 10
1065.7612477444491
 20
575.90842805230864
 40
1.2083333333333177
 50
127.52351320610693
 51
52.47648680188081
  0
ARC
  8
_0-1_線色１__水色__
  6
CONTINUOUS
 62
    4
 10
1061.3453673112917
 20
577.82509471870185
 40
1.2083333333333581
 50
307.52351320333912
 51
232.47648680464988
  0
ARC
  8
_0-1_線色１__水色__
  6
CONTINUOUS
 62
    4
 10
1062.8173274557662
 20
575.908428052104
 40
1.2083333333333177
 50
127.52351320610693
 51
52.47648680188081
  0
ARC
  8
_0-1_線色１__水色__
  6
CONTINUOUS
 62
    4
 10
1058.4014470226089
 20
577.82509471849721
 40
1.2083333333333581
 50
307.52351320333912
 51
232.47648680464988
  0
ARC
  8
_0-1_線色１__水色__
  6
CONTINUOUS
 62
    4
 10
1059.8734071670833
 20
575.90842805189709
 40
1.2083333333333177
 50
127.52351320610693
 51
52.47648680188081
  0
ARC
  8
_0-1_線色１__水色__
  6
CONTINUOUS
 62
    4
 10
1056.9294868784004
 20
575.90842805169245
 40
1.2083333333333177
 50
127.52351320610693
 51
52.47648680188081
  0
ARC
  8
_0-1_線色１__水色__
  6
CONTINUOUS
 62
    4
 10
1055.457526733926
 20
577.82509471829258
 40
1.2083333333333581
 50
307.52351320333912
 51
232.47648680464988
  0
ARC
  8
_0-1_線色１__水色__
  6
CONTINUOUS
 62
    4
 10
1052.5136064452408
 20
577.82509471808794
 40
1.2083333333333581
 50
307.52351320333912
 51
232.47648680464988
  0
ARC
  8
_0-1_線色１__水色__
  6
CONTINUOUS
 62
    4
 10
1053.9855665897176
 20
575.90842805148782
 40
1.2083333333333177
 50
127.52351320610693
 51
52.47648680188081
  0
ARC
  8
_0-1_線色１__水色__
  6
CONTINUOUS
 62
    4
 10
1049.569686156558
 20
577.82509471788103
 40
1.2083333333333581
 50
307.52351320333912
 51
232.47648680464988
  0
ARC
  8
_0-1_線色１__水色__
  6
CONTINUOUS
 62
    4
 10
1051.0416463010347
 20
575.90842805128318
 40
1.2083333333333177
 50
127.52351320610693
 51
52.47648680188081
  0
ARC
  8
_0-1_線色１__水色__
  6
CONTINUOUS
 62
    4
 10
1046.6257658678751
 20
577.82509471767639
 40
1.2083333333333581
 50
307.52351320333912
 51
232.47648680464988
  0
ARC
  8
_0-1_線色１__水色__
  6
CONTINUOUS
 62
    4
 10
1048.0977260123518
 20
575.90842805107627
 40
1.2083333333333177
 50
127.52351320610693
 51
52.47648680188081
  0
ARC
  8
_0-1_線色１__水色__
  6
CONTINUOUS
 62
    4
 10
1043.681845579215
 20
577.82509471745357
 40
1.2083333333333581
 50
307.52351320333912
 51
232.47648680464988
  0
ARC
  8
_0-1_線色１__水色__
  6
CONTINUOUS
 62
    4
 10
1045.1538057236894
 20
575.90842805085344
 40
1.2083333333333177
 50
127.52351320610693
 51
52.47648680188081
  0
ARC
  8
_0-1_線色１__水色__
  6
CONTINUOUS
 62
    4
 10
1040.7379252905321
 20
577.82509471724893
 40
1.2083333333333581
 50
307.52351320333912
 51
232.47648680464988
  0
ARC
  8
_0-1_線色１__水色__
  6
CONTINUOUS
 62
    4
 10
1042.2098854350065
 20
575.90842805064881
 40
1.2083333333333177
 50
127.52351320610693
 51
52.47648680188081
  0
ARC
  8
_0-1_線色１__水色__
  6
CONTINUOUS
 62
    4
 10
1037.7940050018469
 20
577.82509471704202
 40
1.2083333333333581
 50
307.52351320333912
 51
232.47648680464988
  0
ARC
  8
_0-1_線色１__水色__
  6
CONTINUOUS
 62
    4
 10
1039.2659651463237
 20
575.90842805044417
 40
1.2083333333333177
 50
127.52351320610693
 51
52.47648680188081
  0
ARC
  8
_0-1_線色１__水色__
  6
CONTINUOUS
 62
    4
 10
1036.3220448576408
 20
575.90842805023726
 40
1.2083333333333177
 50
127.52351320610693
 51
52.47648680188081
  0
ARC
  8
_0-1_線色１__水色__
  6
CONTINUOUS
 62
    4
 10
1034.8500847131663
 20
577.82509471683738
 40
1.2083333333333581
 50
307.52351320333912
 51
232.47648680464988
  0
ARC
  8
_0-1_線色１__水色__
  6
CONTINUOUS
 62
    4
 10
1031.9061644244812
 20
577.82509471663275
 40
1.2083333333333581
 50
307.52351320333912
 51
232.47648680464988
  0
ARC
  8
_0-1_線色１__水色__
  6
CONTINUOUS
 62
    4
 10
1033.3781245689579
 20
575.90842805003263
 40
1.2083333333333177
 50
127.52351320610693
 51
52.47648680188081
  0
ARC
  8
_0-1_線色１__水色__
  6
CONTINUOUS
 62
    4
 10
1028.9622441357983
 20
577.82509471642811
 40
1.2083333333333581
 50
307.52351320333912
 51
232.47648680464988
  0
ARC
  8
_0-1_線色１__水色__
  6
CONTINUOUS
 62
    4
 10
1030.4342042802728
 20
575.90842804982799
 40
1.2083333333333177
 50
127.52351320610693
 51
52.47648680188081
  0
ARC
  8
_0-1_線色１__水色__
  6
CONTINUOUS
 62
    4
 10
1026.0183238471154
 20
577.82509471622348
 40
1.2083333333333581
 50
307.52351320333912
 51
232.47648680464988
  0
ARC
  8
_0-1_線色１__水色__
  6
CONTINUOUS
 62
    4
 10
1027.4902839915899
 20
575.90842804962335
 40
1.2083333333333177
 50
127.52351320610693
 51
52.47648680188081
  0
ARC
  8
_0-1_線色１__水色__
  6
CONTINUOUS
 62
    4
 10
1023.0744035584553
 20
577.82509471599838
 40
1.2083333333333581
 50
307.52351320333912
 51
232.47648680464988
  0
ARC
  8
_0-1_線色１__水色__
  6
CONTINUOUS
 62
    4
 10
1024.5463637029297
 20
575.90842804940053
 40
1.2083333333333177
 50
127.52351320610693
 51
52.47648680188081
  0
ARC
  8
_0-1_線色１__水色__
  6
CONTINUOUS
 62
    4
 10
1020.1304832697724
 20
577.82509471579374
 40
1.2083333333333581
 50
307.52351320333912
 51
232.47648680464988
  0
ARC
  8
_0-1_線色１__水色__
  6
CONTINUOUS
 62
    4
 10
1021.6024434142469
 20
575.90842804919362
 40
1.2083333333333177
 50
127.52351320610693
 51
52.47648680188081
  0
ARC
  8
_0-1_線色１__水色__
  6
CONTINUOUS
 62
    4
 10
1017.1865629810873
 20
577.8250947155891
 40
1.2083333333333581
 50
307.52351320333912
 51
232.47648680464988
  0
ARC
  8
_0-1_線色１__水色__
  6
CONTINUOUS
 62
    4
 10
1018.658523125564
 20
575.90842804898898
 40
1.2083333333333177
 50
127.52351320610693
 51
52.47648680188081
  0
ARC
  8
_0-1_線色１__水色__
  6
CONTINUOUS
 62
    4
 10
1015.7146028368788
 20
575.90842804878434
 40
1.2083333333333177
 50
127.52351320610693
 51
52.47648680188081
  0
ARC
  8
_0-1_線色１__水色__
  6
CONTINUOUS
 62
    4
 10
1014.2426426924044
 20
577.82509471538447
 40
1.2083333333333581
 50
307.52351320333912
 51
232.47648680464988
  0
ARC
  8
_0-1_線色１__水色__
  6
CONTINUOUS
 62
    4
 10
1011.2987224037215
 20
577.82509471517756
 40
1.2083333333333581
 50
307.52351320333912
 51
232.47648680464988
  0
ARC
  8
_0-1_線色１__水色__
  6
CONTINUOUS
 62
    4
 10
1012.770682548196
 20
575.90842804857971
 40
1.2083333333333177
 50
127.52351320610693
 51
52.47648680188081
  0
ARC
  8
_0-1_線色１__水色__
  6
CONTINUOUS
 62
    4
 10
1008.3548021150386
 20
577.82509471497292
 40
1.2083333333333581
 50
307.52351320333912
 51
232.47648680464988
  0
ARC
  8
_0-1_線色１__水色__
  6
CONTINUOUS
 62
    4
 10
1009.8267622595131
 20
575.9084280483728
 40
1.2083333333333177
 50
127.52351320610693
 51
52.47648680188081
  0
ARC
  8
_0-1_線色１__水色__
  6
CONTINUOUS
 62
    4
 10
1005.4108818263558
 20
577.82509471476828
 40
1.2083333333333581
 50
307.52351320333912
 51
232.47648680464988
  0
ARC
  8
_0-1_線色１__水色__
  6
CONTINUOUS
 62
    4
 10
1006.8828419708302
 20
575.90842804816816
 40
1.2083333333333177
 50
127.52351320610693
 51
52.47648680188081
  0
ARC
  8
_0-1_線色１__水色__
  6
CONTINUOUS
 62
    4
 10
1002.4669615376934
 20
577.82509471454546
 40
1.2083333333333581
 50
307.52351320333912
 51
232.47648680464988
  0
ARC
  8
_0-1_線色１__水色__
  6
CONTINUOUS
 62
    4
 10
1003.9389216821701
 20
575.90842804794534
 40
1.2083333333333177
 50
127.52351320610693
 51
52.47648680188081
  0
ARC
  8
_0-1_線色１__水色__
  6
CONTINUOUS
 62
    4
 10
999.52304124901048
 20
577.82509471434082
 40
1.2083333333333581
 50
307.52351320333912
 51
232.47648680464988
  0
ARC
  8
_0-1_線色１__水色__
  6
CONTINUOUS
 62
    4
 10
1000.9950013934849
 20
575.9084280477407
 40
1.2083333333333177
 50
127.52351320610693
 51
52.47648680188081
  0
ARC
  8
_0-1_線色１__水色__
  6
CONTINUOUS
 62
    4
 10
996.5791209603276
 20
577.82509471413391
 40
1.2083333333333581
 50
307.52351320333912
 51
232.47648680464988
  0
ARC
  8
_0-1_線色１__水色__
  6
CONTINUOUS
 62
    4
 10
998.05108110480205
 20
575.90842804753606
 40
1.2083333333333177
 50
127.52351320610693
 51
52.47648680188081
  0
ARC
  8
_0-1_線色１__水色__
  6
CONTINUOUS
 62
    4
 10
995.10716081611918
 20
575.90842804732915
 40
1.2083333333333177
 50
127.52351320610693
 51
52.47648680188081
  0
ARC
  8
_0-1_線色１__水色__
  6
CONTINUOUS
 62
    4
 10
993.63520067164472
 20
577.82509471392927
 40
1.2083333333333581
 50
307.52351320333912
 51
232.47648680464988
  0
ARC
  8
_0-1_線色１__水色__
  6
CONTINUOUS
 62
    4
 10
990.69128038296185
 20
577.82509471372464
 40
1.2083333333333581
 50
307.52351320333912
 51
232.47648680464988
  0
ARC
  8
_0-1_線色１__水色__
  6
CONTINUOUS
 62
    4
 10
992.1632405274363
 20
575.90842804712452
 40
1.2083333333333177
 50
127.52351320610693
 51
52.47648680188081
  0
ARC
  8
_0-1_線色１__水色__
  6
CONTINUOUS
 62
    4
 10
987.7473600942767
 20
577.82509471352
 40
1.2083333333333581
 50
307.52351320333912
 51
232.47648680464988
  0
ARC
  8
_0-1_線色１__水色__
  6
CONTINUOUS
 62
    4
 10
989.21932023875343
 20
575.90842804691988
 40
1.2083333333333177
 50
127.52351320610693
 51
52.47648680188081
  0
ARC
  8
_0-1_線色１__水色__
  6
CONTINUOUS
 62
    4
 10
984.80343980559383
 20
577.82509471331309
 40
1.2083333333333581
 50
307.52351320333912
 51
232.47648680464988
  0
ARC
  8
_0-1_線色１__水色__
  6
CONTINUOUS
 62
    4
 10
986.27539995007055
 20
575.90842804671524
 40
1.2083333333333177
 50
127.52351320610693
 51
52.47648680188081
  0
ARC
  8
_0-1_線色１__水色__
  6
CONTINUOUS
 62
    4
 10
981.85951951693369
 20
577.82509471309027
 40
1.2083333333333581
 50
307.52351320333912
 51
232.47648680464988
  0
ARC
  8
_0-1_線色１__水色__
  6
CONTINUOUS
 62
    4
 10
983.33147966141041
 20
575.90842804649242
 40
1.2083333333333177
 50
127.52351320610693
 51
52.47648680188081
  0
ARC
  8
_0-1_線色１__水色__
  6
CONTINUOUS
 62
    4
 10
978.91559922825081
 20
577.82509471288563
 40
1.2083333333333581
 50
307.52351320333912
 51
232.47648680464988
  0
ARC
  8
_0-1_線色１__水色__
  6
CONTINUOUS
 62
    4
 10
980.38755937272526
 20
575.90842804628551
 40
1.2083333333333177
 50
127.52351320610693
 51
52.47648680188081
  0
LINE
  8
_0-a_文字
  6
CONTINUOUS
 62
    7
 10
1012.5352746766862
 20
809.36676138500957
 11
1032.5352746766862
 21
809.36676138500957
  0
LINE
  8
_0-a_文字
  6
CONTINUOUS
 62
    7
 10
998.10151794694548
 20
784.36676138500957
 11
1032.5352746766862
 21
784.36676138500957
  0
TEXT
  8
_0-a_文字
 62
    7
 10
1037.5352746766857
 20
801.86676138500957
 40
14.999999999999858
 41
1.0000000000000138
 50
0
  1
塩ビシート機械的固定工法
  0
TEXT
  8
_0-a_文字
 62
    7
 10
1037.5352746766857
 20
776.86676138500968
 40
14.999999999999503
 41
1.0000000000000362
 50
0
  1
硬質木毛セメント板 等（別途工事）
  0
LINE
  8
_0-a_文字
  6
CONTINUOUS
 62
    7
 10
969.24521103576353
 20
734.38617169604754
 11
1012.5352746766862
 21
809.36676138500957
  0
LINE
  8
_0-a_文字
  6
CONTINUOUS
 62
    7
 10
1083.1195196815224
 20
709.36676138500957
 11
1103.1195196815224
 21
709.36676138500957
  0
TEXT
  8
_0-a_文字
 62
    7
 10
1108.1195196815249
 20
701.86676138500957
 40
14.999999999999858
 41
1.0000000000000027
 50
0
  1
ＢＰ－Ｈ３Ｎ
  0
LINE
  8
_0-a_文字
  6
CONTINUOUS
 62
    7
 10
1010.0565063680165
 20
582.81791017193314
 11
1083.1195196815224
 21
709.36676138500957
  0
LINE
  8
ADD_LINE
  6
DOT
 62
    4
 10
877.00161222094493
 20
911.69854550998366
 11
877.00161222094493
 21
951.31526525260256
  0
LINE
  8
_0-7_ビス
  6
CONTINUOUS
 62
    7
 10
883.00161222094403
 20
943.63329478731998
 11
883.00161222094403
 21
944.01791017193432
  0
LINE
  8
_0-7_ビス
  6
DASHED3
 62
    7
 10
878.46908033719956
 20
941.46854064110698
 11
879.55162805709278
 21
944.01791017193432
  0
LINE
  8
_0-7_ビス
  6
CONTINUOUS
 62
    7
 10
871.00161222094584
 20
943.63329478731998
 11
871.00161222094584
 21
944.01791017193432
  0
LINE
  8
_0-7_ビス
  6
DASHED3
 62
    7
 10
875.53414410469031
 20
941.46854064110698
 11
874.45159638479709
 21
944.01791017193432
  0
LINE
  8
_0-7_ビス
  6
CONTINUOUS
 62
    7
 10
883.00161222094403
 20
943.63329478731998
 11
871.00161222094584
 21
943.63329478731998
  0
LINE
  8
_0-7_ビス
  6
CONTINUOUS
 62
    7
 10
883.00161222094403
 20
944.01791017193432
 11
871.00161222094584
 21
944.01791017193432
  0
ARC
  8
_0-7_ビス
  6
DASHED3
 62
    7
 10
877.00161222094493
 20
942.57908373937312
 40
1.8403175392666382
 50
217.11750793457031
 51
322.88247680664062
  0
LINE
  8
_0-7_ビス
  6
CONTINUOUS
 62
    7
 10
881.0873986585716
 20
941.71908122494528
 11
883.00161222094403
 21
943.63329478731998
  0
ARC
  8
_0-7_ビス
  6
CONTINUOUS
 62
    7
 10
882.50161222094448
 20
940.30486766257241
 40
2
 50
135.00000000000153
 51
180.00000000000003
  0
LINE
  8
_0-7_ビス
  6
CONTINUOUS
 62
    7
 10
872.91582578331827
 20
941.71908122494528
 11
871.00161222094357
 21
943.63329478731998
  0
ARC
  8
_0-7_ビス
  6
CONTINUOUS
 62
    7
 10
871.50161222094539
 20
940.30486766257241
 40
2
 50
0
 51
44.999999999998501
  0
LINE
  8
_0-7_ビス
  6
CONTINUOUS
 62
    7
 10
880.50161222094403
 20
940.01791017193568
 11
873.50161222094357
 21
940.01791017193568
  0
LINE
  8
_0-7_ビス
  6
CONTINUOUS
 62
    7
 10
880.50161222094403
 20
924.17802674485642
 11
873.50161222094357
 21
924.17802674485642
  0
LINE
  8
_0-7_ビス
  6
CONTINUOUS
 62
    7
 10
880.50161222094403
 20
939.01791017193432
 11
873.50161222094357
 21
939.01791017193432
  0
LINE
  8
_0-7_ビス
  6
CONTINUOUS
 62
    4
 10
875.98760084525566
 20
924.17802674485642
 11
880.50161222094403
 21
925.38759206325381
  0
LINE
  8
_0-7_ビス
  6
CONTINUOUS
 62
    4
 10
873.50161222094357
 20
937.81810681254115
 11
877.97919266288545
 21
939.01791017193432
  0
LINE
  8
_0-7_ビス
  6
CONTINUOUS
 62
    4
 10
873.50161222094357
 20
925.51188628316481
 11
880.50161222094403
 21
927.38759206325199
  0
LINE
  8
_0-7_ビス
  6
CONTINUOUS
 62
    4
 10
873.50161222094357
 20
927.51188628316527
 11
880.50161222094403
 21
929.38759206325244
  0
LINE
  8
_0-7_ビス
  6
CONTINUOUS
 62
    4
 10
873.50161222094357
 20
929.51188628316345
 11
880.50161222094403
 21
931.3875920632529
  0
LINE
  8
_0-7_ビス
  6
CONTINUOUS
 62
    4
 10
873.50161222094357
 20
931.5118862831639
 11
880.50161222094403
 21
933.38759206325335
  0
LINE
  8
_0-7_ビス
  6
CONTINUOUS
 62
    4
 10
873.50161222094357
 20
933.51188628316436
 11
880.50161222094403
 21
935.38759206325381
  0
LINE
  8
_0-7_ビス
  6
CONTINUOUS
 62
    4
 10
873.50161222094357
 20
935.51188628316481
 11
880.50161222094403
 21
937.38759206325426
  0
LINE
  8
_0-7_ビス
  6
CONTINUOUS
 62
    7
 10
880.50161222094403
 20
940.30486766257241
 11
880.50161222094403
 21
920.69875268702049
  0
LINE
  8
_0-7_ビス
  6
CONTINUOUS
 62
    7
 10
880.50161222094403
 20
920.69875268702049
 11
877.00161222094493
 21
918.67802674485688
  0
LINE
  8
_0-7_ビス
  6
CONTINUOUS
 62
    7
 10
873.50161222094357
 20
940.30486766257241
 11
873.50161222094357
 21
920.69875268702049
  0
LINE
  8
_0-7_ビス
  6
CONTINUOUS
 62
    7
 10
873.50161222094357
 20
920.69875268702049
 11
877.00161222094493
 21
918.67802674485688
  0
LINE
  8
_0-2_線色２__白__
  6
CONTINUOUS
 62
    7
 10
851.22345247422572
 20
942.81791017192404
 11
851.22345247422572
 21
940.56676138501075
  0
LINE
  8
_0-d_断熱__ハッチ
  6
CONTINUOUS
 62
    4
 10
899.44194504064399
 20
940.56676138500848
 11
900.23505880503308
 21
941.35987514939529
  0
LINE
  8
_0-d_断熱__ハッチ
  6
CONTINUOUS
 62
    4
 10
895.90641113471065
 20
940.56676138500848
 11
898.14719600541139
 21
942.80754625570921
  0
LINE
  8
_0-d_断熱__ハッチ
  6
CONTINUOUS
 62
    4
 10
892.37087722877732
 20
940.56676138500848
 11
894.62202601569061
 21
942.81791017191949
  0
LINE
  8
_0-d_断熱__ハッチ
  6
CONTINUOUS
 62
    4
 10
888.83534332284398
 20
940.56676138500848
 11
891.08649210975955
 21
942.81791017192404
  0
LINE
  8
_0-d_断熱__ハッチ
  6
CONTINUOUS
 62
    4
 10
885.29980941691065
 20
940.56676138500848
 11
887.55095820382394
 21
942.81791017191949
  0
LINE
  8
_0-d_断熱__ハッチ
  6
CONTINUOUS
 62
    4
 10
881.76427551097731
 20
940.56676138500848
 11
883.96117443734056
 21
942.76366031136945
  0
LINE
  8
_0-d_断熱__ハッチ
  6
CONTINUOUS
 62
    4
 10
871.15767379317731
 20
940.56676138500848
 11
871.96736314741656
 21
941.37645073924773
  0
LINE
  8
_0-d_断熱__ハッチ
  6
CONTINUOUS
 62
    4
 10
867.62213988724852
 20
940.56676138501075
 11
869.86044167263572
 21
942.80506317040022
  0
LINE
  8
_0-d_断熱__ハッチ
  6
CONTINUOUS
 62
    4
 10
864.08660598131064
 20
940.56676138500848
 11
866.3377547682262
 21
942.81791017192177
  0
LINE
  8
_0-d_断熱__ハッチ
  6
CONTINUOUS
 62
    4
 10
860.55107207537958
 20
940.56676138501075
 11
862.80222086229287
 21
942.81791017192404
  0
LINE
  8
_0-d_断熱__ハッチ
  6
CONTINUOUS
 62
    4
 10
857.01553816944397
 20
940.56676138500848
 11
859.26668695635726
 21
942.81791017192177
  0
LINE
  8
_0-d_断熱__ハッチ
  6
CONTINUOUS
 62
    4
 10
853.48000426351291
 20
940.56676138501075
 11
855.7311530504262
 21
942.81791017192404
  0
LINE
  8
_0-d_断熱__ハッチ
  6
CONTINUOUS
 62
    4
 10
851.22345247422345
 20
941.84574350165008
 11
852.19561914449969
 21
942.81791017192404
  0
LINE
  8
_0-6_鋼板__アングル
  6
CONTINUOUS
 62
    2
 10
824.53527467667755
 20
940.56676138501075
 11
824.53527467667755
 21
939.36676138500957
  0
LINE
  8
_0-6_鋼板__アングル
  6
CONTINUOUS
 62
    2
 10
822.00161222094493
 20
944.01791017193432
 11
823.33069087165768
 21
928.82647168005292
  0
LINE
  8
_0-6_鋼板__アングル
  6
CONTINUOUS
 62
    2
 10
823.31118242221692
 20
942.81791017192404
 11
824.53527467667755
 21
928.82647168005292
  0
LINE
  8
_0-6_鋼板__アングル
  6
CONTINUOUS
 62
    2
 10
823.33069087165768
 20
928.82647168005292
 11
824.53527467667755
 21
928.82647168005292
  0
LINE
  8
_0-6_鋼板__アングル
  6
CONTINUOUS
 62
    2
 10
977.53527467667936
 20
939.36676138500957
 11
824.53527467667755
 21
939.36676138500957
  0
LINE
  8
_0-6_鋼板__アングル
  6
CONTINUOUS
 62
    2
 10
978.73527467668055
 20
940.56676138501075
 11
824.53527467667755
 21
940.56676138501075
  0
LINE
  8
_0-6_鋼板__アングル
  6
CONTINUOUS
 62
    2
 10
978.73527467668055
 20
910.56676138501075
 11
977.53527467667936
 21
910.56676138501075
  0
LINE
  8
_0-6_鋼板__アングル
  6
CONTINUOUS
 62
    2
 10
977.53527467667936
 20
939.36676138500957
 11
977.53527467667936
 21
910.56676138501075
  0
LINE
  8
_0-6_鋼板__アングル
  6
CONTINUOUS
 62
    2
 10
978.73527467668055
 20
940.56676138501075
 11
978.73527467668055
 21
910.56676138501075
  0
LINE
  8
_0-6_鋼板__アングル
  6
CONTINUOUS
 62
    2
 10
959.53527467667982
 20
539.36676138500957
 11
1160.735274676681
 21
539.36676138500957
  0
LINE
  8
_0-6_鋼板__アングル
  6
CONTINUOUS
 62
    2
 10
960.735274676681
 20
540.56676138501075
 11
1160.735274676681
 21
540.56676138501075
  0
LINE
  8
_0-6_鋼板__アングル
  6
CONTINUOUS
 62
    2
 10
1160.735274676681
 20
539.36676138500957
 11
1160.735274676681
 21
540.56676138501075
  0
LINE
  8
_0-6_鋼板__アングル
  6
CONTINUOUS
 62
    2
 10
959.53527467667982
 20
539.36676138500957
 11
959.53527467667982
 21
640.56676138500848
  0
LINE
  8
_0-6_鋼板__アングル
  6
CONTINUOUS
 62
    2
 10
959.53527467667982
 20
640.56676138500848
 11
960.735274676681
 21
640.56676138500848
  0
LINE
  8
_0-6_鋼板__アングル
  6
CONTINUOUS
 62
    2
 10
960.735274676681
 20
540.56676138501075
 11
960.735274676681
 21
640.56676138500848
  0
ARC
  8
_0-6_鋼板__アングル
  6
CONTINUOUS
 62
    2
 10
990.91532260602662
 20
591.81791017193632
 40
10.199999999999999
 50
190.00000000000003
 51
270
  0
ARC
  8
_0-6_鋼板__アングル
  6
CONTINUOUS
 62
    2
 10
990.91532260602662
 20
591.81791017193632
 40
9
 50
190.00000000000003
 51
270
  0
LINE
  8
_0-6_鋼板__アングル
  6
CONTINUOUS
 62
    2
 10
979.76136350694105
 20
596.33569669926942
 11
980.87028352530069
 21
590.04669875973264
  0
LINE
  8
_0-6_鋼板__アングル
  6
CONTINUOUS
 62
    2
 10
980.9431328105552
 20
596.54407451247039
 11
982.05205282891711
 21
590.2550765729336
  0
ARC
  8
_0-6_鋼板__アングル
  6
CONTINUOUS
 62
    2
 10
975.32972861838743
 20
595.55427989976693
 40
5.700000000000002
 50
10.000000000000218
 51
42.27368900609229
  0
ARC
  8
_0-6_鋼板__アングル
  6
CONTINUOUS
 62
    2
 10
975.32972861838743
 20
595.55427989976693
 40
4.5
 50
10.000000000000014
 51
42.27368900609229
  0
LINE
  8
_0-6_鋼板__アングル
  6
CONTINUOUS
 62
    2
 10
978.65945894866854
 20
598.5813074727514
 11
977.53527467668164
 21
599.81791017193586
  0
LINE
  8
_0-6_鋼板__アングル
  6
CONTINUOUS
 62
    2
 10
978.42320276475675
 20
600.62511752473142
 11
977.53527467668164
 21
599.81791017193586
  0
LINE
  8
_0-6_鋼板__アングル
  6
CONTINUOUS
 62
    2
 10
979.54738703674366
 20
599.38851482554696
 11
978.42320276475675
 21
600.62511752473142
  0
LINE
  8
_0-6_鋼板__アングル
  6
CONTINUOUS
 62
    2
 10
1032.776925896942
 20
581.2597750176667
 11
1035.0565063680165
 21
579.31791017193632
  0
ARC
  8
_0-6_鋼板__アングル
  6
CONTINUOUS
 62
    2
 10
1031.8042262135441
 20
580.11791017193559
 40
2.7000000000000002
 50
49.573921259901446
 51
90
  0
ARC
  8
_0-6_鋼板__アングル
  6
CONTINUOUS
 62
    2
 10
1031.8042262135441
 20
580.11791017193559
 40
1.5000000000000002
 50
49.573921259901446
 51
90
  0
LINE
  8
_0-6_鋼板__アングル
  6
CONTINUOUS
 62
    2
 10
1033.5550856436635
 20
582.17326689425022
 11
1035.834666114738
 21
580.23140204851984
  0
LINE
  8
_0-6_鋼板__アングル
  6
CONTINUOUS
 62
    2
 10
1035.834666114738
 20
580.23140204851984
 11
1035.0565063680165
 21
579.31791017193632
  0
LINE
  8
ADD_LINE
  6
DOT
 62
    4
 10
1010.0565063680165
 20
548.63886617193543
 11
1010.0565063680165
 21
588.55305737193589
  0
LINE
  8
_0-6_鋼板__アングル
  6
CONTINUOUS
 62
    2
 10
1004.2035195220114
 20
582.320207745787
 11
1006.8065063680183
 21
580.31791017193541
  0
ARC
  8
_0-6_鋼板__アングル
  6
CONTINUOUS
 62
    2
 10
1002.7402136959722
 20
580.41791017193532
 40
2.3999999999999999
 50
52.431407971173961
 51
90
  0
LINE
  8
_0-6_鋼板__アングル
  6
CONTINUOUS
 62
    2
 10
1015.9094932140238
 20
582.320207745787
 11
1013.3065063680169
 21
580.31791017193541
  0
ARC
  8
_0-6_鋼板__アングル
  6
CONTINUOUS
 62
    2
 10
1017.372799040063
 20
580.41791017193532
 40
2.3999999999999999
 50
90
 51
127.56859202882603
  0
LINE
  8
_0-6_鋼板__アングル
  6
CONTINUOUS
 62
    4
 10
1002.7402136959722
 20
582.81791017193541
 11
1017.372799040063
 21
582.81791017193541
  0
LINE
  8
_0-6_鋼板__アングル
  6
CONTINUOUS
 62
    4
 10
1013.3065063680169
 20
580.31791017193541
 11
1006.8065063680183
 21
580.31791017193541
  0
LINE
  8
_0-6_鋼板__アングル
  6
CONTINUOUS
 62
    2
 10
1006.8065063680183
 20
580.31791017193541
 11
1006.0748534549975
 21
579.36676138500957
  0
LINE
  8
_0-6_鋼板__アングル
  6
CONTINUOUS
 62
    2
 10
1013.3065063680169
 20
580.31791017193541
 11
1014.0381592810377
 21
579.36676138500957
  0
LINE
  8
_0-6_鋼板__アングル
  6
CONTINUOUS
 62
    4
 10
1014.0381592810377
 20
579.36676138500957
 11
1006.0748534549975
 21
579.36676138500957
  0
LINE
  8
_0-6_鋼板__アングル
  6
CONTINUOUS
 62
    2
 10
1003.4718666089907
 20
581.36905895886116
 11
1006.0748534549975
 21
579.36676138500957
  0
ARC
  8
_0-6_鋼板__アングル
  6
CONTINUOUS
 62
    2
 10
1002.7402136959722
 20
580.41791017193532
 40
1.2
 50
52.431407971174927
 51
90
  0
LINE
  8
_0-6_鋼板__アングル
  6
CONTINUOUS
 62
    2
 10
1016.6411461270445
 20
581.36905895886116
 11
1014.0381592810377
 21
579.36676138500957
  0
ARC
  8
_0-6_鋼板__アングル
  6
CONTINUOUS
 62
    2
 10
1017.372799040063
 20
580.41791017193532
 40
1.2
 50
89.999999999999943
 51
127.56859202882802
  0
LINE
  8
_0-6_鋼板__アングル
  6
CONTINUOUS
 62
    2
 10
990.91532260602662
 20
582.81791017193541
 11
1002.7402136959722
 21
582.81791017193541
  0
LINE
  8
_0-6_鋼板__アングル
  6
CONTINUOUS
 62
    2
 10
1017.372799040063
 20
582.81791017193541
 11
1031.8042262135441
 21
582.81791017193541
  0
LINE
  8
_0-6_鋼板__アングル
  6
CONTINUOUS
 62
    2
 10
990.91532260602662
 20
581.6179101719365
 11
1002.7402136959722
 21
581.6179101719365
  0
LINE
  8
_0-6_鋼板__アングル
  6
CONTINUOUS
 62
    2
 10
1017.372799040063
 20
581.6179101719365
 11
1031.8042262135441
 21
581.6179101719365
  0
LINE
  8
_0-6_鋼板__アングル
  6
CONTINUOUS
 62
    2
 10
882.85459906694996
 20
943.52020774578591
 11
880.25161222094539
 21
941.51791017193432
  0
LINE
  8
_0-6_鋼板__アングル
  6
CONTINUOUS
 62
    2
 10
871.14862537493764
 20
943.52020774578591
 11
873.75161222094448
 21
941.51791017193432
  0
LINE
  8
_0-6_鋼板__アングル
  6
CONTINUOUS
 62
    4
 10
884.31790489298919
 20
944.01791017193432
 11
869.68531954889841
 21
944.01791017193432
  0
LINE
  8
_0-6_鋼板__アングル
  6
CONTINUOUS
 62
    4
 10
873.75161222094448
 20
941.51791017193432
 11
880.25161222094539
 21
941.51791017193432
  0
LINE
  8
_0-6_鋼板__アングル
  6
CONTINUOUS
 62
    2
 10
880.25161222094539
 20
941.51791017193432
 11
880.98326513396387
 21
940.56676138501075
  0
LINE
  8
_0-6_鋼板__アングル
  6
CONTINUOUS
 62
    2
 10
873.75161222094448
 20
941.51791017193432
 11
873.01995930792373
 21
940.56676138501075
  0
LINE
  8
_0-6_鋼板__アングル
  6
CONTINUOUS
 62
    4
 10
873.01995930792373
 20
940.56676138501075
 11
880.98326513396387
 21
940.56676138501075
  0
LINE
  8
_0-6_鋼板__アングル
  6
CONTINUOUS
 62
    2
 10
883.58625197997071
 20
942.56905895886007
 11
880.98326513396387
 21
940.56676138501075
  0
LINE
  8
_0-6_鋼板__アングル
  6
CONTINUOUS
 62
    2
 10
870.41697246191916
 20
942.56905895886007
 11
873.01995930792373
 21
940.56676138501075
  0
LINE
  8
ADD_LINE
  6
DOT
 62
    4
 10
877.00161222094493
 20
955.57069887278317
 11
877.00161222094493
 21
921.38634268272085
  0
ARC
  8
_0-6_鋼板__アングル
  6
CONTINUOUS
 62
    2
 10
884.31790489298919
 20
941.61791017193423
 40
1.2
 50
90
 51
127.56859202882507
  0
ARC
  8
_0-6_鋼板__アングル
  6
CONTINUOUS
 62
    2
 10
884.31790489298919
 20
941.61791017193423
 40
2.3999999999999999
 50
90
 51
127.56859202882603
  0
ARC
  8
_0-6_鋼板__アングル
  6
CONTINUOUS
 62
    2
 10
869.68531954889841
 20
941.61791017193423
 40
1.2
 50
52.431407971171978
 51
90
  0
ARC
  8
_0-6_鋼板__アングル
  6
CONTINUOUS
 62
    2
 10
869.68531954889841
 20
941.61791017193423
 40
2.3999999999999999
 50
52.431407971173961
 51
90
  0
LINE
  8
_0-6_鋼板__アングル
  6
CONTINUOUS
 62
    2
 10
823.31118242221692
 20
942.81791017192404
 11
869.68531954889841
 21
942.81791017192404
  0
LINE
  8
_0-6_鋼板__アングル
  6
CONTINUOUS
 62
    2
 10
822.00161222094493
 20
944.01791017193432
 11
869.68531954889841
 21
944.01791017193432
  0
LINE
  8
_0-6_鋼板__アングル
  6
CONTINUOUS
 62
    2
 10
898.94387200315123
 20
942.45977501766561
 11
901.22345247422572
 21
940.51791017193523
  0
ARC
  8
_0-6_鋼板__アングル
  6
CONTINUOUS
 62
    2
 10
897.97117231975108
 20
941.3179101719345
 40
2.7000000000000002
 50
49.573921259901446
 51
90
  0
ARC
  8
_0-6_鋼板__アングル
  6
CONTINUOUS
 62
    2
 10
897.97117231975108
 20
941.3179101719345
 40
1.5000000000000002
 50
49.573921259901446
 51
90
  0
LINE
  8
_0-6_鋼板__アングル
  6
CONTINUOUS
 62
    2
 10
899.72203174987044
 20
943.37326689424913
 11
902.00161222094493
 21
941.43140204851875
  0
LINE
  8
_0-6_鋼板__アングル
  6
CONTINUOUS
 62
    2
 10
902.00161222094493
 20
941.43140204851875
 11
901.22345247422572
 21
940.51791017193523
  0
LINE
  8
_0-6_鋼板__アングル
  6
CONTINUOUS
 62
    2
 10
884.31790489298919
 20
942.81791017192404
 11
897.97117231975108
 21
942.81791017192404
  0
LINE
  8
_0-6_鋼板__アングル
  6
CONTINUOUS
 62
    2
 10
884.31790489298919
 20
944.01791017193432
 11
897.97117231975108
 21
944.01791017193432
  0
LINE
  8
_0-2_線色２__白__
  6
CONTINUOUS
 62
    7
 10
902.00161222094493
 20
941.43140204851875
 11
903.01662517375917
 21
940.56676138501075
  0
LINE
  8
_0-4_線色４__黄__
  6
CONTINUOUS
 62
    2
 10
832.7494880835593
 20
949.01791017193432
 11
900.80621044605095
 21
949.01791017193432
  0
LINE
  8
_0-4_線色４__黄__
  6
CONTINUOUS
 62
    2
 10
900.80621044605095
 20
949.01791017193432
 11
904.85755902200481
 21
945.56676138501075
  0
LINE
  8
_0-4_線色４__黄__
  6
CONTINUOUS
 62
    2
 10
980.735274676681
 20
945.56676138501075
 11
904.85755902200481
 21
945.56676138501075
  0
LINE
  8
_0-8_笠木他
  6
CONTINUOUS
 62
    4
 10
940.42120780038431
 20
953.01791017193523
 11
867.84902116036164
 21
953.01791017193523
  0
LINE
  8
_0-8_笠木他
  6
CONTINUOUS
 62
    4
 10
941.22767224203017
 20
949.01791017193432
 11
867.0430934907472
 21
949.01791017193432
  0
LINE
  8
_0-8_笠木他
  6
CONTINUOUS
 62
    4
 10
867.0430934907472
 20
949.01791017193432
 11
867.04655911779355
 21
977.57276907304117
  0
LINE
  8
_0-8_笠木他
  6
CONTINUOUS
 62
    4
 10
867.84902116036164
 20
953.01791017193523
 11
867.83890627873006
 21
978.92305358992758
  0
LINE
  8
_0-8_笠木他
  6
CONTINUOUS
 62
    4
 10
941.22767224203017
 20
949.01791017193432
 11
941.22369027192008
 21
972.62762688664338
  0
LINE
  8
_0-8_笠木他
  6
CONTINUOUS
 62
    4
 10
940.42120780038431
 20
953.01791017193523
 11
940.43266554772117
 21
974.08346953154364
  0
LINE
  8
ADD_LINE
  6
DOT
 62
    4
 10
904.13527467667791
 20
1005.500231460868
 11
904.13527467667791
 21
898.14816907147019
  0
LINE
  8
ADD_LINE
  6
DOT
 62
    4
 10
875.13527467667927
 20
953.01791017193523
 11
875.13527467667927
 21
919.01791017193432
  0
LINE
  8
ADD_LINE
  6
DOT
 62
    4
 10
933.13527467667882
 20
953.01791017193523
 11
933.13527467667882
 21
919.01791017193432
  0
LINE
  8
_0-8_笠木他
  6
CONTINUOUS
 62
    4
 10
1000.735274676681
 20
918.26115858081153
 11
1000.735274676681
 21
922.58008306762918
  0
LINE
  8
_0-8_笠木他
  6
CONTINUOUS
 62
    4
 10
806.13527467668064
 20
918.20443347913283
 11
806.13527467668064
 21
983.23707307284508
  0
LINE
  8
_0-8_笠木他
  6
CONTINUOUS
 62
    4
 10
867.83890627873006
 20
978.92305358992758
 11
812.65289155715891
 21
982.60212131946332
  0
LINE
  8
_0-8_笠木他
  6
CONTINUOUS
 62
    4
 10
867.04655911779355
 20
977.57276907304117
 11
814.00238372882313
 21
981.10904751057546
  0
LINE
  8
_0-8_笠木他
  6
CONTINUOUS
 62
    4
 10
806.13527467668064
 20
918.20443347913283
 11
808.12727167668072
 21
918.20375494621089
  0
LINE
  8
_0-8_笠木他
  6
CONTINUOUS
 62
    4
 10
808.12727167668072
 20
918.20375494621089
 11
808.12626401107536
 21
916.20817894621155
  0
LINE
  8
_0-8_笠木他
  6
CONTINUOUS
 62
    4
 10
804.13527467667791
 20
916.20817894621155
 11
808.12626401107536
 21
916.20817894621155
  0
LINE
  8
_0-8_笠木他
  6
CONTINUOUS
 62
    4
 10
804.13527467667791
 20
916.20817894621155
 11
804.13527467667791
 21
985.37484592644319
  0
LINE
  8
_0-8_笠木他
  6
CONTINUOUS
 62
    4
 10
807.54200544859032
 20
921.97859589999211
 11
814.00238372882313
 21
981.10904751057546
  0
LINE
  8
_0-8_笠木他
  6
CONTINUOUS
 62
    4
 10
807.54240070857577
 20
918.20395417051145
 11
807.54200544859032
 21
921.97859589999211
  0
LINE
  8
_0-8_笠木他
  6
CONTINUOUS
 62
    4
 10
806.13527467668064
 20
922.71805657023265
 11
812.65289155715891
 21
982.60212131946332
  0
LINE
  8
_0-8_笠木他
  6
CONTINUOUS
 62
    4
 10
1004.1352746766779
 20
972.04151229799095
 11
804.13527467667791
 21
985.37484592644319
  0
LINE
  8
_0-8_笠木他
  6
CONTINUOUS
 62
    4
 10
1002.1352746766797
 20
970.17040611696189
 11
806.13527467668064
 21
983.23707307284508
  0
LINE
  8
_0-8_笠木他
  6
CONTINUOUS
 62
    4
 10
995.37470840746209
 20
970.42066659315537
 11
940.43266554772117
 21
974.08346953154364
  0
LINE
  8
_0-8_笠木他
  6
CONTINUOUS
 62
    4
 10
1002.1352746766797
 20
923.06691580015354
 11
995.37470840746209
 21
970.42066659315537
  0
LINE
  8
_0-8_笠木他
  6
CONTINUOUS
 62
    4
 10
994.10551462408193
 20
969.10217185179931
 11
941.22369027192008
 21
972.62762688664338
  0
LINE
  8
_0-8_笠木他
  6
CONTINUOUS
 62
    4
 10
1000.735274676681
 20
922.58008306762918
 11
994.10551462408193
 21
969.10217185179931
  0
LINE
  8
_0-8_笠木他
  6
CONTINUOUS
 62
    4
 10
1000.15445067668
 20
918.2513149462136
 11
1000.1554823576953
 21
916.20817894621155
  0
LINE
  8
_0-8_笠木他
  6
CONTINUOUS
 62
    4
 10
1002.1352746766797
 20
918.25092043991276
 11
1000.15445067668
 21
918.2513149462136
  0
LINE
  8
_0-8_笠木他
  6
CONTINUOUS
 62
    4
 10
1002.1352746766797
 20
918.25092043991276
 11
1002.1352746766797
 21
970.17040611696189
  0
LINE
  8
_0-8_笠木他
  6
CONTINUOUS
 62
    4
 10
1000.1554823576953
 20
916.20817894621155
 11
1004.1352746766779
 21
916.20817894621155
  0
LINE
  8
_0-8_笠木他
  6
CONTINUOUS
 62
    4
 10
1004.1352746766779
 20
916.20817894621155
 11
1004.1352746766779
 21
972.04151229799095
  0
LINE
  8
ADD_LINE
  6
DOT
 62
    4
 10
989.53527549138926
 20
427.41257113848746
 11
989.53527549138926
 21
556.06692198168957
  0
LINE
  8
ADD_LINE
  6
DOT
 62
    4
 10
1189.5352754913893
 20
427.41257113848746
 11
1189.5352754913893
 21
556.06692198168957
  0
LINE
  8
_0-5_金属
  6
CONTINUOUS
 62
    7
 10
959.53527467667982
 20
593.6667613850102
 11
959.53527467667982
 21
374.06741237025585
  0
LINE
  8
_0-5_金属
  6
CONTINUOUS
 62
    7
 10
859.53527467667755
 20
593.6667613850102
 11
859.53527467667755
 21
374.06741237025585
  0
LINE
  8
_0-5_金属
  6
CONTINUOUS
 62
    7
 10
879.53527467667755
 20
589.36676138500957
 11
879.53527467667755
 21
374.06741237025585
  0
LINE
  8
_0-5_金属
  6
CONTINUOUS
 62
    7
 10
939.53527467667755
 20
589.36676138500957
 11
939.53527467667755
 21
374.06741237025585
  0
LINE
  8
_0-3_線色３__緑__
  6
CONTINUOUS
 62
    3
 10
824.53527467667755
 20
374.06741237025585
 11
824.53527467667755
 21
939.36676138500957
  0
LINE
  8
_0-2_線色２__白__
  6
CONTINUOUS
 62
    7
 10
859.53527467667755
 20
374.06741237025585
 11
859.53527467667755
 21
939.36676138500957
  0
LINE
  8
_0-d_断熱__ハッチ
  6
CONTINUOUS
 62
    4
 10
833.28527467667755
 20
937.36676138501139
 11
833.28527467667755
 21
374.06741237025585
  0
LINE
  8
_0-d_断熱__ハッチ
  6
CONTINUOUS
 62
    4
 10
850.78527467667755
 20
937.36676138501139
 11
850.78527467667755
 21
374.06741237025585
  0
LINE
  8
_0-d_断熱__ハッチ
  6
CONTINUOUS
 62
    4
 10
842.03527467667755
 20
937.36676138501139
 11
842.03527467667755
 21
374.06741237025585
  0
LINE
  8
_0-4_線色４__黄__
  6
CONTINUOUS
 62
    2
 10
1046.52867883098
 20
584.36676138500957
 11
1289.5352530413902
 21
584.36676138500957
  0
LINE
  8
_0-2_線色２__白__
  6
CONTINUOUS
 62
    7
 10
977.53527467667936
 20
574.36676138500957
 11
1289.5352530413902
 21
574.36676138500957
  0
LINE
  8
_0-2_線色２__白__
  6
CONTINUOUS
 62
    7
 10
977.53527467667936
 20
579.36676138500957
 11
1289.5352530413902
 21
579.36676138500957
  0
ARC
  8
_0-1_線色１__水色__
  6
CONTINUOUS
 62
    4
 10
1237.9805846322006
 20
577.82509472431343
 40
1.2083333333333581
 50
307.52351320333912
 51
232.47648680464988
  0
ARC
  8
_0-1_線色１__水色__
  6
CONTINUOUS
 62
    4
 10
1239.452544776675
 20
575.90842805771331
 40
1.2083333333333177
 50
127.52351320610693
 51
52.47648680188081
  0
ARC
  8
_0-1_線色１__水色__
  6
CONTINUOUS
 62
    4
 10
1236.5086244879922
 20
575.90842805750867
 40
1.2083333333333177
 50
127.52351320610693
 51
52.47648680188081
  0
ARC
  8
_0-1_線色１__水色__
  6
CONTINUOUS
 62
    4
 10
1264.4758672303487
 20
577.82509472431343
 40
1.2083333333333581
 50
307.52351320333912
 51
232.47648680464988
  0
ARC
  8
_0-1_線色１__水色__
  6
CONTINUOUS
 62
    4
 10
1261.5319469416681
 20
577.82509472410879
 40
1.2083333333333581
 50
307.52351320333912
 51
232.47648680464988
  0
ARC
  8
_0-1_線色１__水色__
  6
CONTINUOUS
 62
    4
 10
1263.0039070861426
 20
575.90842805750867
 40
1.2083333333333177
 50
127.52351320610693
 51
52.47648680188081
  0
ARC
  8
_0-1_線色１__水色__
  6
CONTINUOUS
 62
    4
 10
1258.588026652983
 20
577.82509472390416
 40
1.2083333333333581
 50
307.52351320333912
 51
232.47648680464988
  0
ARC
  8
_0-1_線色１__水色__
  6
CONTINUOUS
 62
    4
 10
1260.0599867974597
 20
575.90842805730404
 40
1.2083333333333177
 50
127.52351320610693
 51
52.47648680188081
  0
ARC
  8
_0-1_線色１__水色__
  6
CONTINUOUS
 62
    4
 10
1255.6441063643001
 20
577.82509472369725
 40
1.2083333333333581
 50
307.52351320333912
 51
232.47648680464988
  0
ARC
  8
_0-1_線色１__水色__
  6
CONTINUOUS
 62
    4
 10
1257.1160665087746
 20
575.9084280570994
 40
1.2083333333333177
 50
127.52351320610693
 51
52.47648680188081
  0
ARC
  8
_0-1_線色１__水色__
  6
CONTINUOUS
 62
    4
 10
1252.7001860756172
 20
577.82509472349261
 40
1.2083333333333581
 50
307.52351320333912
 51
232.47648680464988
  0
ARC
  8
_0-1_線色１__水色__
  6
CONTINUOUS
 62
    4
 10
1254.1721462200917
 20
575.90842805689249
 40
1.2083333333333177
 50
127.52351320610693
 51
52.47648680188081
  0
ARC
  8
_0-1_線色１__水色__
  6
CONTINUOUS
 62
    4
 10
1249.7562657869321
 20
577.82509472328798
 40
1.2083333333333581
 50
307.52351320333912
 51
232.47648680464988
  0
ARC
  8
_0-1_線色１__水色__
  6
CONTINUOUS
 62
    4
 10
1251.2282259314088
 20
575.90842805668785
 40
1.2083333333333177
 50
127.52351320610693
 51
52.47648680188081
  0
ARC
  8
_0-1_線色１__水色__
  6
CONTINUOUS
 62
    4
 10
1243.8684252095663
 20
577.82509472287643
 40
1.2083333333333581
 50
307.52351320333912
 51
232.47648680464988
  0
ARC
  8
_0-1_線色１__水色__
  6
CONTINUOUS
 62
    4
 10
1246.8123454982515
 20
577.82509472308334
 40
1.2083333333333581
 50
307.52351320333912
 51
232.47648680464988
  0
ARC
  8
_0-1_線色１__水色__
  6
CONTINUOUS
 62
    4
 10
1245.3403853540431
 20
575.90842805627858
 40
1.2083333333333177
 50
127.52351320610693
 51
52.47648680188081
  0
ARC
  8
_0-1_線色１__水色__
  6
CONTINUOUS
 62
    4
 10
1248.2843056427259
 20
575.90842805648322
 40
1.2083333333333177
 50
127.52351320610693
 51
52.47648680188081
  0
ARC
  8
_0-1_線色１__水色__
  6
CONTINUOUS
 62
    4
 10
1242.3964650653579
 20
575.90842805607167
 40
1.2083333333333177
 50
127.52351320610693
 51
52.47648680188081
  0
ARC
  8
_0-1_線色１__水色__
  6
CONTINUOUS
 62
    4
 10
1240.9245049208835
 20
577.82509472267179
 40
1.2083333333333581
 50
307.52351320333912
 51
232.47648680464988
  0
ARC
  8
_0-1_線色１__水色__
  6
CONTINUOUS
 62
    4
 10
1267.4197875190339
 20
577.82509472451807
 40
1.2083333333333581
 50
307.52351320333912
 51
232.47648680464988
  0
ARC
  8
_0-1_線色１__水色__
  6
CONTINUOUS
 62
    4
 10
1268.8917476635083
 20
575.90842805791794
 40
1.2083333333333177
 50
127.52351320610693
 51
52.47648680188081
  0
ARC
  8
_0-1_線色１__水色__
  6
CONTINUOUS
 62
    4
 10
1265.9478273748255
 20
575.90842805771331
 40
1.2083333333333177
 50
127.52351320610693
 51
52.47648680188081
  0
ARC
  8
_0-1_線色１__水色__
  6
CONTINUOUS
 62
    4
 10
1288.0272295398163
 20
577.82509472410879
 40
1.2083333333333581
 50
307.52351320333912
 51
232.47648680464988
  0
ARC
  8
_0-1_線色１__水色__
  6
CONTINUOUS
 62
    4
 10
1285.0833092511334
 20
577.82509472390188
 40
1.2083333333333581
 50
307.52351320333912
 51
232.47648680464988
  0
ARC
  8
_0-1_線色１__水色__
  6
CONTINUOUS
 62
    4
 10
1286.5552693956079
 20
575.90842805730404
 40
1.2083333333333177
 50
127.52351320610693
 51
52.47648680188081
  0
ARC
  8
_0-1_線色１__水色__
  6
CONTINUOUS
 62
    4
 10
1282.1393889624505
 20
577.82509472369725
 40
1.2083333333333581
 50
307.52351320333912
 51
232.47648680464988
  0
ARC
  8
_0-1_線色１__水色__
  6
CONTINUOUS
 62
    4
 10
1283.611349106925
 20
575.90842805709713
 40
1.2083333333333177
 50
127.52351320610693
 51
52.47648680188081
  0
ARC
  8
_0-1_線色１__水色__
  6
CONTINUOUS
 62
    4
 10
1279.1954686737654
 20
577.82509472349261
 40
1.2083333333333581
 50
307.52351320333912
 51
232.47648680464988
  0
ARC
  8
_0-1_線色１__水色__
  6
CONTINUOUS
 62
    4
 10
1280.6674288182421
 20
575.90842805689249
 40
1.2083333333333177
 50
127.52351320610693
 51
52.47648680188081
  0
ARC
  8
_0-1_線色１__水色__
  6
CONTINUOUS
 62
    4
 10
1273.3076280963996
 20
577.82509472308107
 40
1.2083333333333581
 50
307.52351320333912
 51
232.47648680464988
  0
ARC
  8
_0-1_線色１__水色__
  6
CONTINUOUS
 62
    4
 10
1276.2515483850848
 20
577.82509472328798
 40
1.2083333333333581
 50
307.52351320333912
 51
232.47648680464988
  0
ARC
  8
_0-1_線色１__水色__
  6
CONTINUOUS
 62
    4
 10
1274.7795882408764
 20
575.90842805648322
 40
1.2083333333333177
 50
127.52351320610693
 51
52.47648680188081
  0
ARC
  8
_0-1_線色１__水色__
  6
CONTINUOUS
 62
    4
 10
1277.7235085295592
 20
575.90842805668785
 40
1.2083333333333177
 50
127.52351320610693
 51
52.47648680188081
  0
ARC
  8
_0-1_線色１__水色__
  6
CONTINUOUS
 62
    4
 10
1271.8356679521912
 20
575.90842805627631
 40
1.2083333333333177
 50
127.52351320610693
 51
52.47648680188081
  0
ARC
  8
_0-1_線色１__水色__
  6
CONTINUOUS
 62
    4
 10
1270.3637078077168
 20
577.82509472287643
 40
1.2083333333333581
 50
307.52351320333912
 51
232.47648680464988
  0
LINE
  8
_0-d_断熱__ハッチ
  6
CONTINUOUS
 62
    4
 10
1197.7616490578339
 20
539.36676138501866
 11
1232.7616490578293
 21
574.36676138501412
  0
LINE
  8
_0-d_断熱__ハッチ
  6
CONTINUOUS
 62
    4
 10
1206.9945600025994
 20
574.36676138501412
 11
1241.9945600026017
 21
539.36676138501412
  0
LINE
  8
_0-d_断熱__ハッチ
  6
CONTINUOUS
 62
    4
 10
1226.045920305296
 20
539.36676138502321
 11
1261.0459203052915
 21
574.36676138501866
  0
LINE
  8
_0-d_断熱__ハッチ
  6
CONTINUOUS
 62
    4
 10
1235.2788312500616
 20
574.36676138501866
 11
1270.2788312500661
 21
539.36676138501866
  0
LINE
  8
_0-d_断熱__ハッチ
  6
CONTINUOUS
 62
    4
 10
1254.3301915527604
 20
539.36676138502833
 11
1289.3301915527559
 21
574.36676138502378
  0
ARC
  8
_0-1_線色１__水色__
  6
CONTINUOUS
 62
    4
 10
1289.499189684293
 20
575.90842805750867
 40
1.2083333333333177
 50
127.52351320610693
 51
271.71027727288657
  0
LINE
  8
_0-d_断熱__ハッチ
  6
CONTINUOUS
 62
    4
 10
1263.563102497526
 20
574.36676138502378
 11
1289.5352530413902
 21
548.39461084116181
  0
LINE
  8
_0-d_断熱__ハッチ
  6
CONTINUOUS
 62
    4
 10
1282.6144628002226
 20
539.36676138503344
 11
1289.5352530413902
 21
546.28755162619996
  0
LINE
  8
_0-5_金属
  6
CONTINUOUS
 62
    7
 10
959.53527467667982
 20
439.36654213499651
 11
1289.5352530413902
 21
439.36654213499651
  0
LINE
  8
ADD_LINE
  6
DOT
 62
    4
 10
1010.0565063680165
 20
499.69854550998434
 11
1010.0565063680165
 21
589.31526525260097
  0
LINE
  8
_0-7_ビス
  6
CONTINUOUS
 62
    7
 10
1016.0565063680178
 20
582.43329478731937
 11
1016.0565063680178
 21
582.81791017193541
  0
LINE
  8
_0-7_ビス
  6
DASHED3
 62
    7
 10
1011.5239744842711
 20
580.26854064110751
 11
1012.6065222041643
 21
582.81791017193541
  0
LINE
  8
_0-7_ビス
  6
CONTINUOUS
 62
    7
 10
1004.0565063680174
 20
582.43329478731937
 11
1004.0565063680174
 21
582.81791017193541
  0
LINE
  8
_0-7_ビス
  6
DASHED3
 62
    7
 10
1008.5890382517618
 20
580.26854064110751
 11
1007.5064905318686
 21
582.81791017193541
  0
LINE
  8
_0-7_ビス
  6
CONTINUOUS
 62
    7
 10
1016.0565063680178
 20
582.43329478731937
 11
1004.0565063680174
 21
582.43329478731937
  0
LINE
  8
_0-7_ビス
  6
CONTINUOUS
 62
    7
 10
1016.0565063680178
 20
582.81791017193541
 11
1004.0565063680174
 21
582.81791017193541
  0
ARC
  8
_0-7_ビス
  6
DASHED3
 62
    7
 10
1010.0565063680165
 20
581.37908373937421
 40
1.8403175392666382
 50
217.11750793457031
 51
322.88247680664062
  0
LINE
  8
_0-7_ビス
  6
CONTINUOUS
 62
    7
 10
1014.1422928056431
 20
580.51908122494638
 11
1016.0565063680178
 21
582.43329478731937
  0
ARC
  8
_0-7_ビス
  6
CONTINUOUS
 62
    7
 10
1015.556506368016
 20
579.1048676625735
 40
2
 50
135.00000000000153
 51
180.00000000000003
  0
LINE
  8
_0-7_ビス
  6
CONTINUOUS
 62
    7
 10
1005.9707199303898
 20
580.51908122494638
 11
1004.0565063680151
 21
582.43329478731937
  0
ARC
  8
_0-7_ビス
  6
CONTINUOUS
 62
    7
 10
1004.5565063680169
 20
579.1048676625735
 40
2
 50
0
 51
44.999999999998501
  0
LINE
  8
_0-7_ビス
  6
CONTINUOUS
 62
    7
 10
1013.5565063680178
 20
578.81791017193507
 11
1006.5565063680151
 21
578.81791017193507
  0
LINE
  8
_0-7_ビス
  6
CONTINUOUS
 62
    7
 10
1006.5565063680151
 20
509.83863611409788
 11
1010.0565063680165
 21
507.81791017193541
  0
LINE
  8
_0-7_ビス
  6
CONTINUOUS
 62
    7
 10
1006.5565063680151
 20
579.1048676625735
 11
1006.5565063680151
 21
509.83863611409788
  0
LINE
  8
_0-7_ビス
  6
CONTINUOUS
 62
    7
 10
1013.5565063680178
 20
513.31791017193495
 11
1006.5565063680151
 21
513.31791017193495
  0
LINE
  8
_0-7_ビス
  6
CONTINUOUS
 62
    7
 10
1013.5565063680178
 20
509.83863611409902
 11
1010.0565063680165
 21
507.81791017193541
  0
LINE
  8
_0-7_ビス
  6
CONTINUOUS
 62
    7
 10
1013.5565063680178
 20
579.1048676625735
 11
1013.5565063680178
 21
509.83863611409902
  0
LINE
  8
_0-7_ビス
  6
CONTINUOUS
 62
    7
 10
1013.5565063680178
 20
567.81791017193541
 11
1006.5565063680151
 21
567.81791017193541
  0
LINE
  8
_0-7_ビス
  6
CONTINUOUS
 62
    4
 10
1006.5565063680151
 20
566.6181068125411
 11
1011.034086809957
 21
567.81791017193541
  0
LINE
  8
_0-7_ビス
  6
CONTINUOUS
 62
    4
 10
1006.5565063680151
 20
554.31188628316363
 11
1013.5565063680178
 21
556.18759206325308
  0
LINE
  8
_0-7_ビス
  6
CONTINUOUS
 62
    4
 10
1006.5565063680151
 20
556.31188628316409
 11
1013.5565063680178
 21
558.1875920632524
  0
LINE
  8
_0-7_ビス
  6
CONTINUOUS
 62
    4
 10
1006.5565063680151
 20
558.31188628316454
 11
1013.5565063680178
 21
560.18759206325285
  0
LINE
  8
_0-7_ビス
  6
CONTINUOUS
 62
    4
 10
1006.5565063680151
 20
560.31188628316386
 11
1013.5565063680178
 21
562.18759206325274
  0
LINE
  8
_0-7_ビス
  6
CONTINUOUS
 62
    4
 10
1006.5565063680151
 20
562.31188628316431
 11
1013.5565063680178
 21
564.18759206325262
  0
LINE
  8
_0-7_ビス
  6
CONTINUOUS
 62
    4
 10
1006.5565063680151
 20
564.31188628316477
 11
1013.5565063680178
 21
566.18759206325308
  0
LINE
  8
_0-7_ビス
  6
CONTINUOUS
 62
    4
 10
1006.5565063680151
 20
542.0056657537873
 11
1013.5565063680178
 21
543.88137153387561
  0
LINE
  8
_0-7_ビス
  6
CONTINUOUS
 62
    4
 10
1006.5565063680151
 20
544.00566575378775
 11
1013.5565063680178
 21
545.88137153387606
  0
LINE
  8
_0-7_ビス
  6
CONTINUOUS
 62
    4
 10
1006.5565063680151
 20
546.00566575378707
 11
1013.5565063680178
 21
547.88137153387538
  0
LINE
  8
_0-7_ビス
  6
CONTINUOUS
 62
    4
 10
1006.5565063680151
 20
548.00566575378753
 11
1013.5565063680178
 21
549.88137153387584
  0
LINE
  8
_0-7_ビス
  6
CONTINUOUS
 62
    4
 10
1006.5565063680151
 20
550.00566575378684
 11
1013.5565063680178
 21
551.88137153387572
  0
LINE
  8
_0-7_ビス
  6
CONTINUOUS
 62
    4
 10
1006.5565063680151
 20
552.0056657537873
 11
1013.5565063680178
 21
553.88137153387618
  0
LINE
  8
_0-7_ビス
  6
CONTINUOUS
 62
    4
 10
1006.5565063680151
 20
529.69944522440983
 11
1013.5565063680178
 21
531.57515100449928
  0
LINE
  8
_0-7_ビス
  6
CONTINUOUS
 62
    4
 10
1006.5565063680151
 20
531.69944522441028
 11
1013.5565063680178
 21
533.57515100449859
  0
LINE
  8
_0-7_ビス
  6
CONTINUOUS
 62
    4
 10
1006.5565063680151
 20
533.69944522441074
 11
1013.5565063680178
 21
535.57515100449905
  0
LINE
  8
_0-7_ビス
  6
CONTINUOUS
 62
    4
 10
1006.5565063680151
 20
535.69944522441006
 11
1013.5565063680178
 21
537.5751510044995
  0
LINE
  8
_0-7_ビス
  6
CONTINUOUS
 62
    4
 10
1006.5565063680151
 20
537.69944522441051
 11
1013.5565063680178
 21
539.57515100449882
  0
LINE
  8
_0-7_ビス
  6
CONTINUOUS
 62
    4
 10
1006.5565063680151
 20
539.69944522441097
 11
1013.5565063680178
 21
541.57515100449928
  0
LINE
  8
_0-7_ビス
  6
CONTINUOUS
 62
    4
 10
1006.5565063680151
 20
517.3932246950335
 11
1013.5565063680178
 21
519.26893047512181
  0
LINE
  8
_0-7_ビス
  6
CONTINUOUS
 62
    4
 10
1006.5565063680151
 20
519.39322469503395
 11
1013.5565063680178
 21
521.26893047512226
  0
LINE
  8
_0-7_ビス
  6
CONTINUOUS
 62
    4
 10
1006.5565063680151
 20
521.39322469503327
 11
1013.5565063680178
 21
523.26893047512158
  0
LINE
  8
_0-7_ビス
  6
CONTINUOUS
 62
    4
 10
1006.5565063680151
 20
523.39322469503372
 11
1013.5565063680178
 21
525.26893047512203
  0
LINE
  8
_0-7_ビス
  6
CONTINUOUS
 62
    4
 10
1006.5565063680151
 20
525.39322469503304
 11
1013.5565063680178
 21
527.26893047512249
  0
LINE
  8
_0-7_ビス
  6
CONTINUOUS
 62
    4
 10
1006.5565063680151
 20
527.3932246950335
 11
1013.5565063680178
 21
529.26893047512294
  0
LINE
  8
_0-7_ビス
  6
CONTINUOUS
 62
    4
 10
1006.5565063680151
 20
515.08700416565716
 11
1013.5565063680178
 21
516.96270994574547
  0
LINE
  8
_0-7_ビス
  6
CONTINUOUS
 62
    4
 10
1007.4182310911101
 20
513.31791017193495
 11
1013.5565063680178
 21
514.96270994574502
  0
LINE
  8
_0-5_金属
  6
CONTINUOUS
 62
    7
 10
969.53527467667982
 20
451.36656213499577
 11
1009.5352154913894
 21
451.36656213499577
  0
ARC
  8
_0-5_金属
  6
CONTINUOUS
 62
    7
 10
1027.8722954913883
 20
535.60296213499669
 40
2.9999997999999999
 50
90
 51
167.90458000000001
  0
ARC
  8
_0-5_金属
  6
CONTINUOUS
 62
    7
 10
1009.5352154913894
 20
451.36663213499673
 40
2.9999997999999999
 50
270
 51
347.90458000000001
  0
LINE
  8
_0-5_金属
  6
CONTINUOUS
 62
    7
 10
1009.5352154913894
 20
451.36656213499577
 11
1024.9388957177871
 21
536.23158329931471
  0
LINE
  8
_0-5_金属
  6
CONTINUOUS
 62
    7
 10
1027.8606454913893
 20
535.56657213499648
 11
1012.4686152649929
 21
450.73801097067872
  0
LINE
  8
_0-5_金属
  6
CONTINUOUS
 62
    7
 10
1169.5352855913893
 20
448.36660213499613
 11
1209.5351655913896
 21
448.36660213499613
  0
ARC
  8
_0-5_金属
  6
CONTINUOUS
 62
    7
 10
1227.8871855913894
 20
535.56255213499639
 40
2.9999997999999999
 50
90
 51
167.90458000000001
  0
ARC
  8
_0-5_金属
  6
CONTINUOUS
 62
    7
 10
1151.1721055913904
 20
535.55799213499654
 40
2.9999997999999999
 50
12.095412999999999
 51
90.000000000000028
  0
LINE
  8
_0-5_金属
  6
CONTINUOUS
 62
    7
 10
1151.2097955913896
 20
535.56657213499648
 11
1027.8606454913893
 21
535.56657213499648
  0
ARC
  8
_0-5_金属
  6
CONTINUOUS
 62
    7
 10
1169.5352855913893
 20
451.36663213499673
 40
2.9999997999999999
 50
192.09540999999999
 51
270
  0
ARC
  8
_0-5_金属
  6
CONTINUOUS
 62
    7
 10
1209.5351655913896
 20
451.36663213499673
 40
2.9999997999999999
 50
270
 51
347.90458000000001
  0
LINE
  8
_0-5_金属
  6
CONTINUOUS
 62
    7
 10
1166.6018857080712
 20
450.73801148265261
 11
1151.2097955913896
 21
535.56657213499648
  0
LINE
  8
_0-5_金属
  6
CONTINUOUS
 62
    7
 10
1227.8605955913895
 20
535.56657213499648
 11
1212.4685653649931
 21
450.73801097067872
  0
LINE
  8
_0-5_金属
  6
CONTINUOUS
 62
    7
 10
1154.1055054417916
 20
536.18661294093158
 11
1169.5352910851261
 21
451.36647193499698
  0
LINE
  8
_0-5_金属
  6
CONTINUOUS
 62
    7
 10
1169.5352910851261
 20
451.36647193499698
 11
1209.5351491956808
 21
451.36647193499698
  0
LINE
  8
_0-5_金属
  6
CONTINUOUS
 62
    7
 10
1209.5351491956808
 20
451.36647193499698
 11
1224.953785817786
 21
536.19117329931441
  0
LINE
  8
_0-5_金属
  6
CONTINUOUS
 62
    7
 10
969.53527467667982
 20
451.36656213499577
 11
969.53527467667982
 21
448.36654213499628
  0
LINE
  8
_0-5_金属
  6
CONTINUOUS
 62
    7
 10
1289.5352530413902
 20
448.36654213499628
 11
959.53527467667982
 21
448.36654213499628
  0
LINE
  8
_0-5_金属
  6
CONTINUOUS
 62
    7
 10
1227.8605955913895
 20
535.56657213499648
 11
1289.5352530413902
 21
535.56657213499648
  0
ARC
  8
_0-5_金属
  6
CONTINUOUS
 62
    7
 10
975.58523549138954
 20
465.41651213499676
 40
1.0499997999999999
 50
90
 51
270
  0
ARC
  8
_0-5_金属
  6
CONTINUOUS
 62
    7
 10
975.58523549138954
 20
465.41651213499676
 40
0.2499999
 50
90
 51
270
  0
ARC
  8
_0-5_金属
  6
CONTINUOUS
 62
    7
 10
1003.485315491389
 20
465.41651213499676
 40
1.0499997999999999
 50
270
 51
90
  0
ARC
  8
_0-5_金属
  6
CONTINUOUS
 62
    7
 10
1003.485315491389
 20
465.41651213499676
 40
0.2499999
 50
270
 51
90
  0
ARC
  8
_0-5_金属
  6
CONTINUOUS
 62
    7
 10
987.93532549138945
 20
467.26656213499609
 40
0.7999998999999997
 50
270
 51
0
  0
ARC
  8
_0-5_金属
  6
CONTINUOUS
 62
    7
 10
987.93532549138945
 20
467.26656213499609
 40
1.5999999
 50
270
 51
0
  0
ARC
  8
_0-5_金属
  6
CONTINUOUS
 62
    7
 10
991.13522549138906
 20
467.26656213499609
 40
0.7999998999999997
 50
180
 51
270
  0
ARC
  8
_0-5_金属
  6
CONTINUOUS
 62
    7
 10
991.13522549138906
 20
467.26656213499609
 40
1.5999999
 50
180
 51
270
  0
ARC
  8
_0-5_金属
  6
CONTINUOUS
 62
    7
 10
987.93532549138945
 20
536.96658213499632
 40
0.7999998999999997
 50
0
 51
90
  0
ARC
  8
_0-5_金属
  6
CONTINUOUS
 62
    7
 10
987.93532549138945
 20
536.96658213499632
 40
1.5999999
 50
0
 51
90
  0
ARC
  8
_0-5_金属
  6
CONTINUOUS
 62
    7
 10
991.13522549138906
 20
537.76656213499678
 40
0.7999998999999997
 50
90
 51
180
  0
ARC
  8
_0-5_金属
  6
CONTINUOUS
 62
    7
 10
991.13522549138906
 20
537.76656213499678
 40
1.5999999
 50
90
 51
180
  0
LINE
  8
_0-5_金属
  6
CONTINUOUS
 62
    7
 10
989.53527549138926
 20
534.51544213499687
 11
989.53527549138926
 21
524.07460213499576
  0
LINE
  8
_0-5_金属
  6
CONTINUOUS
 62
    7
 10
987.9702154913889
 20
525.63959213499629
 11
989.53527549138926
 21
524.07460213499576
  0
LINE
  8
_0-5_金属
  6
CONTINUOUS
 62
    7
 10
989.53527549138926
 20
534.51544213499687
 11
987.9702154913889
 21
525.63959213499629
  0
LINE
  8
_0-5_金属
  6
CONTINUOUS
 62
    7
 10
989.53527549138926
 20
524.07460213499576
 11
989.53527549138926
 21
467.26656213499609
  0
LINE
  8
_0-5_金属
  6
CONTINUOUS
 62
    7
 10
987.11005549138918
 20
525.36840213499659
 11
988.73530549138877
 21
523.74315213499699
  0
LINE
  8
_0-5_金属
  6
CONTINUOUS
 62
    7
 10
988.73530549138877
 20
523.74315213499699
 11
988.73530549138877
 21
467.26656213499609
  0
LINE
  8
_0-5_金属
  6
CONTINUOUS
 62
    7
 10
988.73530549138877
 20
534.58559213499598
 11
987.11005549138918
 21
525.36840213499659
  0
LINE
  8
_0-5_金属
  6
CONTINUOUS
 62
    7
 10
989.53527549138926
 20
537.76656213499678
 11
989.53527549138926
 21
534.51544213499687
  0
LINE
  8
_0-5_金属
  6
CONTINUOUS
 62
    7
 10
988.73530549138877
 20
536.96658213499632
 11
988.73530549138877
 21
534.58559213499598
  0
LINE
  8
_0-5_金属
  6
CONTINUOUS
 62
    7
 10
974.53528549139037
 20
537.76662213499662
 11
987.93532549138945
 21
537.76662213499662
  0
LINE
  8
_0-5_金属
  6
CONTINUOUS
 62
    7
 10
990.33524549138974
 20
537.76656213499678
 11
990.33524549138974
 21
467.26656213499609
  0
LINE
  8
_0-5_金属
  6
CONTINUOUS
 62
    7
 10
975.58523549138954
 20
465.66655213499644
 11
987.93532549138945
 21
465.66655213499644
  0
LINE
  8
_0-5_金属
  6
CONTINUOUS
 62
    7
 10
975.58523549138954
 20
465.16648213499707
 11
1003.485315491389
 21
465.16648213499707
  0
LINE
  8
_0-5_金属
  6
CONTINUOUS
 62
    7
 10
975.58523549138954
 20
466.46646213499594
 11
987.93532549138945
 21
466.46646213499594
  0
LINE
  8
_0-5_金属
  6
CONTINUOUS
 62
    7
 10
991.13522549138906
 20
466.46646213499594
 11
1003.485315491389
 21
466.46646213499594
  0
LINE
  8
_0-5_金属
  6
CONTINUOUS
 62
    7
 10
991.13522549138906
 20
465.66655213499644
 11
1003.485315491389
 21
465.66655213499644
  0
LINE
  8
_0-5_金属
  6
CONTINUOUS
 62
    7
 10
975.58523549138954
 20
464.36651233499674
 11
1003.485315491389
 21
464.36651233499674
  0
LINE
  8
_0-5_金属
  6
CONTINUOUS
 62
    7
 10
1187.9352755913897
 20
539.36656213499646
 11
990.98585549138988
 21
539.36656213499646
  0
ARC
  8
_0-5_金属
  6
CONTINUOUS
 62
    7
 10
1203.4852655913892
 20
465.41651213499676
 40
1.0499997999999999
 50
270
 51
90
  0
ARC
  8
_0-5_金属
  6
CONTINUOUS
 62
    7
 10
1203.4852655913892
 20
465.41651213499676
 40
0.2499999
 50
270
 51
90
  0
ARC
  8
_0-5_金属
  6
CONTINUOUS
 62
    7
 10
1175.5851855913897
 20
465.41651213499676
 40
1.0499997999999999
 50
90
 51
270
  0
ARC
  8
_0-5_金属
  6
CONTINUOUS
 62
    7
 10
1175.5851855913897
 20
465.41651213499676
 40
0.2499999
 50
90
 51
270
  0
ARC
  8
_0-5_金属
  6
CONTINUOUS
 62
    7
 10
1191.1351755913893
 20
467.26656213499609
 40
0.7999998999999997
 50
180
 51
270
  0
ARC
  8
_0-5_金属
  6
CONTINUOUS
 62
    7
 10
1191.1351755913893
 20
467.26656213499609
 40
1.5999999
 50
180
 51
270
  0
ARC
  8
_0-5_金属
  6
CONTINUOUS
 62
    7
 10
1187.9352755913897
 20
467.26656213499609
 40
0.7999998999999997
 50
270
 51
0
  0
ARC
  8
_0-5_金属
  6
CONTINUOUS
 62
    7
 10
1187.9352755913897
 20
467.26656213499609
 40
1.5999999
 50
270
 51
0
  0
ARC
  8
_0-5_金属
  6
CONTINUOUS
 62
    7
 10
1191.1351755913893
 20
537.76656213499678
 40
0.7999998999999997
 50
90
 51
180
  0
ARC
  8
_0-5_金属
  6
CONTINUOUS
 62
    7
 10
1191.1351755913893
 20
537.76656213499678
 40
1.5999999
 50
90
 51
180
  0
ARC
  8
_0-5_金属
  6
CONTINUOUS
 62
    7
 10
1187.9352755913897
 20
537.76656213499678
 40
0.7999998999999997
 50
0
 51
90
  0
ARC
  8
_0-5_金属
  6
CONTINUOUS
 62
    7
 10
1187.9352755913897
 20
537.76656213499678
 40
1.5999999
 50
0
 51
90
  0
LINE
  8
_0-5_金属
  6
CONTINUOUS
 62
    7
 10
1190.3351955913899
 20
537.76656213499678
 11
1190.3351955913899
 21
467.26656213499609
  0
LINE
  8
_0-5_金属
  6
CONTINUOUS
 62
    7
 10
1188.735255591389
 20
537.76656213499678
 11
1188.735255591389
 21
467.26656213499609
  0
LINE
  8
_0-5_金属
  6
CONTINUOUS
 62
    7
 10
1189.5352255913895
 20
537.76656213499678
 11
1189.5352255913895
 21
467.26656213499609
  0
LINE
  8
_0-5_金属
  6
CONTINUOUS
 62
    7
 10
1203.4852655913892
 20
465.66655213499644
 11
1191.1351755913893
 21
465.66655213499644
  0
LINE
  8
_0-5_金属
  6
CONTINUOUS
 62
    7
 10
1203.4852655913892
 20
465.16648213499707
 11
1175.5851855913897
 21
465.16648213499707
  0
LINE
  8
_0-5_金属
  6
CONTINUOUS
 62
    7
 10
1203.4852655913892
 20
466.46646213499594
 11
1191.1351755913893
 21
466.46646213499594
  0
LINE
  8
_0-5_金属
  6
CONTINUOUS
 62
    7
 10
1187.9352755913897
 20
466.46646213499594
 11
1175.5851855913897
 21
466.46646213499594
  0
LINE
  8
_0-5_金属
  6
CONTINUOUS
 62
    7
 10
1187.9352755913897
 20
465.66655213499644
 11
1175.5851855913897
 21
465.66655213499644
  0
LINE
  8
_0-5_金属
  6
CONTINUOUS
 62
    7
 10
1175.5851855913897
 20
464.36651233499674
 11
1203.4852655913892
 21
464.36651233499674
  0
LINE
  8
_0-5_金属
  6
CONTINUOUS
 62
    7
 10
1187.9352755913897
 20
538.56659213499597
 11
991.13522549138906
 21
538.56659213499597
  0
LINE
  8
_0-5_金属
  6
CONTINUOUS
 62
    7
 10
974.53528549139037
 20
538.56659213499597
 11
974.53528549139037
 21
537.76662213499662
  0
LINE
  8
_0-5_金属
  6
CONTINUOUS
 62
    7
 10
974.53528549139037
 20
538.56659213499597
 11
987.93532549138945
 21
538.56659213499597
  0
LINE
  8
_0-5_金属
  6
CONTINUOUS
 62
    7
 10
1289.5352530413902
 20
538.56659213499597
 11
1190.9953755913898
 21
538.56659213499597
  0
LINE
  8
_0-5_金属
  6
CONTINUOUS
 62
    7
 10
1191.1351755913893
 20
539.36656213499646
 11
1289.5352530413902
 21
539.36656213499646
  0
TEXT
  8
_0-a_文字
 62
    7
 10
1104.7097653772098
 20
331.86656213499646
 40
14.999999999999858
 41
1.0000000000000078
 50
0
  1
亜鉛めっき鋼板 t=1.2以上
  0
TEXT
  8
_0-a_文字
 62
    7
 10
1104.7097653772105
 20
311.86656213499646
 40
14.999999999999858
 41
1.0000000000000153
 50
0
  1
（別途工事）
  0
TEXT
  8
_0-a_文字
 62
    7
 10
1196.8823841748801
 20
356.86656213499646
 40
14.999999999999858
 41
1.0000000000000104
 50
0
  1
タイトフレーム（別途工事）
  0
LINE
  8
_0-a_文字
  6
CONTINUOUS
 62
    7
 10
1145.9016220613466
 20
409.36656213499646
 11
1191.8823841748826
 21
409.36656213499646
  0
LINE
  8
_0-a_文字
  6
CONTINUOUS
 62
    7
 10
1071.0770185141109
 20
538.96657713499621
 11
1171.8823841748804
 21
364.36656213499646
  0
LINE
  8
_0-a_文字
  6
CONTINUOUS
 62
    7
 10
1171.8823841748804
 20
364.36656213499646
 11
1191.8823841748826
 21
364.36656213499646
  0
LINE
  8
_0-a_文字
  6
CONTINUOUS
 62
    7
 10
963.96456233423351
 20
539.84313453781056
 11
1079.7097653772062
 21
339.36656213499646
  0
LINE
  8
_0-a_文字
  6
CONTINUOUS
 62
    7
 10
1079.7097653772062
 20
339.36656213499646
 11
1099.7097653772107
 21
339.36656213499646
  0
LINE
  8
_0-a_文字
  6
CONTINUOUS
 62
    7
 10
819.32857830652324
 20
984.36195899536733
 11
892.28436347002889
 21
1110.7250856046339
  0
TEXT
  8
_0-a_文字
 62
    7
 10
917.28436347002901
 20
1103.2250856046346
 40
15.000000000000213
 41
0.9999999999999826
 50
0
  1
笠木（別途工事）
  0
LINE
  8
_0-a_文字
  6
CONTINUOUS
 62
    7
 10
892.28436347002889
 20
1110.7250856046339
 11
912.28436347002889
 21
1110.7250856046339
  0
LINE
  8
_0-a_文字
  6
CONTINUOUS
 62
    7
 10
853.30723884718054
 20
938.09433375635854
 11
924.10813643770871
 21
1060.7250856046339
  0
LINE
  8
_0-a_文字
  6
CONTINUOUS
 62
    7
 10
880.80686624848772
 20
985.72508560463439
 11
944.10813643770871
 21
985.72508560463439
  0
LINE
  8
_0-a_文字
  6
CONTINUOUS
 62
    7
 10
895.24062297822729
 20
1010.725085604634
 11
944.10813643770871
 21
1010.725085604634
  0
TEXT
  8
_0-a_文字
 62
    7
 10
949.10813643770803
 20
978.22508560463439
 40
15.000000000000213
 41
0.9999999999999912
 50
0
  1
ブチルテープ（別途工事）
  0
TEXT
  8
_0-a_文字
 62
    7
 10
949.10813643770882
 20
1003.2250856046346
 40
15.000000000000213
 41
0.9999999999999836
 50
0
  1
亜鉛めっき鋼板 t=1.2以上（別途工事）
  0
TEXT
  8
_0-a_文字
 62
    7
 10
949.10813643770871
 20
1028.2250856046346
 40
15.000000000000302
 41
0.9999999999999803
 50
0
  1
ロンシーラントＴＢ
  0
LINE
  8
_0-a_文字
  6
CONTINUOUS
 62
    7
 10
909.674379707968
 20
1035.7250856046339
 11
944.10813643770871
 21
1035.7250856046339
  0
TEXT
  8
_0-a_文字
 62
    7
 10
949.10813643770871
 20
1053.2250856046346
 40
15.000000000000302
 41
0.99999999999998
 50
0
  1
特注塩ビ鋼板
  0
LINE
  8
_0-a_文字
  6
CONTINUOUS
 62
    7
 10
924.10813643770871
 20
1060.7250856046339
 11
944.10813643770871
 21
1060.7250856046339
  0
LINE
  8
_0-a_文字
  6
CONTINUOUS
 62
    7
 10
830.39488086115853
 20
950.96916143764111
 11
908.19624995386766
 21
1085.7250856046339
  0
TEXT
  8
_0-a_文字
 62
    7
 10
933.19624995386789
 20
1078.2250856046346
 40
15.000000000000213
 41
0.9999999999999782
 50
0
  1
プルーフシーラー
  0
LINE
  8
_0-a_文字
  6
CONTINUOUS
 62
    7
 10
908.19624995386766
 20
1085.7250856046339
 11
928.19624995386766
 21
1085.7250856046339
  0
TEXT
  8
_0-a_文字
 62
    7
 10
395
 20
1107.5000000000023
 40
14.999999999997726
 41
1.0000000000001703
 50
0
  1
　  水平方向は@900mm程度
  0
TEXT
  8
_0-a_文字
 62
    7
 10
395
 20
1127.5000000000023
 40
14.999999999997726
 41
1.0000000000001708
 50
0
  1
注）立上り高さが500mmを超える機械的固定工法の場合、中間をディスク板で固定する
  0
TEXT
  8
_0-a_文字
 62
    7
 10
1196.8823841748804
 20
401.86656213499646
 40
14.999999999999858
 41
1.0000000000000073
 50
0
  1
デッキプレート フラットタイプ H=75
  0
TEXT
  8
_0-a_文字
 62
    7
 10
1196.8823841748801
 20
381.86656213499646
 40
14.999999999999858
 41
1.0000000000000084
 50
0
  1
t=1.0 または t=1.2（別途工事）
  0
TEXT
  8
_f-0_
 62
    7
 10
405.30228976001922
 20
1163.75
 40
17.499999999999993
 41
1.0000000000000002
 50
0
  1
ＳＤ－Ｆ仕様 パラペット 立上り機械的固定工法（笠木あり）
  0
ENDSEC
  0
EOF
