  0
SECTION
  2
HEADER
  9
$ACADVER
  1
AC1009
  9
$INSBASE
 10
0
 20
0
 30
0
  9
$EXTMIN
 10
0
 20
0
  9
$EXTMAX
 10
2100
 20
1485
  9
$LIMMIN
 10
0
 20
0
  9
$LIMMAX
 10
2100
 20
1485
  9
$LTSCALE
 40
5
  0
ENDSEC
  0
SECTION
  2
TABLES
  0
TABLE
  2
LTYPE
 70
     9
  0
LTYPE
  2
CONTINUOUS
 70
    64
  3
実線
 72
    65
 73
     0
 40
0.0
  0
LTYPE
  2
DASHED1
 70
    64
  3
--  --  --  --  --  --  --  --  
 72
    65
 73
     2
 40
2.5
 49
1.25
 49
-1.25
  0
LTYPE
  2
DASHED2
 70
    64
  3
----    ----    ----    ----    
 72
    65
 73
     2
 40
5.0
 49
2.5
 49
-2.5
  0
LTYPE
  2
DASHED3
 70
    64
  3
------  ------  ------  ------  
 72
    65
 73
     2
 40
5.0
 49
3.75
 49
-1.25
  0
LTYPE
  2
CENTER1
 70
    64
  3
----- - ----- - ----- - ----- - 
 72
    65
 73
     4
 40
10.0
 49
6.25
 49
-1.25
 49
1.25
 49
-1.25
  0
LTYPE
  2
CENTER2
 70
    64
  3
----------  --  ----------  --  
 72
    65
 73
     4
 40
20.0
 49
12.5
 49
-2.5
 49
2.5
 49
-2.5
  0
LTYPE
  2
PHANTOM1
 70
    64
  3
--- - - --- - - --- - - --- - - 
 72
    65
 73
     6
 40
10.0
 49
3.25
 49
-1.25
 49
1.25
 49
-1.25
 49
1.25
 49
-1.25
  0
LTYPE
  2
PHANTOM2
 70
    64
  3
--------  -  -  --------  -  -  
 72
    65
 73
     6
 40
20.0
 49
10.0
 49
-2.5
 49
1.25
 49
-2.5
 49
1.25
 49
-2.5
  0
LTYPE
  2
DOT
 70
    64
  3
-   -   -   -   -   -   -   -   
 72
    65
 73
     2
 40
2.5
 49
0.625
 49
-1.875
  0
LTYPE
  2
DUMMY
 70
    64
  3
ダミー
 72
    65
 73
     0
 40
0.0
  0
LTYPE
  2
RAND1
 70
    64
  3
ランダム線1
 72
    65
 73
     4
 40
10.0
 49
1.0
 49
-2.0
 49
3.0
 49
-4.0
  0
LTYPE
  2
RAND2
 70
    64
  3
ランダム線2
 72
    65
 73
     4
 40
14.0
 49
2.0
 49
-3.0
 49
4.0
 49
-5.0
  0
LTYPE
  2
RAND3
 70
    64
  3
ランダム線3
 72
    65
 73
     4
 40
18.0
 49
3.0
 49
-4.0
 49
5.0
 49
-6.0
  0
LTYPE
  2
RAND4
 70
    64
  3
ランダム線4
 72
    65
 73
     4
 40
22.0
 49
4.0
 49
-5.0
 49
6.0
 49
-7.0
  0
LTYPE
  2
RAND5
 70
    64
  3
ランダム線5
 72
    65
 73
     4
 40
26.0
 49
5.0
 49
-6.0
 49
7.0
 49
-8.0
  0
LTYPE
  2
LONG1
 70
    64
  3
----------  --  ----------  --  
 72
    65
 73
     4
 40
40.0
 49
32.5
 49
-2.5
 49
2.5
 49
-2.5
  0
LTYPE
  2
LONG2
 70
    64
  3
--------  -  -  --------  -  -  
 72
    65
 73
     6
 40
40.0
 49
30.0
 49
-2.5
 49
1.25
 49
-2.5
 49
1.25
 49
-2.5
  0
LTYPE
  2
LONG3
 70
    64
  3
+++++++++++++++..+++++++++++++++
 72
    65
 73
     2
 40
40.0
 49
37.5
 49
-2.5
  0
LTYPE
  2
LONG4
 70
    64
  3
+++++++++++++++..+++++++++++++++
 72
    65
 73
     2
 40
80.0
 49
75.0
 49
-5.0
  0
LTYPE
  2
LONG5
 70
    64
  3
----------  --  ----------  --  
 72
    65
 73
     4
 40
60.0
 49
37.5
 49
-7.5
 49
7.5
 49
-7.5
  0
LTYPE
  2
dashed
 70
   64
  3
-------   -------------   ------
 72
   65
 73
    2
 40
7.5
 49
6
 49
-1.5
  0
LTYPE
  2
dashed_spaced
 70
   64
  3
----        --------        ----
 72
   65
 73
    2
 40
12
 49
6
 49
-6
  0
LTYPE
  2
long_dashed_dotted
 70
   64
  3
------------- --- --------------
 72
   65
 73
    4
 40
15.25
 49
12
 49
-1.5
 49
0.25
 49
-1.5
  0
LTYPE
  2
long_dashed_double-dotted
 70
   64
  3
----------- --- --- ------------
 72
   65
 73
    6
 40
17
 49
12
 49
-1.5
 49
0.25
 49
-1.5
 49
0.25
 49
-1.5
  0
LTYPE
  2
long_dashed_triplicate-dotted
 70
   64
  3
--------- --- --- --- ----------
 72
   65
 73
    8
 40
18.75
 49
12
 49
-1.5
 49
0.25
 49
-1.5
 49
0.25
 49
-1.5
 49
0.25
 49
-1.5
  0
LTYPE
  2
dotted
 70
   64
  3
   -       -       -       -    
 72
   65
 73
    2
 40
1.75
 49
0.25
 49
-1.5
  0
LTYPE
  2
chain
 70
   64
  3
-------------- -- --------------
 72
   65
 73
    4
 40
18.5
 49
12
 49
-1.5
 49
3.5
 49
-1.5
  0
LTYPE
  2
chain_double_dash
 70
   64
  3
------------ -- -- -------------
 72
   65
 73
    6
 40
23.5
 49
12
 49
-1.5
 49
3.5
 49
-1.5
 49
3.5
 49
-1.5
  0
LTYPE
  2
dashed_dotted
 70
   64
  3
-----------     -     ----------
 72
   65
 73
    4
 40
9.25
 49
6
 49
-1.5
 49
0.25
 49
-1.5
  0
LTYPE
  2
double-dashed_dotted
 70
   64
  3
------   -----------   -   -----
 72
   65
 73
    6
 40
16.75
 49
6
 49
-1.5
 49
6
 49
-1.5
 49
0.25
 49
-1.5
  0
LTYPE
  2
dashed_double-dotted
 70
   64
  3
---------    -    -    ---------
 72
   65
 73
    6
 40
11
 49
6
 49
-1.5
 49
0.25
 49
-1.5
 49
0.25
 49
-1.5
  0
LTYPE
  2
double-dashed_double-dotted
 70
   64
  3
-----   ---------   -   -   ----
 72
   65
 73
    8
 40
18.5
 49
6
 49
-1.5
 49
6
 49
-1.5
 49
0.25
 49
-1.5
 49
0.25
 49
-1.5
  0
LTYPE
  2
dashed_triplicate-dotted
 70
   64
  3
-------    -    -    -    ------
 72
   65
 73
    8
 40
12.75
 49
6
 49
-1.5
 49
0.25
 49
-1.5
 49
0.25
 49
-1.5
 49
0.25
 49
-1.5
  0
LTYPE
  2
double-dashed_triplicate-dotted
 70
   64
  3
-----  ---------  -  -  -  -----
 72
   65
 73
   10
 40
20.25
 49
6
 49
-1.5
 49
6
 49
-1.5
 49
0.25
 49
-1.5
 49
0.25
 49
-1.5
 49
0.25
 49
-1.5
  0
LTYPE
  2
undefined
 70
   64
  3
--------------------------------
 72
   65
 73
    0
 40
0
  0
ENDTAB
  0
TABLE
  2
STYLE
  5
3
100
AcDbSymbolTable
 70
     1
  0
STYLE
  5
10
100
AcDbSymbolTableRecord
100
AcDbTextStyleTableRecord
  2
STANDARD
 70
     0
 40
0.0
 41
1.0
 50
0.0
 71
     0
 42
0.2
  3
txt
  4
bigfont.shx
  0
STYLE
  5
26
100
AcDbSymbolTableRecord
100
AcDbTextStyleTableRecord
  2
TATEGAKI
 70
    68
 40
0.0
 41
1.0
 50
0.0
 71
     0
 42
1.0
  3
txt
  4
bigfont.shx
  0
ENDTAB
  0
TABLE
  2
LAYER
 70
   12
  0
LAYER
  2
_0-1_線色１__水色__
 70
   64
 62
    7
  6
CONTINUOUS
  0
LAYER
  2
_0-2_線色２__白__
 70
   64
 62
    7
  6
CONTINUOUS
  0
LAYER
  2
_0-3_線色３__緑__
 70
   64
 62
    7
  6
CONTINUOUS
  0
LAYER
  2
_0-4_線色４__黄__
 70
   64
 62
    7
  6
CONTINUOUS
  0
LAYER
  2
_0-5_金属
 70
   64
 62
    7
  6
CONTINUOUS
  0
LAYER
  2
_0-6_鋼板__アングル
 70
   64
 62
    7
  6
CONTINUOUS
  0
LAYER
  2
_0-7_ビス
 70
   64
 62
    7
  6
CONTINUOUS
  0
LAYER
  2
_0-a_文字
 70
   64
 62
    7
  6
CONTINUOUS
  0
LAYER
  2
_0-d_断熱__ハッチ
 70
   64
 62
    7
  6
CONTINUOUS
  0
LAYER
  2
_f-0_
 70
   64
 62
    7
  6
CONTINUOUS
  0
LAYER
  2
_f-f_
 70
   64
 62
    7
  6
CONTINUOUS
  0
LAYER
  2
ADD_LINE
 70
   64
 62
    7
  6
CONTINUOUS
  0
ENDTAB
  0
ENDSEC
  0
SECTION
  2
BLOCKS
  0
ENDSEC
  0
SECTION
  2
ENTITIES
  0
LINE
  8
_f-0_
  6
CONTINUOUS
 62
  136
 10
1714.9999999999989
 20
1192.5
 11
385
 21
1192.5
  0
LINE
  8
_f-0_
  6
CONTINUOUS
 62
  136
 10
385
 20
277.50000000000341
 11
1714.9999999999989
 21
277.50000000000341
  0
LINE
  8
_f-0_
  6
CONTINUOUS
 62
  136
 10
385
 20
1192.5
 11
385
 21
277.50000000000341
  0
LINE
  8
_f-0_
  6
CONTINUOUS
 62
  136
 10
1714.9999999999989
 20
1192.5
 11
1714.9999999999989
 21
277.50000000000341
  0
LINE
  8
_f-0_
  6
CONTINUOUS
 62
    6
 10
1714.9999999999989
 20
1152.5
 11
385
 21
1152.5
  0
LINE
  8
_f-f_
  6
CONTINUOUS
 62
    9
 10
310
 20
217.5
 11
310
 21
1267.5
  0
LINE
  8
_f-f_
  6
CONTINUOUS
 62
    9
 10
1790
 20
217.5
 11
310
 21
217.5
  0
LINE
  8
_f-f_
  6
CONTINUOUS
 62
    9
 10
1790
 20
1267.5
 11
310
 21
1267.5
  0
LINE
  8
_f-f_
  6
CONTINUOUS
 62
    9
 10
1790
 20
1267.5
 11
1790
 21
217.5
  0
LINE
  8
ADD_LINE
  6
DOT
 62
  136
 10
1764.9999999999989
 20
1242.5
 11
335
 21
1242.5
  0
LINE
  8
ADD_LINE
  6
DOT
 62
  136
 10
335
 20
242.50000000000227
 11
335
 21
1242.5
  0
LINE
  8
ADD_LINE
  6
DOT
 62
  136
 10
1765
 20
1242.5
 11
1765
 21
242.5
  0
LINE
  8
ADD_LINE
  6
DOT
 62
  136
 10
1765
 20
242.5
 11
335.00000000000114
 21
242.5
  0
TEXT
  8
_0-a_文字
 62
    7
 10
405
 20
287.50000000000313
 40
15.000000000000568
 41
0.9999999999999666
 50
0
  1
※ 本図面は防水納まりの参考図であり、下地等の構造を保証するものではありません
  0
TEXT
  8
_0-a_文字
 62
    7
 10
405
 20
307.50000000000313
 40
15.000000000000568
 41
0.9999999999999668
 50
0
  1
※ デッキ端部などの開口部には、必要に応じ遮炎性を満たす処理をお願いします（別途工事）
  0
TEXT
  8
_0-a_文字
 62
    7
 10
405
 20
327.50000000000313
 40
15.000000000000568
 41
0.9999999999999666
 50
0
  1
※ ラジアルシートＬ６００は、断熱材の種類がポリスチレンフォームの場合のみ使用
  0
LINE
  8
_0-5_金属
  6
CONTINUOUS
 62
    7
 10
957.2352746766768
 20
593.66656213499709
 11
957.2352746766768
 21
635.06656213499582
  0
LINE
  8
_0-5_金属
  6
CONTINUOUS
 62
    7
 10
959.53527467667925
 20
593.66656213499709
 11
959.53527467667925
 21
635.06656213499582
  0
ARC
  8
_0-5_金属
  6
CONTINUOUS
 62
    7
 10
863.83527467667761
 20
593.66656213499709
 40
4.2999999999999989
 50
180
 51
270
  0
LINE
  8
_0-5_金属
  6
CONTINUOUS
 62
    7
 10
863.83527467667761
 20
589.36656213499646
 11
879.53527467667698
 21
589.36656213499646
  0
LINE
  8
_0-5_金属
  6
CONTINUOUS
 62
    7
 10
859.53527467667698
 20
593.66656213499709
 11
859.53527467667698
 21
635.06656213499582
  0
ARC
  8
_0-5_金属
  6
CONTINUOUS
 62
    7
 10
863.83527467667761
 20
635.06656213499582
 40
4.2999999999999989
 50
90
 51
180
  0
LINE
  8
_0-5_金属
  6
CONTINUOUS
 62
    7
 10
863.83527467667761
 20
639.36656213499646
 11
955.23527467667861
 21
639.36656213499646
  0
ARC
  8
_0-5_金属
  6
CONTINUOUS
 62
    7
 10
955.23527467667861
 20
635.06656213499582
 40
4.2999999999999989
 50
0
 51
90
  0
ARC
  8
_0-5_金属
  6
CONTINUOUS
 62
    7
 10
955.23527467667861
 20
593.66656213499709
 40
4.2999999999999989
 50
270
 51
0
  0
LINE
  8
_0-5_金属
  6
CONTINUOUS
 62
    7
 10
955.23527467667861
 20
589.36656213499646
 11
939.53527467667698
 21
589.36656213499646
  0
ARC
  8
_0-5_金属
  6
CONTINUOUS
 62
    7
 10
955.23527467667861
 20
593.66656213499709
 40
2
 50
270
 51
0
  0
LINE
  8
_0-5_金属
  6
CONTINUOUS
 62
    7
 10
955.23527467667861
 20
591.66656213499664
 11
939.53527467667698
 21
591.66656213499664
  0
ARC
  8
_0-5_金属
  6
CONTINUOUS
 62
    7
 10
955.23527467667861
 20
635.06656213499582
 40
2
 50
0
 51
90.000000000000014
  0
LINE
  8
_0-5_金属
  6
CONTINUOUS
 62
    7
 10
955.23527467667861
 20
637.06656213499627
 11
863.83527467667761
 21
637.06656213499627
  0
ARC
  8
_0-5_金属
  6
CONTINUOUS
 62
    7
 10
863.83527467667761
 20
635.06656213499582
 40
2
 50
90
 51
180
  0
LINE
  8
_0-5_金属
  6
CONTINUOUS
 62
    7
 10
861.83527467667943
 20
635.06656213499582
 11
861.83527467667943
 21
593.66656213499709
  0
ARC
  8
_0-5_金属
  6
CONTINUOUS
 62
    7
 10
863.83527467667761
 20
593.66656213499709
 40
2
 50
180
 51
270
  0
LINE
  8
_0-5_金属
  6
CONTINUOUS
 62
    7
 10
863.83527467667761
 20
591.66656213499664
 11
879.53527467667698
 21
591.66656213499664
  0
LINE
  8
_0-5_金属
  6
CONTINUOUS
 62
    7
 10
957.2352746766768
 20
893.66656213499709
 11
957.2352746766768
 21
935.06656213499809
  0
ARC
  8
_0-5_金属
  6
CONTINUOUS
 62
    7
 10
863.83527467667761
 20
893.66656213499709
 40
4.2999999999999989
 50
180
 51
270
  0
LINE
  8
_0-5_金属
  6
CONTINUOUS
 62
    7
 10
863.83527467667761
 20
889.36656213499646
 11
879.53527467667698
 21
889.36656213499646
  0
LINE
  8
_0-5_金属
  6
CONTINUOUS
 62
    7
 10
859.53527467667698
 20
893.66656213499709
 11
859.53527467667698
 21
935.06656213499809
  0
ARC
  8
_0-5_金属
  6
CONTINUOUS
 62
    7
 10
863.83527467667761
 20
935.06656213499809
 40
4.2999999999999989
 50
90
 51
180
  0
ARC
  8
_0-5_金属
  6
CONTINUOUS
 62
    7
 10
955.23527467667861
 20
935.06656213499809
 40
4.2999999999999989
 50
0
 51
90
  0
ARC
  8
_0-5_金属
  6
CONTINUOUS
 62
    7
 10
955.23527467667861
 20
893.66656213499709
 40
4.2999999999999989
 50
270
 51
0
  0
LINE
  8
_0-5_金属
  6
CONTINUOUS
 62
    7
 10
955.23527467667861
 20
889.36656213499646
 11
939.53527467667698
 21
889.36656213499646
  0
ARC
  8
_0-5_金属
  6
CONTINUOUS
 62
    7
 10
955.23527467667861
 20
893.66656213499709
 40
2
 50
270
 51
0
  0
LINE
  8
_0-5_金属
  6
CONTINUOUS
 62
    7
 10
955.23527467667861
 20
891.66656213499664
 11
939.53527467667698
 21
891.66656213499664
  0
ARC
  8
_0-5_金属
  6
CONTINUOUS
 62
    7
 10
955.23527467667861
 20
935.06656213499809
 40
2
 50
0
 51
90.000000000000014
  0
ARC
  8
_0-5_金属
  6
CONTINUOUS
 62
    7
 10
863.83527467667761
 20
935.06656213499809
 40
2
 50
90
 51
180
  0
LINE
  8
_0-5_金属
  6
CONTINUOUS
 62
    7
 10
861.83527467667943
 20
935.06656213499809
 11
861.83527467667943
 21
893.66656213499709
  0
ARC
  8
_0-5_金属
  6
CONTINUOUS
 62
    7
 10
863.83527467667761
 20
893.66656213499709
 40
2
 50
180
 51
270
  0
LINE
  8
_0-5_金属
  6
CONTINUOUS
 62
    7
 10
863.83527467667761
 20
891.66656213499664
 11
879.53527467667698
 21
891.66656213499664
  0
LINE
  8
_0-5_金属
  6
CONTINUOUS
 62
    7
 10
939.53527467667698
 20
891.66656213499664
 11
939.53527467667698
 21
889.36656213499646
  0
LINE
  8
_0-5_金属
  6
CONTINUOUS
 62
    7
 10
879.53527467667698
 20
891.66656213499664
 11
879.53527467667698
 21
889.36656213499646
  0
LINE
  8
_0-5_金属
  6
CONTINUOUS
 62
    7
 10
939.53527467667698
 20
889.36656213499646
 11
939.53527467667698
 21
639.36656213499646
  0
LINE
  8
_0-5_金属
  6
CONTINUOUS
 62
    7
 10
879.53527467667698
 20
889.36656213499646
 11
879.53527467667698
 21
639.36656213499646
  0
LINE
  8
_0-5_金属
  6
CONTINUOUS
 62
    7
 10
955.23527467667861
 20
937.06656213499627
 11
863.83527467667761
 21
937.06656213499627
  0
LINE
  8
_0-5_金属
  6
CONTINUOUS
 62
    7
 10
863.83527467667761
 20
939.36656213499646
 11
955.23527467667861
 21
939.36656213499646
  0
LINE
  8
_0-5_金属
  6
CONTINUOUS
 62
    7
 10
859.53527467667698
 20
893.66656213499709
 11
859.53527467667698
 21
635.06656213499582
  0
LINE
  8
_0-2_線色２__白__
  6
CONTINUOUS
 62
    7
 10
959.53527467667925
 20
635.06656213499582
 11
959.53527467667925
 21
939.36656213499646
  0
LINE
  8
_0-5_金属
  6
CONTINUOUS
 62
    7
 10
959.53527467667698
 20
893.66656213499709
 11
959.53527467667698
 21
935.06656213499809
  0
LINE
  8
_0-5_金属
  6
CONTINUOUS
 62
    7
 10
879.53527467667698
 20
591.66656213499664
 11
879.53527467667698
 21
589.36656213499646
  0
LINE
  8
_0-5_金属
  6
CONTINUOUS
 62
    7
 10
939.53527467667698
 20
591.66656213499664
 11
939.53527467667698
 21
589.36656213499646
  0
LINE
  8
_0-2_線色２__白__
  6
CONTINUOUS
 62
    7
 10
824.53527467667698
 20
937.36656213499828
 11
859.53527467667698
 21
937.36656213499828
  0
LINE
  8
_0-d_断熱__ハッチ
  6
CONTINUOUS
 62
    4
 10
857.7917566522018
 20
937.36656213499828
 11
859.53527467667698
 21
939.11008015947118
  0
LINE
  8
_0-d_断熱__ハッチ
  6
CONTINUOUS
 62
    4
 10
854.25622274626846
 20
937.36656213499828
 11
856.25622274626892
 21
939.36656213499646
  0
LINE
  8
_0-d_断熱__ハッチ
  6
CONTINUOUS
 62
    4
 10
850.72068884033513
 20
937.36656213499828
 11
852.72068884033558
 21
939.36656213499646
  0
LINE
  8
_0-d_断熱__ハッチ
  6
CONTINUOUS
 62
    4
 10
847.18515493440179
 20
937.36656213499828
 11
849.18515493440225
 21
939.36656213499873
  0
LINE
  8
_0-d_断熱__ハッチ
  6
CONTINUOUS
 62
    4
 10
843.64962102847073
 20
937.36656213499828
 11
845.64962102846891
 21
939.36656213499873
  0
LINE
  8
_0-d_断熱__ハッチ
  6
CONTINUOUS
 62
    4
 10
840.11408712253512
 20
937.36656213499828
 11
842.11408712253558
 21
939.36656213499873
  0
LINE
  8
_0-d_断熱__ハッチ
  6
CONTINUOUS
 62
    4
 10
836.57855321660179
 20
937.36656213499828
 11
838.57855321660224
 21
939.36656213499873
  0
LINE
  8
_0-d_断熱__ハッチ
  6
CONTINUOUS
 62
    4
 10
833.04301931067982
 20
937.36656213499828
 11
835.04301931067801
 21
939.36656213499873
  0
LINE
  8
_0-d_断熱__ハッチ
  6
CONTINUOUS
 62
    4
 10
829.50748540474422
 20
937.36656213499828
 11
831.5074854047424
 21
939.36656213499418
  0
LINE
  8
_0-d_断熱__ハッチ
  6
CONTINUOUS
 62
    4
 10
825.97195149881316
 20
937.36656213499828
 11
827.97195149880906
 21
939.36656213499646
  0
LINE
  8
_0-2_線色２__白__
  6
CONTINUOUS
 62
    7
 10
959.53527467667925
 20
939.36656213499646
 11
977.53527467668107
 21
939.36656213499646
  0
LINE
  8
_0-2_線色２__白__
  6
CONTINUOUS
 62
    7
 10
977.53527467668107
 20
540.56656213499764
 11
977.53527467668107
 21
939.36656213499646
  0
LINE
  8
_0-d_断熱__ハッチ
  6
CONTINUOUS
 62
    4
 10
969.53161091218988
 20
540.56656213499537
 11
977.53527467668107
 21
548.57022589948656
  0
LINE
  8
_0-d_断熱__ハッチ
  6
CONTINUOUS
 62
    4
 10
960.73527467667816
 20
542.37682761728593
 11
977.53527467668107
 21
559.17682761728656
  0
LINE
  8
_0-d_断熱__ハッチ
  6
CONTINUOUS
 62
    4
 10
960.73527467667816
 20
552.98342933508138
 11
977.5352746766788
 21
569.78342933507975
  0
LINE
  8
_0-d_断熱__ハッチ
  6
CONTINUOUS
 62
    4
 10
960.73527467667816
 20
563.59003105287456
 11
977.53527467668107
 21
580.39003105287748
  0
LINE
  8
_0-d_断熱__ハッチ
  6
CONTINUOUS
 62
    4
 10
960.73527467667816
 20
574.19663277067457
 11
977.5352746766788
 21
590.99663277067748
  0
LINE
  8
_0-d_断熱__ハッチ
  6
CONTINUOUS
 62
    4
 10
960.73527467667816
 20
584.80323448847457
 11
977.53527467668107
 21
601.60323448847748
  0
LINE
  8
_0-d_断熱__ハッチ
  6
CONTINUOUS
 62
    4
 10
960.73527467667816
 20
595.40983620627685
 11
977.53527467668107
 21
612.20983620627749
  0
LINE
  8
_0-d_断熱__ハッチ
  6
CONTINUOUS
 62
    4
 10
960.73527467668043
 20
606.01643792407231
 11
977.5352746766788
 21
622.81643792407294
  0
LINE
  8
_0-d_断熱__ハッチ
  6
CONTINUOUS
 62
    4
 10
960.73527467667816
 20
616.62303964186776
 11
977.53527467668107
 21
633.4230396418684
  0
LINE
  8
_0-d_断熱__ハッチ
  6
CONTINUOUS
 62
    4
 10
960.73527467667816
 20
627.22964135966777
 11
977.53527467668107
 21
644.0296413596684
  0
LINE
  8
_0-d_断熱__ハッチ
  6
CONTINUOUS
 62
    4
 10
960.73527467667816
 20
637.83624307746777
 11
977.53527467668107
 21
654.63624307746841
  0
LINE
  8
_0-d_断熱__ハッチ
  6
CONTINUOUS
 62
    4
 10
959.53527467667925
 20
647.24284479526887
 11
977.53527467668107
 21
665.24284479526841
  0
LINE
  8
_0-d_断熱__ハッチ
  6
CONTINUOUS
 62
    4
 10
959.53527467667925
 20
657.84944651306205
 11
977.53527467668107
 21
675.84944651306387
  0
LINE
  8
_0-d_断熱__ハッチ
  6
CONTINUOUS
 62
    4
 10
959.53527467667925
 20
668.45604823085978
 11
977.53527467668107
 21
686.45604823085932
  0
LINE
  8
_0-d_断熱__ハッチ
  6
CONTINUOUS
 62
    4
 10
959.53527467667925
 20
679.06264994865978
 11
977.53527467668107
 21
697.06264994865933
  0
LINE
  8
_0-d_断熱__ハッチ
  6
CONTINUOUS
 62
    4
 10
959.53527467667925
 20
689.66925166645751
 11
977.53527467668107
 21
707.66925166645933
  0
LINE
  8
_0-d_断熱__ハッチ
  6
CONTINUOUS
 62
    4
 10
959.53527467667925
 20
700.27585338425979
 11
977.53527467668107
 21
718.27585338425934
  0
LINE
  8
_0-d_断熱__ハッチ
  6
CONTINUOUS
 62
    4
 10
959.53527467667925
 20
710.88245510205525
 11
977.53527467668107
 21
728.88245510205479
  0
LINE
  8
_0-d_断熱__ハッチ
  6
CONTINUOUS
 62
    4
 10
959.53527467667925
 20
721.4890568198507
 11
977.53527467668107
 21
739.48905681985252
  0
LINE
  8
_0-d_断熱__ハッチ
  6
CONTINUOUS
 62
    4
 10
959.53527467667925
 20
732.09565853765071
 11
977.53527467668107
 21
750.09565853765025
  0
LINE
  8
_0-d_断熱__ハッチ
  6
CONTINUOUS
 62
    4
 10
959.53527467667925
 20
742.70226025544844
 11
977.53527467668107
 21
760.70226025545253
  0
LINE
  8
_0-d_断熱__ハッチ
  6
CONTINUOUS
 62
    4
 10
959.53527467667925
 20
753.30886197325071
 11
977.53527467668107
 21
771.30886197325026
  0
LINE
  8
_0-d_断熱__ハッチ
  6
CONTINUOUS
 62
    4
 10
959.53527467667925
 20
763.91546369104617
 11
977.53527467668107
 21
781.91546369104572
  0
LINE
  8
_0-d_断熱__ハッチ
  6
CONTINUOUS
 62
    4
 10
959.53527467667925
 20
774.52206540884163
 11
977.53527467668107
 21
792.52206540884345
  0
LINE
  8
_0-d_断熱__ハッチ
  6
CONTINUOUS
 62
    4
 10
959.53527467667925
 20
785.12866712664163
 11
977.53527467668107
 21
803.12866712664118
  0
LINE
  8
_0-d_断熱__ハッチ
  6
CONTINUOUS
 62
    4
 10
959.53527467667925
 20
795.73526884443936
 11
977.53527467668107
 21
813.73526884444118
  0
LINE
  8
_0-d_断熱__ハッチ
  6
CONTINUOUS
 62
    4
 10
959.53527467667925
 20
806.34187056224164
 11
977.53527467668107
 21
824.34187056224118
  0
LINE
  8
_0-d_断熱__ハッチ
  6
CONTINUOUS
 62
    4
 10
959.53527467667925
 20
816.94847228003709
 11
977.53527467668107
 21
834.94847228003664
  0
LINE
  8
_0-d_断熱__ハッチ
  6
CONTINUOUS
 62
    4
 10
959.53527467667925
 20
827.55507399783255
 11
977.53527467668107
 21
845.5550739978321
  0
LINE
  8
_0-d_断熱__ハッチ
  6
CONTINUOUS
 62
    4
 10
959.53527467667925
 20
838.16167571563255
 11
977.53527467668107
 21
856.16167571563437
  0
LINE
  8
_0-d_断熱__ハッチ
  6
CONTINUOUS
 62
    4
 10
959.53527467667925
 20
848.76827743343028
 11
977.53527467668107
 21
866.7682774334321
  0
LINE
  8
_0-d_断熱__ハッチ
  6
CONTINUOUS
 62
    4
 10
959.53527467667925
 20
859.37487915123256
 11
977.53527467668107
 21
877.37487915123211
  0
LINE
  8
_0-d_断熱__ハッチ
  6
CONTINUOUS
 62
    4
 10
959.53527467668152
 20
869.98148086903257
 11
977.53527467668107
 21
887.98148086903439
  0
LINE
  8
_0-d_断熱__ハッチ
  6
CONTINUOUS
 62
    4
 10
959.53527467667925
 20
880.58808258682348
 11
977.53527467668107
 21
898.58808258682302
  0
LINE
  8
_0-d_断熱__ハッチ
  6
CONTINUOUS
 62
    4
 10
959.53527467667925
 20
891.19468430462348
 11
977.53527467668107
 21
909.1946843046253
  0
LINE
  8
_0-d_断熱__ハッチ
  6
CONTINUOUS
 62
    4
 10
959.53527467667925
 20
901.80128602242121
 11
977.53527467668107
 21
919.80128602242303
  0
LINE
  8
_0-d_断熱__ハッチ
  6
CONTINUOUS
 62
    4
 10
959.53527467667925
 20
912.40788774022349
 11
977.53527467668107
 21
930.40788774022303
  0
LINE
  8
_0-d_断熱__ハッチ
  6
CONTINUOUS
 62
    4
 10
959.53527467667925
 20
923.01448945802349
 11
975.88734735365449
 21
939.36656213499646
  0
LINE
  8
_0-d_断熱__ハッチ
  6
CONTINUOUS
 62
    4
 10
959.53527467667925
 20
933.6210911758144
 11
965.28074563586131
 21
939.36656213499646
  0
LINE
  8
_0-2_線色２__白__
  6
CONTINUOUS
 62
    7
 10
978.73527467667998
 20
910.56656213499764
 11
977.53527467668107
 21
908.48810116591494
  0
LINE
  8
_0-4_線色４__黄__
  6
CONTINUOUS
 62
    2
 10
983.73527467667998
 20
909.2268161728407
 11
982.53527467668107
 21
907.14835520376255
  0
LINE
  8
_0-4_線色４__黄__
  6
CONTINUOUS
 62
    2
 10
983.73527467667998
 20
942.56656213499582
 11
983.73527467667998
 21
909.2268161728407
  0
ARC
  8
_0-4_線色４__黄__
  6
CONTINUOUS
 62
    2
 10
980.73527467667816
 20
942.56656213499582
 40
3.0000000000000004
 50
0
 51
90
  0
LINE
  8
_0-d_断熱__ハッチ
  6
CONTINUOUS
 62
    4
 10
977.53527467668107
 20
549.26740623375736
 11
986.23611877543851
 21
540.56656213499764
  0
LINE
  8
_0-2_線色２__白__
  6
CONTINUOUS
 62
    7
 10
1160.7352746766783
 20
539.36656213499646
 11
1239.4525447766746
 21
539.36656213499646
  0
LINE
  8
_0-5_金属
  6
CONTINUOUS
 62
    7
 10
959.53527467667925
 20
893.66656213499709
 11
959.53527467667925
 21
635.06656213499582
  0
LINE
  8
_0-4_線色４__黄__
  6
CONTINUOUS
 62
    2
 10
1026.1808067500324
 20
592.8177109219223
 11
1030.2321553259908
 21
589.36656213499646
  0
LINE
  8
_0-4_線色４__黄__
  6
CONTINUOUS
 62
    2
 10
985.53527467668289
 20
592.8177109219223
 11
1026.1808067500324
 21
592.8177109219223
  0
LINE
  8
_0-4_線色４__黄__
  6
CONTINUOUS
 62
    2
 10
1030.2321553259908
 20
589.36656213499646
 11
1036.2292873929227
 21
589.36656213499646
  0
LINE
  8
_0-2_線色２__白__
  6
CONTINUOUS
 62
    7
 10
1025.535274676683
 20
580.23120279850673
 11
1026.550287629495
 21
579.36656213499646
  0
LINE
  8
_0-2_線色２__白__
  6
CONTINUOUS
 62
    7
 10
1046.9512647060692
 20
584.47686576665774
 11
1046.9771632555394
 21
584.36656213499646
  0
LINE
  8
_0-2_線色２__白__
  6
CONTINUOUS
 62
    7
 10
1046.9054278103904
 20
584.6665407137607
 11
1046.9512647060692
 21
584.47686576665774
  0
LINE
  8
_0-2_線色２__白__
  6
CONTINUOUS
 62
    7
 10
1046.856301403106
 20
584.85481641593651
 11
1046.9054278103904
 21
584.6665407137607
  0
LINE
  8
_0-2_線色２__白__
  6
CONTINUOUS
 62
    7
 10
1046.8018035148334
 20
585.04080727512701
 11
1046.856301403106
 21
584.85481641593651
  0
LINE
  8
_0-2_線色２__白__
  6
CONTINUOUS
 62
    7
 10
1046.7398521762125
 20
585.22362769327628
 11
1046.8018035148334
 21
585.04080727512701
  0
LINE
  8
_0-2_線色２__白__
  6
CONTINUOUS
 62
    7
 10
1046.6683654178605
 20
585.40239207232617
 11
1046.7398521762125
 21
585.22362769327628
  0
LINE
  8
_0-2_線色２__白__
  6
CONTINUOUS
 62
    7
 10
1046.621713564502
 20
585.50386796337534
 11
1046.6683654178605
 21
585.40239207232617
  0
LINE
  8
_0-2_線色２__白__
  6
CONTINUOUS
 62
    7
 10
1046.5856736534188
 20
585.57551962121806
 11
1046.621713564502
 21
585.50386796337534
  0
LINE
  8
_0-2_線色２__白__
  6
CONTINUOUS
 62
    7
 10
1046.5186531550871
 20
585.69681337492057
 11
1046.5856736534188
 21
585.57551962121806
  0
LINE
  8
_0-2_線色２__白__
  6
CONTINUOUS
 62
    7
 10
1046.4459455889455
 20
585.81522513961318
 11
1046.5186531550871
 21
585.69681337492057
  0
LINE
  8
_0-2_線色２__白__
  6
CONTINUOUS
 62
    7
 10
1046.3681248981966
 20
585.93070607232676
 11
1046.4459455889455
 21
585.81522513961318
  0
LINE
  8
_0-2_線色２__白__
  6
CONTINUOUS
 62
    7
 10
1046.2857650260657
 20
586.04320733008535
 11
1046.3681248981966
 21
585.93070607232676
  0
LINE
  8
_0-2_線色２__白__
  6
CONTINUOUS
 62
    7
 10
1046.1994399157602
 20
586.1526800699221
 11
1046.2857650260657
 21
586.04320733008535
  0
LINE
  8
_0-2_線色２__白__
  6
CONTINUOUS
 62
    7
 10
1046.1477806431249
 20
586.21476734544558
 11
1046.1994399157602
 21
586.1526800699221
  0
LINE
  8
_0-2_線色２__白__
  6
CONTINUOUS
 62
    7
 10
1046.0567120611831
 20
586.31896865365661
 11
1046.1477806431249
 21
586.21476734544558
  0
LINE
  8
_0-2_線色２__白__
  6
CONTINUOUS
 62
    7
 10
1045.8933981899072
 20
586.492245656666
 11
1046.0567120611831
 21
586.31896865365661
  0
LINE
  8
_0-2_線色２__白__
  6
CONTINUOUS
 62
    7
 10
1045.7233529907962
 20
586.65873179951632
 11
1045.8933981899072
 21
586.492245656666
  0
LINE
  8
_0-2_線色２__白__
  6
CONTINUOUS
 62
    7
 10
1045.5480208645731
 20
586.81992199744172
 11
1045.7233529907962
 21
586.65873179951632
  0
LINE
  8
_0-2_線色２__白__
  6
CONTINUOUS
 62
    7
 10
1045.3688462119471
 20
586.9773111656832
 11
1045.5480208645731
 21
586.81992199744172
  0
LINE
  8
_0-2_線色２__白__
  6
CONTINUOUS
 62
    7
 10
1045.1872734336366
 20
587.13239421947719
 11
1045.3688462119471
 21
586.9773111656832
  0
LINE
  8
_0-2_線色２__白__
  6
CONTINUOUS
 62
    7
 10
1045.0814315700172
 20
587.2218748033788
 11
1045.1872734336366
 21
587.13239421947719
  0
LINE
  8
_0-2_線色２__白__
  6
CONTINUOUS
 62
    7
 10
1044.9969784006153
 20
587.29313198247155
 11
1045.0814315700172
 21
587.2218748033788
  0
LINE
  8
_0-2_線色２__白__
  6
CONTINUOUS
 62
    7
 10
1044.8508707995206
 20
587.41533206239637
 11
1044.9969784006153
 21
587.29313198247155
  0
LINE
  8
_0-2_線色２__白__
  6
CONTINUOUS
 62
    7
 10
1044.7034659578248
 20
587.53566441144358
 11
1044.8508707995206
 21
587.41533206239637
  0
LINE
  8
_0-2_線色２__白__
  6
CONTINUOUS
 62
    7
 10
1044.5539894690928
 20
587.6529244638391
 11
1044.7034659578248
 21
587.53566441144358
  0
LINE
  8
_0-2_線色２__白__
  6
CONTINUOUS
 62
    7
 10
1044.4016669268667
 20
587.76590765380888
 11
1044.5539894690928
 21
587.6529244638391
  0
LINE
  8
_0-2_線色２__白__
  6
CONTINUOUS
 62
    7
 10
1044.245723924716
 20
587.87340941557659
 11
1044.4016669268667
 21
587.76590765380888
  0
LINE
  8
_0-2_線色２__白__
  6
CONTINUOUS
 62
    7
 10
1044.1533129323143
 20
587.93277418544903
 11
1044.245723924716
 21
587.87340941557659
  0
LINE
  8
_0-2_線色２__白__
  6
CONTINUOUS
 62
    7
 10
1044.0615979239892
 20
587.98846112696083
 11
1044.1533129323143
 21
587.93277418544903
  0
LINE
  8
_0-2_線色２__白__
  6
CONTINUOUS
 62
    7
 10
1043.9007941979771
 20
588.08041789768595
 11
1044.0615979239892
 21
587.98846112696083
  0
LINE
  8
_0-2_線色２__白__
  6
CONTINUOUS
 62
    7
 10
1043.7380767700251
 20
588.1695180600218
 11
1043.9007941979771
 21
588.08041789768595
  0
LINE
  8
_0-2_線色２__白__
  6
CONTINUOUS
 62
    7
 10
1043.575156821732
 20
588.25840876847224
 11
1043.7380767700251
 21
588.1695180600218
  0
LINE
  8
_0-2_線色２__白__
  6
CONTINUOUS
 62
    7
 10
1043.4137455347009
 20
588.34973717754337
 11
1043.575156821732
 21
588.25840876847224
  0
LINE
  8
_0-2_線色２__白__
  6
CONTINUOUS
 62
    7
 10
1043.2555540905305
 20
588.44615044173679
 11
1043.4137455347009
 21
588.34973717754337
  0
LINE
  8
_0-2_線色２__白__
  6
CONTINUOUS
 62
    7
 10
1043.1659526794392
 20
588.50544313211685
 11
1043.2555540905305
 21
588.44615044173679
  0
LINE
  8
_0-2_線色２__白__
  6
CONTINUOUS
 62
    7
 10
1043.1119254545474
 20
588.54331042850617
 11
1043.1659526794392
 21
588.50544313211685
  0
LINE
  8
_0-2_線色２__白__
  6
CONTINUOUS
 62
    7
 10
1043.020570955593
 20
588.61123825803588
 11
1043.1119254545474
 21
588.54331042850617
  0
LINE
  8
_0-2_線色２__白__
  6
CONTINUOUS
 62
    7
 10
1042.9315409445571
 20
588.68232973472459
 11
1043.020570955593
 21
588.61123825803588
  0
LINE
  8
_0-2_線色２__白__
  6
CONTINUOUS
 62
    7
 10
1042.8448949690637
 20
588.75637863805196
 11
1042.9315409445571
 21
588.68232973472459
  0
LINE
  8
_0-2_線色２__白__
  6
CONTINUOUS
 62
    7
 10
1042.7606925767323
 20
588.83317874749309
 11
1042.8448949690637
 21
588.75637863805196
  0
LINE
  8
_0-2_線色２__白__
  6
CONTINUOUS
 62
    7
 10
1042.6789933151913
 20
588.91252384252766
 11
1042.7606925767323
 21
588.83317874749309
  0
LINE
  8
_0-2_線色２__白__
  6
CONTINUOUS
 62
    7
 10
1042.6327781428899
 20
588.95962884843811
 11
1042.6789933151913
 21
588.91252384252766
  0
LINE
  8
_0-2_線色２__白__
  6
CONTINUOUS
 62
    7
 10
1042.5048961350622
 20
589.09888174821845
 11
1042.6327781428899
 21
588.95962884843811
  0
LINE
  8
_0-2_線色２__白__
  6
CONTINUOUS
 62
    7
 10
1042.2996105087868
 20
589.35172420397748
 11
1042.5048961350622
 21
589.09888174821845
  0
LINE
  8
_0-2_線色２__白__
  6
CONTINUOUS
 62
    7
 10
1042.1109985103858
 20
589.61815572516343
 11
1042.2996105087868
 21
589.35172420397748
  0
LINE
  8
_0-2_線色２__白__
  6
CONTINUOUS
 62
    7
 10
1041.9360745230024
 20
589.89520915318053
 11
1042.1109985103858
 21
589.61815572516343
  0
LINE
  8
_0-2_線色２__白__
  6
CONTINUOUS
 62
    7
 10
1041.7718529297754
 20
590.17991732943301
 11
1041.9360745230024
 21
589.89520915318053
  0
LINE
  8
_0-2_線色２__白__
  6
CONTINUOUS
 62
    7
 10
1041.6153481138435
 20
590.46931309532056
 11
1041.7718529297754
 21
590.17991732943301
  0
LINE
  8
_0-2_線色２__白__
  6
CONTINUOUS
 62
    7
 10
1041.526934659666
 20
590.63814127832757
 11
1041.6153481138435
 21
590.46931309532056
  0
LINE
  8
_0-2_線色２__白__
  6
CONTINUOUS
 62
    7
 10
1041.4619766650385
 20
590.76358102782706
 11
1041.526934659666
 21
590.63814127832757
  0
LINE
  8
_0-2_線色２__白__
  6
CONTINUOUS
 62
    7
 10
1041.3508496728418
 20
590.97972086708296
 11
1041.4619766650385
 21
590.76358102782706
  0
LINE
  8
_0-2_線色２__白__
  6
CONTINUOUS
 62
    7
 10
1041.2401622489797
 20
591.19548440806284
 11
1041.3508496728418
 21
590.97972086708296
  0
LINE
  8
_0-2_線色２__白__
  6
CONTINUOUS
 62
    7
 10
1041.1291456397357
 20
591.41063366913841
 11
1041.2401622489797
 21
591.19548440806284
  0
LINE
  8
_0-2_線色２__白__
  6
CONTINUOUS
 62
    7
 10
1041.0170310913709
 20
591.62493066867455
 11
1041.1291456397357
 21
591.41063366913841
  0
LINE
  8
_0-2_線色２__白__
  6
CONTINUOUS
 62
    7
 10
1040.9030498501597
 20
591.83813742504299
 11
1041.0170310913709
 21
591.62493066867455
  0
LINE
  8
_0-2_線色２__白__
  6
CONTINUOUS
 62
    7
 10
1040.8357824826562
 20
591.96120401717963
 11
1040.9030498501597
 21
591.83813742504299
  0
LINE
  8
_0-2_線色２__白__
  6
CONTINUOUS
 62
    7
 10
1040.7718921557962
 20
592.0758828142084
 11
1040.8357824826562
 21
591.96120401717963
  0
LINE
  8
_0-2_線色２__白__
  6
CONTINUOUS
 62
    7
 10
1040.6589393022268
 20
592.27213681298963
 11
1040.7718921557962
 21
592.0758828142084
  0
LINE
  8
_0-2_線色２__白__
  6
CONTINUOUS
 62
    7
 10
1040.5414385380591
 20
592.46584598213303
 11
1040.6589393022268
 21
592.27213681298963
  0
LINE
  8
_0-2_線色２__白__
  6
CONTINUOUS
 62
    7
 10
1040.4182186360704
 20
592.65621204322315
 11
1040.5414385380591
 21
592.46584598213303
  0
LINE
  8
_0-2_線色２__白__
  6
CONTINUOUS
 62
    7
 10
1040.2881083690518
 20
592.84243671784452
 11
1040.4182186360704
 21
592.65621204322315
  0
LINE
  8
_0-2_線色２__白__
  6
CONTINUOUS
 62
    7
 10
1040.1499365097852
 20
593.02372172757941
 11
1040.2881083690518
 21
592.84243671784452
  0
LINE
  8
_0-2_線色２__白__
  6
CONTINUOUS
 62
    7
 10
1040.0656414854138
 20
593.12628911557113
 11
1040.1499365097852
 21
593.02372172757941
  0
LINE
  8
_0-2_線色２__白__
  6
CONTINUOUS
 62
    7
 10
1039.9901994054262
 20
593.21314281956802
 11
1040.0656414854138
 21
593.12628911557113
  0
LINE
  8
_0-2_線色２__白__
  6
CONTINUOUS
 62
    7
 10
1039.8542899522245
 20
593.35816464889831
 11
1039.9901994054262
 21
593.21314281956802
  0
LINE
  8
_0-2_線色２__白__
  6
CONTINUOUS
 62
    7
 10
1039.7109956118557
 20
593.49558205474523
 11
1039.8542899522245
 21
593.35816464889831
  0
LINE
  8
_0-2_線色２__白__
  6
CONTINUOUS
 62
    7
 10
1039.5603205654397
 20
593.62350872806019
 11
1039.7109956118557
 21
593.49558205474523
  0
LINE
  8
_0-2_線色２__白__
  6
CONTINUOUS
 62
    7
 10
1039.4022689940784
 20
593.74005835979233
 11
1039.5603205654397
 21
593.62350872806019
  0
LINE
  8
_0-2_線色２__白__
  6
CONTINUOUS
 62
    7
 10
1039.2368450788917
 20
593.84334464089079
 11
1039.4022689940784
 21
593.74005835979233
  0
LINE
  8
_0-2_線色２__白__
  6
CONTINUOUS
 62
    7
 10
1039.1375228477109
 20
593.8964301128135
 11
1039.2368450788917
 21
593.84334464089079
  0
LINE
  8
_0-2_線色２__白__
  6
CONTINUOUS
 62
    7
 10
1039.0269850215891
 20
593.94804005346941
 11
1039.1375228477109
 21
593.8964301128135
  0
LINE
  8
_0-2_線色２__白__
  6
CONTINUOUS
 62
    7
 10
1038.8304910459892
 20
594.02393958720495
 11
1039.0269850215891
 21
593.94804005346941
  0
LINE
  8
_0-2_線色２__白__
  6
CONTINUOUS
 62
    7
 10
1038.6279378461331
 20
594.08634775410292
 11
1038.8304910459892
 21
594.02393958720495
  0
LINE
  8
_0-2_線色２__白__
  6
CONTINUOUS
 62
    7
 10
1038.420980896869
 20
594.13883379580739
 11
1038.6279378461331
 21
594.08634775410292
  0
LINE
  8
_0-2_線色２__白__
  6
CONTINUOUS
 62
    7
 10
1038.2112756730312
 20
594.18496695395561
 11
1038.420980896869
 21
594.13883379580739
  0
LINE
  8
_0-2_線色２__白__
  6
CONTINUOUS
 62
    7
 10
1038.0004776494679
 20
594.22831647018938
 11
1038.2112756730312
 21
594.18496695395561
  0
LINE
  8
_0-2_線色２__白__
  6
CONTINUOUS
 62
    7
 10
1037.8783664181374
 20
594.25359019168809
 11
1038.0004776494679
 21
594.22831647018938
  0
LINE
  8
_0-2_線色２__白__
  6
CONTINUOUS
 62
    7
 10
1037.7708041926026
 20
594.2765719785757
 11
1037.8783664181374
 21
594.25359019168809
  0
LINE
  8
_0-2_線色２__白__
  6
CONTINUOUS
 62
    7
 10
1037.5860846546739
 20
594.31701597615074
 11
1037.7708041926026
 21
594.2765719785757
  0
LINE
  8
_0-2_線色２__白__
  6
CONTINUOUS
 62
    7
 10
1037.4019790586517
 20
594.35707364085829
 11
1037.5860846546739
 21
594.31701597615074
  0
LINE
  8
_0-2_線色２__白__
  6
CONTINUOUS
 62
    7
 10
1037.2181230227961
 20
594.39508846688568
 11
1037.4019790586517
 21
594.35707364085829
  0
LINE
  8
_0-2_線色２__白__
  6
CONTINUOUS
 62
    7
 10
1037.0341521653536
 20
594.42940394842481
 11
1037.2181230227961
 21
594.39508846688568
  0
LINE
  8
_0-2_線色２__白__
  6
CONTINUOUS
 62
    7
 10
1036.8497021045841
 20
594.45836357966527
 11
1037.0341521653536
 21
594.42940394842481
  0
LINE
  8
_0-2_線色２__白__
  6
CONTINUOUS
 62
    7
 10
1036.7423579130191
 20
594.47205336575053
 11
1036.8497021045841
 21
594.45836357966527
  0
LINE
  8
_0-2_線色２__白__
  6
CONTINUOUS
 62
    7
 10
1036.5958064367824
 20
594.48648997452892
 11
1036.7423579130191
 21
594.47205336575053
  0
LINE
  8
_0-2_線色２__白__
  6
CONTINUOUS
 62
    7
 10
1036.3418412497931
 20
594.5005591225322
 11
1036.5958064367824
 21
594.48648997452892
  0
LINE
  8
_0-2_線色２__白__
  6
CONTINUOUS
 62
    7
 10
1036.0866234603573
 20
594.50218882977879
 11
1036.3418412497931
 21
594.5005591225322
  0
LINE
  8
_0-2_線色２__白__
  6
CONTINUOUS
 62
    7
 10
1035.8305956237264
 20
594.49284273859348
 11
1036.0866234603573
 21
594.50218882977879
  0
LINE
  8
_0-2_線色２__白__
  6
CONTINUOUS
 62
    7
 10
1035.5742002951474
 20
594.47398449129423
 11
1035.8305956237264
 21
594.49284273859348
  0
LINE
  8
_0-2_線色２__白__
  6
CONTINUOUS
 62
    7
 10
1035.3178800298629
 20
594.44707773020582
 11
1035.5742002951474
 21
594.47398449129423
  0
LINE
  8
_0-2_線色２__白__
  6
CONTINUOUS
 62
    7
 10
1035.1694230597759
 20
594.42836073093758
 11
1035.3178800298629
 21
594.44707773020582
  0
LINE
  8
_0-2_線色２__白__
  6
CONTINUOUS
 62
    7
 10
1035.0466542117483
 20
594.41130736490322
 11
1035.1694230597759
 21
594.42836073093758
  0
LINE
  8
_0-2_線色２__白__
  6
CONTINUOUS
 62
    7
 10
1034.8358111681928
 20
594.37795464926694
 11
1035.0466542117483
 21
594.41130736490322
  0
LINE
  8
_0-2_線色２__白__
  6
CONTINUOUS
 62
    7
 10
1034.6266317764839
 20
594.33833005415863
 11
1034.8358111681928
 21
594.37795464926694
  0
LINE
  8
_0-2_線色２__白__
  6
CONTINUOUS
 62
    7
 10
1034.4198326996748
 20
594.29095518042686
 11
1034.6266317764839
 21
594.33833005415863
  0
LINE
  8
_0-2_線色２__白__
  6
CONTINUOUS
 62
    7
 10
1034.2161306008184
 20
594.23435162892929
 11
1034.4198326996748
 21
594.29095518042686
  0
LINE
  8
_0-2_線色２__白__
  6
CONTINUOUS
 62
    7
 10
1034.0162421429632
 20
594.16704100051447
 11
1034.2161306008184
 21
594.23435162892929
  0
LINE
  8
_0-2_線色２__白__
  6
CONTINUOUS
 62
    7
 10
1033.9023366502233
 20
594.12251228725154
 11
1034.0162421429632
 21
594.16704100051447
  0
LINE
  8
_0-2_線色２__白__
  6
CONTINUOUS
 62
    7
 10
1033.8009403890528
 20
594.07863001633132
 11
1033.9023366502233
 21
594.12251228725154
  0
LINE
  8
_0-2_線色２__白__
  6
CONTINUOUS
 62
    7
 10
1033.6293422914487
 20
593.99512183581919
 11
1033.8009403890528
 21
594.07863001633132
  0
LINE
  8
_0-2_線色２__白__
  6
CONTINUOUS
 62
    7
 10
1033.4618846494204
 20
593.90250144053425
 11
1033.6293422914487
 21
593.99512183581919
  0
LINE
  8
_0-2_線色２__白__
  6
CONTINUOUS
 62
    7
 10
1033.2986379921904
 20
593.80172620910798
 11
1033.4618846494204
 21
593.90250144053425
  0
LINE
  8
_0-2_線色２__白__
  6
CONTINUOUS
 62
    7
 10
1033.1396728490035
 20
593.69375352017641
 11
1033.2986379921904
 21
593.80172620910798
  0
LINE
  8
_0-2_線色２__白__
  6
CONTINUOUS
 62
    7
 10
1032.9850597490822
 20
593.57954075237558
 11
1033.1396728490035
 21
593.69375352017641
  0
LINE
  8
_0-2_線色２__白__
  6
CONTINUOUS
 62
    7
 10
1032.8974060495393
 20
593.51081539987945
 11
1032.9850597490822
 21
593.57954075237558
  0
LINE
  8
_0-2_線色２__白__
  6
CONTINUOUS
 62
    7
 10
1032.8001786079512
 20
593.43126559259872
 11
1032.8974060495393
 21
593.51081539987945
  0
LINE
  8
_0-2_線色２__白__
  6
CONTINUOUS
 62
    7
 10
1032.6366537645727
 20
593.2898023397729
 11
1032.8001786079512
 21
593.43126559259872
  0
LINE
  8
_0-2_線色２__白__
  6
CONTINUOUS
 62
    7
 10
1032.4777398084661
 20
593.14357560937424
 11
1032.6366537645727
 21
593.2898023397729
  0
LINE
  8
_0-2_線色２__白__
  6
CONTINUOUS
 62
    7
 10
1032.3227507289603
 20
592.99338797045493
 11
1032.4777398084661
 21
593.14357560937424
  0
LINE
  8
_0-2_線色２__白__
  6
CONTINUOUS
 62
    7
 10
1032.1710005153927
 20
592.84004199205356
 11
1032.3227507289603
 21
592.99338797045493
  0
LINE
  8
_0-2_線色２__白__
  6
CONTINUOUS
 62
    7
 10
1032.021803157083
 20
592.68434024322232
 11
1032.1710005153927
 21
592.84004199205356
  0
LINE
  8
_0-2_線色２__白__
  6
CONTINUOUS
 62
    7
 10
1031.9361680836682
 20
592.59327006882359
 11
1032.021803157083
 21
592.68434024322232
  0
LINE
  8
_0-2_線色２__白__
  6
CONTINUOUS
 62
    7
 10
1031.8548121857584
 20
592.50584697581644
 11
1031.9361680836682
 21
592.59327006882359
  0
LINE
  8
_0-2_線色２__白__
  6
CONTINUOUS
 62
    7
 10
1031.7157630904485
 20
592.35410173256241
 11
1031.8548121857584
 21
592.50584697581644
  0
LINE
  8
_0-2_線色２__白__
  6
CONTINUOUS
 62
    7
 10
1031.5784991936262
 20
592.2007217454734
 11
1031.7157630904485
 21
592.35410173256241
  0
LINE
  8
_0-2_線色２__白__
  6
CONTINUOUS
 62
    7
 10
1031.4433010554985
 20
592.0453012520079
 11
1031.5784991936262
 21
592.2007217454734
  0
LINE
  8
_0-2_線色２__白__
  6
CONTINUOUS
 62
    7
 10
1031.3104492362772
 20
591.88743448961759
 11
1031.4433010554985
 21
592.0453012520079
  0
LINE
  8
_0-2_線色２__白__
  6
CONTINUOUS
 62
    7
 10
1031.1802242961739
 20
591.72671569575414
 11
1031.3104492362772
 21
591.88743448961759
  0
LINE
  8
_0-2_線色２__白__
  6
CONTINUOUS
 62
    7
 10
1031.106008022236
 20
591.63203210295251
 11
1031.1802242961739
 21
591.72671569575414
  0
LINE
  8
_0-2_線色２__白__
  6
CONTINUOUS
 62
    7
 10
1031.0438004425596
 20
591.5506642557466
 11
1031.106008022236
 21
591.63203210295251
  0
LINE
  8
_0-2_線色２__白__
  6
CONTINUOUS
 62
    7
 10
1030.9391011042426
 20
591.40823507495043
 11
1031.0438004425596
 21
591.5506642557466
  0
LINE
  8
_0-2_線色２__白__
  6
CONTINUOUS
 62
    7
 10
1030.8388520070976
 20
591.26287403317974
 11
1030.9391011042426
 21
591.40823507495043
  0
LINE
  8
_0-2_線色２__白__
  6
CONTINUOUS
 62
    7
 10
1030.7444670179502
 20
591.11432151737972
 11
1030.8388520070976
 21
591.26287403317974
  0
LINE
  8
_0-2_線色２__白__
  6
CONTINUOUS
 62
    7
 10
1030.6573600036218
 20
590.96231791449782
 11
1030.7444670179502
 21
591.11432151737972
  0
LINE
  8
_0-2_線色２__白__
  6
CONTINUOUS
 62
    7
 10
1030.5789448309424
 20
590.80660361148603
 11
1030.6573600036218
 21
590.96231791449782
  0
LINE
  8
_0-2_線色２__白__
  6
CONTINUOUS
 62
    7
 10
1030.5380037696768
 20
590.71448677189437
 11
1030.5789448309424
 21
590.80660361148603
  0
LINE
  8
_0-2_線色２__白__
  6
CONTINUOUS
 62
    7
 10
1030.4907800713836
 20
590.59452166890196
 11
1030.5380037696768
 21
590.71448677189437
  0
LINE
  8
_0-2_線色２__白__
  6
CONTINUOUS
 62
    7
 10
1030.4218649283957
 20
590.38296873708305
 11
1030.4907800713836
 21
590.59452166890196
  0
LINE
  8
_0-2_線色２__白__
  6
CONTINUOUS
 62
    7
 10
1030.3662765308645
 20
590.16638932842625
 11
1030.4218649283957
 21
590.38296873708305
  0
LINE
  8
_0-2_線色２__白__
  6
CONTINUOUS
 62
    7
 10
1030.3211051090393
 20
589.94588092695494
 11
1030.3662765308645
 21
590.16638932842625
  0
LINE
  8
_0-2_線色２__白__
  6
CONTINUOUS
 62
    7
 10
1030.283440893174
 20
589.72254101669705
 11
1030.3211051090393
 21
589.94588092695494
  0
LINE
  8
_0-2_線色２__白__
  6
CONTINUOUS
 62
    7
 10
1030.2503741135133
 20
589.49746708167822
 11
1030.283440893174
 21
589.72254101669705
  0
LINE
  8
_0-2_線色２__白__
  6
CONTINUOUS
 62
    7
 10
1030.2321553259908
 20
589.36656213499646
 11
1030.2503741135133
 21
589.49746708167822
  0
LINE
  8
_0-2_線色２__白__
  6
CONTINUOUS
 62
    7
 10
977.53527467668107
 20
587.8177109219223
 11
1024.339872901789
 21
587.8177109219223
  0
LINE
  8
_0-2_線色２__白__
  6
CONTINUOUS
 62
    7
 10
1024.339872901789
 20
587.8177109219223
 11
1028.3912214777429
 21
584.36656213499646
  0
ARC
  8
_0-2_線色２__白__
  6
CONTINUOUS
 62
    7
 10
985.53527467668289
 20
595.81771092192184
 40
8
 50
180
 51
270
  0
LINE
  8
_0-2_線色２__白__
  6
CONTINUOUS
 62
    7
 10
1028.3912214777429
 20
584.36656213499646
 11
1036.2292873929227
 21
584.36656213499646
  0
LINE
  8
_0-4_線色４__黄__
  6
CONTINUOUS
 62
    2
 10
1036.2292873929227
 20
589.36656213499646
 11
1036.2292873929227
 21
584.36656213499646
  0
LINE
  8
_0-4_線色４__黄__
  6
CONTINUOUS
 62
    2
 10
982.53527467668107
 20
595.81771092192184
 11
982.53527467668107
 21
907.14835520376255
  0
ARC
  8
_0-4_線色４__黄__
  6
CONTINUOUS
 62
    2
 10
985.53527467668289
 20
595.81771092192184
 40
3.0000000000000004
 50
180
 51
270
  0
LINE
  8
_0-d_断熱__ハッチ
  6
CONTINUOUS
 62
    4
 10
980.72039002290637
 20
574.36656213499646
 11
1014.5203900229052
 21
540.56656213499991
  0
LINE
  8
_0-d_断熱__ハッチ
  6
CONTINUOUS
 62
    4
 10
1169.477377810369
 20
539.366562135001
 11
1204.4773778103668
 21
574.36656213499646
  0
LINE
  8
_0-d_断熱__ハッチ
  6
CONTINUOUS
 62
    4
 10
1142.3931065629104
 20
540.56656213499764
 11
1176.1931065629092
 21
574.36656213499646
  0
LINE
  8
_0-d_断熱__ハッチ
  6
CONTINUOUS
 62
    4
 10
1114.1088353154437
 20
540.56656213499764
 11
1147.9088353154425
 21
574.36656213499646
  0
LINE
  8
_0-d_断熱__ハッチ
  6
CONTINUOUS
 62
    4
 10
1085.8245640679861
 20
540.56656213499764
 11
1119.6245640679849
 21
574.36656213499646
  0
LINE
  8
_0-d_断熱__ハッチ
  6
CONTINUOUS
 62
    4
 10
1057.5402928205194
 20
540.56656213499764
 11
1091.3402928205182
 21
574.36656213499646
  0
LINE
  8
_0-d_断熱__ハッチ
  6
CONTINUOUS
 62
    4
 10
1029.2560215730618
 20
540.56656213499764
 11
1063.0560215730607
 21
574.36656213499646
  0
LINE
  8
_0-d_断熱__ハッチ
  6
CONTINUOUS
 62
    4
 10
1000.9717503255951
 20
540.56656213499991
 11
1034.771750325594
 21
574.36656213499646
  0
LINE
  8
_0-d_断熱__ハッチ
  6
CONTINUOUS
 62
    4
 10
977.53527467668107
 20
545.41435773354124
 11
1006.4874790781363
 21
574.36656213499646
  0
LINE
  8
_0-d_断熱__ハッチ
  6
CONTINUOUS
 62
    4
 10
1009.004661270364
 20
574.36656213499646
 11
1042.8046612703629
 21
540.56656213499764
  0
LINE
  8
_0-d_断熱__ハッチ
  6
CONTINUOUS
 62
    4
 10
1037.2889325178307
 20
574.36656213499646
 11
1071.0889325178296
 21
540.56656213499764
  0
LINE
  8
_0-d_断熱__ハッチ
  6
CONTINUOUS
 62
    4
 10
1065.5732037652883
 20
574.36656213499646
 11
1099.3732037652871
 21
540.56656213499764
  0
LINE
  8
_0-d_断熱__ハッチ
  6
CONTINUOUS
 62
    4
 10
1093.8574750127505
 20
574.36656213499646
 11
1127.6574750127515
 21
540.56656213499764
  0
LINE
  8
_0-d_断熱__ハッチ
  6
CONTINUOUS
 62
    4
 10
1122.1417462602126
 20
574.36656213499646
 11
1155.9417462602137
 21
540.56656213499764
  0
LINE
  8
_0-d_断熱__ハッチ
  6
CONTINUOUS
 62
    4
 10
1150.4260175076702
 20
574.36656213499646
 11
1185.4260175076724
 21
539.36656213499418
  0
LINE
  8
_0-d_断熱__ハッチ
  6
CONTINUOUS
 62
    4
 10
1178.7102887551368
 20
574.36656213499646
 11
1213.7102887551391
 21
539.36656213499646
  0
LINE
  8
_0-a_文字
  6
CONTINUOUS
 62
    7
 10
1159.8693923669448
 20
659.36656213499646
 11
1179.8693923669448
 21
659.36656213499646
  0
TEXT
  8
_0-a_文字
 62
    7
 10
1184.8693923669441
 20
626.86656213499657
 40
14.999999999999858
 41
1.0000000000000162
 50
0
  1
ラジアルシートＬ６００
  0
LINE
  8
_0-a_文字
  6
CONTINUOUS
 62
    7
 10
1131.0018789074634
 20
609.36656213499646
 11
1179.8693923669448
 21
609.36656213499646
  0
LINE
  8
_0-a_文字
  6
CONTINUOUS
 62
    7
 10
1145.4356356372041
 20
634.36656213499646
 11
1179.8693923669448
 21
634.36656213499646
  0
TEXT
  8
_0-a_文字
 62
    7
 10
1184.8693923669448
 20
601.86656213499657
 40
14.999999999999858
 41
1.0000000000000122
 50
0
  1
断熱材
  0
TEXT
  8
_0-a_文字
 62
    7
 10
1116.834050790814
 20
676.86656213499646
 40
14.999999999999858
 41
1.0000000000000115
 50
0
  1
プルーフシーラー
  0
LINE
  8
_0-a_文字
  6
CONTINUOUS
 62
    7
 10
1091.8340507908142
 20
684.36656213499646
 11
1111.8340507908142
 21
684.36656213499646
  0
LINE
  8
_0-a_文字
  6
CONTINUOUS
 62
    7
 10
1038.1222009589392
 20
591.33490925768001
 11
1091.8340507908142
 21
684.36656213499646
  0
TEXT
  8
_0-a_文字
 62
    7
 10
1037.5352746766857
 20
801.86656213499646
 40
14.999999999999858
 41
1.0000000000000078
 50
0
  1
塩ビシート接着工法
  0
LINE
  8
_0-a_文字
  6
CONTINUOUS
 62
    7
 10
1012.5352746766856
 20
809.36656213499646
 11
1032.5352746766857
 21
809.36656213499646
  0
LINE
  8
_0-a_文字
  6
CONTINUOUS
 62
    7
 10
998.10151794694491
 20
784.36656213499646
 11
1032.5352746766857
 21
784.36656213499646
  0
LINE
  8
_0-a_文字
  6
CONTINUOUS
 62
    7
 10
969.24521103576524
 20
734.38597244603443
 11
1012.5352746766856
 21
809.36656213499646
  0
TEXT
  8
_0-a_文字
 62
    7
 10
1184.8693923669448
 20
651.86656213499646
 40
14.999999999999858
 41
1.0000000000000089
 50
0
  1
塩ビシート機械的固定工法
  0
TEXT
  8
_0-a_文字
 62
    7
 10
1037.5352746766857
 20
776.86656213499657
 40
14.999999999999503
 41
1.0000000000000333
 50
0
  1
硬質木片セメント板（別途工事）
  0
LINE
  8
_0-a_文字
  6
CONTINUOUS
 62
    7
 10
1100.6909897750093
 20
556.86656213499646
 11
1159.8693923669448
 21
659.36656213499646
  0
ARC
  8
_0-1_線色１__水色__
  6
CONTINUOUS
 62
    4
 10
1137.8872948169665
 20
577.82489547409568
 40
1.2083333333333581
 50
307.52351320333912
 51
232.47648680464988
  0
ARC
  8
_0-1_線色１__水色__
  6
CONTINUOUS
 62
    4
 10
1139.3592549614409
 20
575.90822880749556
 40
1.2083333333333177
 50
127.52351320610693
 51
52.47648680188081
  0
ARC
  8
_0-1_線色１__水色__
  6
CONTINUOUS
 62
    4
 10
1134.9433745282813
 20
577.82489547389105
 40
1.2083333333333581
 50
307.52351320333912
 51
232.47648680464988
  0
ARC
  8
_0-1_線色１__水色__
  6
CONTINUOUS
 62
    4
 10
1136.415334672758
 20
575.90822880729093
 40
1.2083333333333177
 50
127.52351320610693
 51
52.47648680188081
  0
ARC
  8
_0-1_線色１__水色__
  6
CONTINUOUS
 62
    4
 10
1131.9994542395984
 20
577.82489547368641
 40
1.2083333333333581
 50
307.52351320333912
 51
232.47648680464988
  0
ARC
  8
_0-1_線色１__水色__
  6
CONTINUOUS
 62
    4
 10
1133.4714143840729
 20
575.90822880708629
 40
1.2083333333333177
 50
127.52351320610693
 51
52.47648680188081
  0
ARC
  8
_0-1_線色１__水色__
  6
CONTINUOUS
 62
    4
 10
1129.0555339509156
 20
577.8248954734795
 40
1.2083333333333581
 50
307.52351320333912
 51
232.47648680464988
  0
ARC
  8
_0-1_線色１__水色__
  6
CONTINUOUS
 62
    4
 10
1130.5274940953923
 20
575.90822880688165
 40
1.2083333333333177
 50
127.52351320610693
 51
52.47648680188081
  0
ARC
  8
_0-1_線色１__水色__
  6
CONTINUOUS
 62
    4
 10
1164.3825774151146
 20
577.82489547409568
 40
1.2083333333333581
 50
307.52351320333912
 51
232.47648680464988
  0
ARC
  8
_0-1_線色１__水色__
  6
CONTINUOUS
 62
    4
 10
1165.8545375595913
 20
575.90822880749556
 40
1.2083333333333177
 50
127.52351320610693
 51
52.47648680188081
  0
ARC
  8
_0-1_線色１__水色__
  6
CONTINUOUS
 62
    4
 10
1161.4386571264317
 20
577.82489547389105
 40
1.2083333333333581
 50
307.52351320333912
 51
232.47648680464988
  0
ARC
  8
_0-1_線色１__水色__
  6
CONTINUOUS
 62
    4
 10
1162.9106172709062
 20
575.90822880729093
 40
1.2083333333333177
 50
127.52351320610693
 51
52.47648680188081
  0
ARC
  8
_0-1_線色１__水色__
  6
CONTINUOUS
 62
    4
 10
1158.4947368377489
 20
577.82489547368641
 40
1.2083333333333581
 50
307.52351320333912
 51
232.47648680464988
  0
ARC
  8
_0-1_線色１__水色__
  6
CONTINUOUS
 62
    4
 10
1159.9666969822256
 20
575.90822880708629
 40
1.2083333333333177
 50
127.52351320610693
 51
52.47648680188081
  0
ARC
  8
_0-1_線色１__水色__
  6
CONTINUOUS
 62
    4
 10
1155.550816549066
 20
577.8248954734795
 40
1.2083333333333581
 50
307.52351320333912
 51
232.47648680464988
  0
ARC
  8
_0-1_線色１__水色__
  6
CONTINUOUS
 62
    4
 10
1157.0227766935404
 20
575.90822880688165
 40
1.2083333333333177
 50
127.52351320610693
 51
52.47648680188081
  0
ARC
  8
_0-1_線色１__水色__
  6
CONTINUOUS
 62
    4
 10
1152.6068962603831
 20
577.82489547327486
 40
1.2083333333333581
 50
307.52351320333912
 51
232.47648680464988
  0
ARC
  8
_0-1_線色１__水色__
  6
CONTINUOUS
 62
    4
 10
1154.0788564048576
 20
575.90822880667474
 40
1.2083333333333177
 50
127.52351320610693
 51
52.47648680188081
  0
ARC
  8
_0-1_線色１__水色__
  6
CONTINUOUS
 62
    4
 10
1149.662975971698
 20
577.82489547307023
 40
1.2083333333333581
 50
307.52351320333912
 51
232.47648680464988
  0
ARC
  8
_0-1_線色１__水色__
  6
CONTINUOUS
 62
    4
 10
1151.1349361161747
 20
575.90822880647011
 40
1.2083333333333177
 50
127.52351320610693
 51
52.47648680188081
  0
ARC
  8
_0-1_線色１__水色__
  6
CONTINUOUS
 62
    4
 10
1143.7751353943322
 20
577.82489547265868
 40
1.2083333333333581
 50
307.52351320333912
 51
232.47648680464988
  0
ARC
  8
_0-1_線色１__水色__
  6
CONTINUOUS
 62
    4
 10
1146.7190556830151
 20
577.82489547286559
 40
1.2083333333333581
 50
307.52351320333912
 51
232.47648680464988
  0
ARC
  8
_0-1_線色１__水色__
  6
CONTINUOUS
 62
    4
 10
1145.2470955388089
 20
575.90822880606083
 40
1.2083333333333177
 50
127.52351320610693
 51
52.47648680188081
  0
ARC
  8
_0-1_線色１__水色__
  6
CONTINUOUS
 62
    4
 10
1148.1910158274895
 20
575.90822880626547
 40
1.2083333333333177
 50
127.52351320610693
 51
52.47648680188081
  0
ARC
  8
_0-1_線色１__水色__
  6
CONTINUOUS
 62
    4
 10
1142.3031752501238
 20
575.90822880585392
 40
1.2083333333333177
 50
127.52351320610693
 51
52.47648680188081
  0
ARC
  8
_0-1_線色１__水色__
  6
CONTINUOUS
 62
    4
 10
1140.8312151056493
 20
577.82489547245405
 40
1.2083333333333581
 50
307.52351320333912
 51
232.47648680464988
  0
ARC
  8
_0-1_線色１__水色__
  6
CONTINUOUS
 62
    4
 10
1182.0460991472164
 20
577.82489547409568
 40
1.2083333333333581
 50
307.52351320333912
 51
232.47648680464988
  0
ARC
  8
_0-1_線色１__水色__
  6
CONTINUOUS
 62
    4
 10
1183.5180592916909
 20
575.90822880749556
 40
1.2083333333333177
 50
127.52351320610693
 51
52.47648680188081
  0
ARC
  8
_0-1_線色１__水色__
  6
CONTINUOUS
 62
    4
 10
1179.1021788585313
 20
577.82489547389105
 40
1.2083333333333581
 50
307.52351320333912
 51
232.47648680464988
  0
ARC
  8
_0-1_線色１__水色__
  6
CONTINUOUS
 62
    4
 10
1180.574139003008
 20
575.90822880729093
 40
1.2083333333333177
 50
127.52351320610693
 51
52.47648680188081
  0
ARC
  8
_0-1_線色１__水色__
  6
CONTINUOUS
 62
    4
 10
1176.1582585698507
 20
577.82489547368641
 40
1.2083333333333581
 50
307.52351320333912
 51
232.47648680464988
  0
ARC
  8
_0-1_線色１__水色__
  6
CONTINUOUS
 62
    4
 10
1177.6302187143228
 20
575.90822880708629
 40
1.2083333333333177
 50
127.52351320610693
 51
52.47648680188081
  0
ARC
  8
_0-1_線色１__水色__
  6
CONTINUOUS
 62
    4
 10
1173.2143382811655
 20
577.8248954734795
 40
1.2083333333333581
 50
307.52351320333912
 51
232.47648680464988
  0
ARC
  8
_0-1_線色１__水色__
  6
CONTINUOUS
 62
    4
 10
1174.6862984256422
 20
575.90822880688165
 40
1.2083333333333177
 50
127.52351320610693
 51
52.47648680188081
  0
ARC
  8
_0-1_線色１__水色__
  6
CONTINUOUS
 62
    4
 10
1170.2704179924826
 20
577.82489547327486
 40
1.2083333333333581
 50
307.52351320333912
 51
232.47648680464988
  0
ARC
  8
_0-1_線色１__水色__
  6
CONTINUOUS
 62
    4
 10
1171.7423781369571
 20
575.90822880667474
 40
1.2083333333333177
 50
127.52351320610693
 51
52.47648680188081
  0
ARC
  8
_0-1_線色１__水色__
  6
CONTINUOUS
 62
    4
 10
1167.3264977037998
 20
577.82489547307023
 40
1.2083333333333581
 50
307.52351320333912
 51
232.47648680464988
  0
ARC
  8
_0-1_線色１__水色__
  6
CONTINUOUS
 62
    4
 10
1168.7984578482742
 20
575.90822880647011
 40
1.2083333333333177
 50
127.52351320610693
 51
52.47648680188081
  0
ARC
  8
_0-1_線色１__水色__
  6
CONTINUOUS
 62
    4
 10
1208.5413817453646
 20
577.82489547409568
 40
1.2083333333333581
 50
307.52351320333912
 51
232.47648680464988
  0
ARC
  8
_0-1_線色１__水色__
  6
CONTINUOUS
 62
    4
 10
1210.0133418898413
 20
575.90822880749556
 40
1.2083333333333177
 50
127.52351320610693
 51
52.47648680188081
  0
ARC
  8
_0-1_線色１__水色__
  6
CONTINUOUS
 62
    4
 10
1205.597461456684
 20
577.82489547389105
 40
1.2083333333333581
 50
307.52351320333912
 51
232.47648680464988
  0
ARC
  8
_0-1_線色１__水色__
  6
CONTINUOUS
 62
    4
 10
1207.0694216011561
 20
575.90822880729093
 40
1.2083333333333177
 50
127.52351320610693
 51
52.47648680188081
  0
ARC
  8
_0-1_線色１__水色__
  6
CONTINUOUS
 62
    4
 10
1202.6535411679988
 20
577.82489547368641
 40
1.2083333333333581
 50
307.52351320333912
 51
232.47648680464988
  0
ARC
  8
_0-1_線色１__水色__
  6
CONTINUOUS
 62
    4
 10
1204.1255013124755
 20
575.90822880708629
 40
1.2083333333333177
 50
127.52351320610693
 51
52.47648680188081
  0
ARC
  8
_0-1_線色１__水色__
  6
CONTINUOUS
 62
    4
 10
1199.7096208793159
 20
577.8248954734795
 40
1.2083333333333581
 50
307.52351320333912
 51
232.47648680464988
  0
ARC
  8
_0-1_線色１__水色__
  6
CONTINUOUS
 62
    4
 10
1201.1815810237904
 20
575.90822880688165
 40
1.2083333333333177
 50
127.52351320610693
 51
52.47648680188081
  0
ARC
  8
_0-1_線色１__水色__
  6
CONTINUOUS
 62
    4
 10
1196.7657005906331
 20
577.82489547327486
 40
1.2083333333333581
 50
307.52351320333912
 51
232.47648680464988
  0
ARC
  8
_0-1_線色１__水色__
  6
CONTINUOUS
 62
    4
 10
1198.2376607351075
 20
575.90822880667474
 40
1.2083333333333177
 50
127.52351320610693
 51
52.47648680188081
  0
ARC
  8
_0-1_線色１__水色__
  6
CONTINUOUS
 62
    4
 10
1193.8217803019479
 20
577.82489547307023
 40
1.2083333333333581
 50
307.52351320333912
 51
232.47648680464988
  0
ARC
  8
_0-1_線色１__水色__
  6
CONTINUOUS
 62
    4
 10
1195.2937404464246
 20
575.90822880647011
 40
1.2083333333333177
 50
127.52351320610693
 51
52.47648680188081
  0
ARC
  8
_0-1_線色１__水色__
  6
CONTINUOUS
 62
    4
 10
1187.9339397245822
 20
577.82489547265868
 40
1.2083333333333581
 50
307.52351320333912
 51
232.47648680464988
  0
ARC
  8
_0-1_線色１__水色__
  6
CONTINUOUS
 62
    4
 10
1190.8778600132673
 20
577.82489547286559
 40
1.2083333333333581
 50
307.52351320333912
 51
232.47648680464988
  0
ARC
  8
_0-1_線色１__水色__
  6
CONTINUOUS
 62
    4
 10
1189.4058998690589
 20
575.90822880606083
 40
1.2083333333333177
 50
127.52351320610693
 51
52.47648680188081
  0
ARC
  8
_0-1_線色１__水色__
  6
CONTINUOUS
 62
    4
 10
1192.3498201577395
 20
575.90822880626547
 40
1.2083333333333177
 50
127.52351320610693
 51
52.47648680188081
  0
ARC
  8
_0-1_線色１__水色__
  6
CONTINUOUS
 62
    4
 10
1186.4619795803737
 20
575.90822880585392
 40
1.2083333333333177
 50
127.52351320610693
 51
52.47648680188081
  0
ARC
  8
_0-1_線色１__水色__
  6
CONTINUOUS
 62
    4
 10
1184.9900194358993
 20
577.82489547245405
 40
1.2083333333333581
 50
307.52351320333912
 51
232.47648680464988
  0
ARC
  8
_0-1_線色１__水色__
  6
CONTINUOUS
 62
    4
 10
1226.2049034774664
 20
577.8248954734795
 40
1.2083333333333581
 50
307.52351320333912
 51
232.47648680464988
  0
ARC
  8
_0-1_線色１__水色__
  6
CONTINUOUS
 62
    4
 10
1227.6768636219408
 20
575.90822880688165
 40
1.2083333333333177
 50
127.52351320610693
 51
52.47648680188081
  0
ARC
  8
_0-1_線色１__水色__
  6
CONTINUOUS
 62
    4
 10
1223.2609831887812
 20
577.82489547327486
 40
1.2083333333333581
 50
307.52351320333912
 51
232.47648680464988
  0
ARC
  8
_0-1_線色１__水色__
  6
CONTINUOUS
 62
    4
 10
1224.7329433332579
 20
575.90822880667474
 40
1.2083333333333177
 50
127.52351320610693
 51
52.47648680188081
  0
ARC
  8
_0-1_線色１__水色__
  6
CONTINUOUS
 62
    4
 10
1220.3170629001006
 20
577.82489547307023
 40
1.2083333333333581
 50
307.52351320333912
 51
232.47648680464988
  0
ARC
  8
_0-1_線色１__水色__
  6
CONTINUOUS
 62
    4
 10
1221.7890230445751
 20
575.90822880647011
 40
1.2083333333333177
 50
127.52351320610693
 51
52.47648680188081
  0
ARC
  8
_0-1_線色１__水色__
  6
CONTINUOUS
 62
    4
 10
1214.4292223227326
 20
577.82489547265868
 40
1.2083333333333581
 50
307.52351320333912
 51
232.47648680464988
  0
ARC
  8
_0-1_線色１__水色__
  6
CONTINUOUS
 62
    4
 10
1217.3731426114155
 20
577.82489547286559
 40
1.2083333333333581
 50
307.52351320333912
 51
232.47648680464988
  0
ARC
  8
_0-1_線色１__水色__
  6
CONTINUOUS
 62
    4
 10
1215.901182467207
 20
575.90822880606083
 40
1.2083333333333177
 50
127.52351320610693
 51
52.47648680188081
  0
ARC
  8
_0-1_線色１__水色__
  6
CONTINUOUS
 62
    4
 10
1218.8451027558922
 20
575.90822880626547
 40
1.2083333333333177
 50
127.52351320610693
 51
52.47648680188081
  0
ARC
  8
_0-1_線色１__水色__
  6
CONTINUOUS
 62
    4
 10
1212.9572621785242
 20
575.90822880585392
 40
1.2083333333333177
 50
127.52351320610693
 51
52.47648680188081
  0
ARC
  8
_0-1_線色１__水色__
  6
CONTINUOUS
 62
    4
 10
1211.4853020340497
 20
577.82489547245405
 40
1.2083333333333581
 50
307.52351320333912
 51
232.47648680464988
  0
ARC
  8
_0-1_線色１__水色__
  6
CONTINUOUS
 62
    4
 10
1108.4480919301559
 20
577.82489547387286
 40
1.2083333333333581
 50
307.52351320333912
 51
232.47648680464988
  0
ARC
  8
_0-1_線色１__水色__
  6
CONTINUOUS
 62
    4
 10
1109.9200520746303
 20
575.90822880727274
 40
1.2083333333333177
 50
127.52351320610693
 51
52.47648680188081
  0
ARC
  8
_0-1_線色１__水色__
  6
CONTINUOUS
 62
    4
 10
1105.5041716414707
 20
577.82489547366822
 40
1.2083333333333581
 50
307.52351320333912
 51
232.47648680464988
  0
ARC
  8
_0-1_線色１__水色__
  6
CONTINUOUS
 62
    4
 10
1106.9761317859475
 20
575.9082288070681
 40
1.2083333333333177
 50
127.52351320610693
 51
52.47648680188081
  0
ARC
  8
_0-1_線色１__水色__
  6
CONTINUOUS
 62
    4
 10
1102.5602513527879
 20
577.82489547346131
 40
1.2083333333333581
 50
307.52351320333912
 51
232.47648680464988
  0
ARC
  8
_0-1_線色１__水色__
  6
CONTINUOUS
 62
    4
 10
1104.0322114972623
 20
575.90822880686346
 40
1.2083333333333177
 50
127.52351320610693
 51
52.47648680188081
  0
ARC
  8
_0-1_線色１__水色__
  6
CONTINUOUS
 62
    4
 10
1099.616331064105
 20
577.82489547325667
 40
1.2083333333333581
 50
307.52351320333912
 51
232.47648680464988
  0
ARC
  8
_0-1_線色１__水色__
  6
CONTINUOUS
 62
    4
 10
1101.0882912085794
 20
575.90822880665655
 40
1.2083333333333177
 50
127.52351320610693
 51
52.47648680188081
  0
ARC
  8
_0-1_線色１__水色__
  6
CONTINUOUS
 62
    4
 10
1126.1116136622554
 20
577.82489547325667
 40
1.2083333333333581
 50
307.52351320333912
 51
232.47648680464988
  0
ARC
  8
_0-1_線色１__水色__
  6
CONTINUOUS
 62
    4
 10
1127.5835738067299
 20
575.90822880665655
 40
1.2083333333333177
 50
127.52351320610693
 51
52.47648680188081
  0
ARC
  8
_0-1_線色１__水色__
  6
CONTINUOUS
 62
    4
 10
1123.1676933735725
 20
577.82489547305204
 40
1.2083333333333581
 50
307.52351320333912
 51
232.47648680464988
  0
ARC
  8
_0-1_線色１__水色__
  6
CONTINUOUS
 62
    4
 10
1124.639653518047
 20
575.90822880645192
 40
1.2083333333333177
 50
127.52351320610693
 51
52.47648680188081
  0
ARC
  8
_0-1_線色１__水色__
  6
CONTINUOUS
 62
    4
 10
1120.2237730848874
 20
577.8248954728474
 40
1.2083333333333581
 50
307.52351320333912
 51
232.47648680464988
  0
ARC
  8
_0-1_線色１__水色__
  6
CONTINUOUS
 62
    4
 10
1121.6957332293641
 20
575.90822880624728
 40
1.2083333333333177
 50
127.52351320610693
 51
52.47648680188081
  0
ARC
  8
_0-1_線色１__水色__
  6
CONTINUOUS
 62
    4
 10
1114.3359325075216
 20
577.82489547243586
 40
1.2083333333333581
 50
307.52351320333912
 51
232.47648680464988
  0
ARC
  8
_0-1_線色１__水色__
  6
CONTINUOUS
 62
    4
 10
1117.2798527962045
 20
577.82489547264049
 40
1.2083333333333581
 50
307.52351320333912
 51
232.47648680464988
  0
ARC
  8
_0-1_線色１__水色__
  6
CONTINUOUS
 62
    4
 10
1115.8078926519961
 20
575.90822880583573
 40
1.2083333333333177
 50
127.52351320610693
 51
52.47648680188081
  0
ARC
  8
_0-1_線色１__水色__
  6
CONTINUOUS
 62
    4
 10
1118.751812940679
 20
575.90822880604264
 40
1.2083333333333177
 50
127.52351320610693
 51
52.47648680188081
  0
ARC
  8
_0-1_線色１__水色__
  6
CONTINUOUS
 62
    4
 10
1112.8639723633132
 20
575.9082288056311
 40
1.2083333333333177
 50
127.52351320610693
 51
52.47648680188081
  0
ARC
  8
_0-1_線色１__水色__
  6
CONTINUOUS
 62
    4
 10
1111.3920122188388
 20
577.82489547223122
 40
1.2083333333333581
 50
307.52351320333912
 51
232.47648680464988
  0
ARC
  8
_0-1_線色１__水色__
  6
CONTINUOUS
 62
    4
 10
1079.0088890433453
 20
577.82489547365003
 40
1.2083333333333581
 50
307.52351320333912
 51
232.47648680464988
  0
ARC
  8
_0-1_線色１__水色__
  6
CONTINUOUS
 62
    4
 10
1080.4808491878198
 20
575.90822880704991
 40
1.2083333333333177
 50
127.52351320610693
 51
52.47648680188081
  0
ARC
  8
_0-1_線色１__水色__
  6
CONTINUOUS
 62
    4
 10
1076.0649687546602
 20
577.82489547344539
 40
1.2083333333333581
 50
307.52351320333912
 51
232.47648680464988
  0
ARC
  8
_0-1_線色１__水色__
  6
CONTINUOUS
 62
    4
 10
1077.5369288991369
 20
575.90822880684527
 40
1.2083333333333177
 50
127.52351320610693
 51
52.47648680188081
  0
ARC
  8
_0-1_線色１__水色__
  6
CONTINUOUS
 62
    4
 10
1073.1210484659773
 20
577.82489547323848
 40
1.2083333333333581
 50
307.52351320333912
 51
232.47648680464988
  0
ARC
  8
_0-1_線色１__水色__
  6
CONTINUOUS
 62
    4
 10
1074.5930086104518
 20
575.90822880664064
 40
1.2083333333333177
 50
127.52351320610693
 51
52.47648680188081
  0
ARC
  8
_0-1_線色１__水色__
  6
CONTINUOUS
 62
    4
 10
1070.1771281772944
 20
577.82489547303385
 40
1.2083333333333581
 50
307.52351320333912
 51
232.47648680464988
  0
ARC
  8
_0-1_線色１__水色__
  6
CONTINUOUS
 62
    4
 10
1071.6490883217689
 20
575.90822880643373
 40
1.2083333333333177
 50
127.52351320610693
 51
52.47648680188081
  0
ARC
  8
_0-1_線色１__水色__
  6
CONTINUOUS
 62
    4
 10
1096.6724107754449
 20
577.82489547303385
 40
1.2083333333333581
 50
307.52351320333912
 51
232.47648680464988
  0
ARC
  8
_0-1_線色１__水色__
  6
CONTINUOUS
 62
    4
 10
1098.1443709199193
 20
575.90822880643373
 40
1.2083333333333177
 50
127.52351320610693
 51
52.47648680188081
  0
ARC
  8
_0-1_線色１__水色__
  6
CONTINUOUS
 62
    4
 10
1093.728490486762
 20
577.82489547282921
 40
1.2083333333333581
 50
307.52351320333912
 51
232.47648680464988
  0
ARC
  8
_0-1_線色１__水色__
  6
CONTINUOUS
 62
    4
 10
1095.2004506312364
 20
575.90822880622909
 40
1.2083333333333177
 50
127.52351320610693
 51
52.47648680188081
  0
ARC
  8
_0-1_線色１__水色__
  6
CONTINUOUS
 62
    4
 10
1090.7845701980768
 20
577.82489547262458
 40
1.2083333333333581
 50
307.52351320333912
 51
232.47648680464988
  0
ARC
  8
_0-1_線色１__水色__
  6
CONTINUOUS
 62
    4
 10
1092.2565303425536
 20
575.90822880602445
 40
1.2083333333333177
 50
127.52351320610693
 51
52.47648680188081
  0
ARC
  8
_0-1_線色１__水色__
  6
CONTINUOUS
 62
    4
 10
1084.8967296207111
 20
577.82489547221303
 40
1.2083333333333581
 50
307.52351320333912
 51
232.47648680464988
  0
ARC
  8
_0-1_線色１__水色__
  6
CONTINUOUS
 62
    4
 10
1087.840649909394
 20
577.82489547241767
 40
1.2083333333333581
 50
307.52351320333912
 51
232.47648680464988
  0
ARC
  8
_0-1_線色１__水色__
  6
CONTINUOUS
 62
    4
 10
1086.3686897651855
 20
575.90822880561291
 40
1.2083333333333177
 50
127.52351320610693
 51
52.47648680188081
  0
ARC
  8
_0-1_線色１__水色__
  6
CONTINUOUS
 62
    4
 10
1089.3126100538684
 20
575.90822880581982
 40
1.2083333333333177
 50
127.52351320610693
 51
52.47648680188081
  0
ARC
  8
_0-1_線色１__水色__
  6
CONTINUOUS
 62
    4
 10
1083.4247694765027
 20
575.90822880540827
 40
1.2083333333333177
 50
127.52351320610693
 51
52.47648680188081
  0
ARC
  8
_0-1_線色１__水色__
  6
CONTINUOUS
 62
    4
 10
1081.9528093320259
 20
577.82489547200839
 40
1.2083333333333581
 50
307.52351320333912
 51
232.47648680464988
  0
ARC
  8
_0-1_線色１__水色__
  6
CONTINUOUS
 62
    4
 10
1049.5696861565325
 20
577.8248954734272
 40
1.2083333333333581
 50
307.52351320333912
 51
232.47648680464988
  0
ARC
  8
_0-1_線色１__水色__
  6
CONTINUOUS
 62
    4
 10
1051.0416463010092
 20
575.90822880682708
 40
1.2083333333333177
 50
127.52351320610693
 51
52.47648680188081
  0
ARC
  8
_0-1_線色１__水色__
  6
CONTINUOUS
 62
    4
 10
1046.6257658678496
 20
577.82489547322029
 40
1.2083333333333581
 50
307.52351320333912
 51
232.47648680464988
  0
ARC
  8
_0-1_線色１__水色__
  6
CONTINUOUS
 62
    4
 10
1048.0977260123263
 20
575.90822880662245
 40
1.2083333333333177
 50
127.52351320610693
 51
52.47648680188081
  0
ARC
  8
_0-1_線色１__水色__
  6
CONTINUOUS
 62
    4
 10
1043.6818455791667
 20
577.82489547301566
 40
1.2083333333333581
 50
307.52351320333912
 51
232.47648680464988
  0
ARC
  8
_0-1_線色１__水色__
  6
CONTINUOUS
 62
    4
 10
1045.1538057236412
 20
575.90822880641554
 40
1.2083333333333177
 50
127.52351320610693
 51
52.47648680188081
  0
ARC
  8
_0-1_線色１__水色__
  6
CONTINUOUS
 62
    4
 10
1040.7379252904839
 20
577.82489547281102
 40
1.2083333333333581
 50
307.52351320333912
 51
232.47648680464988
  0
ARC
  8
_0-1_線色１__水色__
  6
CONTINUOUS
 62
    4
 10
1042.2098854349583
 20
575.9082288062109
 40
1.2083333333333177
 50
127.52351320610693
 51
52.47648680188081
  0
ARC
  8
_0-1_線色１__水色__
  6
CONTINUOUS
 62
    4
 10
1067.2332078886343
 20
577.82489547281102
 40
1.2083333333333581
 50
307.52351320333912
 51
232.47648680464988
  0
ARC
  8
_0-1_線色１__水色__
  6
CONTINUOUS
 62
    4
 10
1068.7051680331087
 20
575.9082288062109
 40
1.2083333333333177
 50
127.52351320610693
 51
52.47648680188081
  0
ARC
  8
_0-1_線色１__水色__
  6
CONTINUOUS
 62
    4
 10
1064.2892875999514
 20
577.82489547260639
 40
1.2083333333333581
 50
307.52351320333912
 51
232.47648680464988
  0
ARC
  8
_0-1_線色１__水色__
  6
CONTINUOUS
 62
    4
 10
1065.7612477444259
 20
575.90822880600626
 40
1.2083333333333177
 50
127.52351320610693
 51
52.47648680188081
  0
ARC
  8
_0-1_線色１__水色__
  6
CONTINUOUS
 62
    4
 10
1061.3453673112663
 20
577.82489547239948
 40
1.2083333333333581
 50
307.52351320333912
 51
232.47648680464988
  0
ARC
  8
_0-1_線色１__水色__
  6
CONTINUOUS
 62
    4
 10
1062.817327455743
 20
575.90822880580163
 40
1.2083333333333177
 50
127.52351320610693
 51
52.47648680188081
  0
ARC
  8
_0-1_線色１__水色__
  6
CONTINUOUS
 62
    4
 10
1055.4575267339005
 20
577.8248954719902
 40
1.2083333333333581
 50
307.52351320333912
 51
232.47648680464988
  0
ARC
  8
_0-1_線色１__水色__
  6
CONTINUOUS
 62
    4
 10
1058.4014470225834
 20
577.82489547219484
 40
1.2083333333333581
 50
307.52351320333912
 51
232.47648680464988
  0
ARC
  8
_0-1_線色１__水色__
  6
CONTINUOUS
 62
    4
 10
1056.929486878375
 20
575.90822880539008
 40
1.2083333333333177
 50
127.52351320610693
 51
52.47648680188081
  0
ARC
  8
_0-1_線色１__水色__
  6
CONTINUOUS
 62
    4
 10
1059.8734071670578
 20
575.90822880559472
 40
1.2083333333333177
 50
127.52351320610693
 51
52.47648680188081
  0
ARC
  8
_0-1_線色１__水色__
  6
CONTINUOUS
 62
    4
 10
1053.9855665896921
 20
575.90822880518544
 40
1.2083333333333177
 50
127.52351320610693
 51
52.47648680188081
  0
ARC
  8
_0-1_線色１__水色__
  6
CONTINUOUS
 62
    4
 10
1052.5136064452154
 20
577.82489547178557
 40
1.2083333333333581
 50
307.52351320333912
 51
232.47648680464988
  0
ARC
  8
_0-1_線色１__水色__
  6
CONTINUOUS
 62
    4
 10
1020.1304832697218
 20
577.82489547320438
 40
1.2083333333333581
 50
307.52351320333912
 51
232.47648680464988
  0
ARC
  8
_0-1_線色１__水色__
  6
CONTINUOUS
 62
    4
 10
1021.6024434141963
 20
575.90822880660426
 40
1.2083333333333177
 50
127.52351320610693
 51
52.47648680188081
  0
ARC
  8
_0-1_線色１__水色__
  6
CONTINUOUS
 62
    4
 10
1017.1865629810389
 20
577.82489547299747
 40
1.2083333333333581
 50
307.52351320333912
 51
232.47648680464988
  0
ARC
  8
_0-1_線色１__水色__
  6
CONTINUOUS
 62
    4
 10
1018.6585231255157
 20
575.90822880639962
 40
1.2083333333333177
 50
127.52351320610693
 51
52.47648680188081
  0
ARC
  8
_0-1_線色１__水色__
  6
CONTINUOUS
 62
    4
 10
1014.2426426923561
 20
577.82489547279283
 40
1.2083333333333581
 50
307.52351320333912
 51
232.47648680464988
  0
ARC
  8
_0-1_線色１__水色__
  6
CONTINUOUS
 62
    4
 10
1015.7146028368305
 20
575.90822880619271
 40
1.2083333333333177
 50
127.52351320610693
 51
52.47648680188081
  0
ARC
  8
_0-1_線色１__水色__
  6
CONTINUOUS
 62
    4
 10
1011.2987224036732
 20
577.8248954725882
 40
1.2083333333333581
 50
307.52351320333912
 51
232.47648680464988
  0
ARC
  8
_0-1_線色１__水色__
  6
CONTINUOUS
 62
    4
 10
1012.7706825481476
 20
575.90822880598807
 40
1.2083333333333177
 50
127.52351320610693
 51
52.47648680188081
  0
ARC
  8
_0-1_線色１__水色__
  6
CONTINUOUS
 62
    4
 10
1037.7940050018215
 20
577.8248954725882
 40
1.2083333333333581
 50
307.52351320333912
 51
232.47648680464988
  0
ARC
  8
_0-1_線色１__水色__
  6
CONTINUOUS
 62
    4
 10
1039.2659651462982
 20
575.90822880598807
 40
1.2083333333333177
 50
127.52351320610693
 51
52.47648680188081
  0
ARC
  8
_0-1_線色１__水色__
  6
CONTINUOUS
 62
    4
 10
1034.8500847131409
 20
577.82489547238356
 40
1.2083333333333581
 50
307.52351320333912
 51
232.47648680464988
  0
ARC
  8
_0-1_線色１__水色__
  6
CONTINUOUS
 62
    4
 10
1036.3220448576153
 20
575.90822880578344
 40
1.2083333333333177
 50
127.52351320610693
 51
52.47648680188081
  0
ARC
  8
_0-1_線色１__水色__
  6
CONTINUOUS
 62
    4
 10
1031.9061644244557
 20
577.82489547217665
 40
1.2083333333333581
 50
307.52351320333912
 51
232.47648680464988
  0
ARC
  8
_0-1_線色１__水色__
  6
CONTINUOUS
 62
    4
 10
1033.3781245689324
 20
575.9082288055788
 40
1.2083333333333177
 50
127.52351320610693
 51
52.47648680188081
  0
ARC
  8
_0-1_線色１__水色__
  6
CONTINUOUS
 62
    4
 10
1026.01832384709
 20
577.82489547176738
 40
1.2083333333333581
 50
307.52351320333912
 51
232.47648680464988
  0
ARC
  8
_0-1_線色１__水色__
  6
CONTINUOUS
 62
    4
 10
1028.9622441357728
 20
577.82489547197201
 40
1.2083333333333581
 50
307.52351320333912
 51
232.47648680464988
  0
ARC
  8
_0-1_線色１__水色__
  6
CONTINUOUS
 62
    4
 10
1027.4902839915644
 20
575.90822880516725
 40
1.2083333333333177
 50
127.52351320610693
 51
52.47648680188081
  0
ARC
  8
_0-1_線色１__水色__
  6
CONTINUOUS
 62
    4
 10
1030.4342042802473
 20
575.90822880537189
 40
1.2083333333333177
 50
127.52351320610693
 51
52.47648680188081
  0
ARC
  8
_0-1_線色１__水色__
  6
CONTINUOUS
 62
    4
 10
1024.5463637028815
 20
575.90822880496262
 40
1.2083333333333177
 50
127.52351320610693
 51
52.47648680188081
  0
ARC
  8
_0-1_線色１__水色__
  6
CONTINUOUS
 62
    4
 10
1023.0744035584047
 20
577.82489547156274
 40
1.2083333333333581
 50
307.52351320333912
 51
232.47648680464988
  0
ARC
  8
_0-1_線色１__水色__
  6
CONTINUOUS
 62
    4
 10
990.69128038291126
 20
577.82489547297928
 40
1.2083333333333581
 50
307.52351320333912
 51
232.47648680464988
  0
ARC
  8
_0-1_線色１__水色__
  6
CONTINUOUS
 62
    4
 10
992.16324052738571
 20
575.90822880638143
 40
1.2083333333333177
 50
127.52351320610693
 51
52.47648680188081
  0
ARC
  8
_0-1_線色１__水色__
  6
CONTINUOUS
 62
    4
 10
987.74736009422838
 20
577.82489547277464
 40
1.2083333333333581
 50
307.52351320333912
 51
232.47648680464988
  0
ARC
  8
_0-1_線色１__水色__
  6
CONTINUOUS
 62
    4
 10
989.21932023870284
 20
575.90822880617452
 40
1.2083333333333177
 50
127.52351320610693
 51
52.47648680188081
  0
ARC
  8
_0-1_線色１__水色__
  6
CONTINUOUS
 62
    4
 10
984.80343980554551
 20
577.82489547257001
 40
1.2083333333333581
 50
307.52351320333912
 51
232.47648680464988
  0
ARC
  8
_0-1_線色１__水色__
  6
CONTINUOUS
 62
    4
 10
986.27539995001996
 20
575.90822880596988
 40
1.2083333333333177
 50
127.52351320610693
 51
52.47648680188081
  0
ARC
  8
_0-1_線色１__水色__
  6
CONTINUOUS
 62
    4
 10
981.85951951686263
 20
577.82489547236537
 40
1.2083333333333581
 50
307.52351320333912
 51
232.47648680464988
  0
ARC
  8
_0-1_線色１__水色__
  6
CONTINUOUS
 62
    4
 10
983.33147966133708
 20
575.90822880576525
 40
1.2083333333333177
 50
127.52351320610693
 51
52.47648680188081
  0
ARC
  8
_0-1_線色１__水色__
  6
CONTINUOUS
 62
    4
 10
1008.3548021150108
 20
577.82489547236537
 40
1.2083333333333581
 50
307.52351320333912
 51
232.47648680464988
  0
ARC
  8
_0-1_線色１__水色__
  6
CONTINUOUS
 62
    4
 10
1009.8267622594875
 20
575.90822880576525
 40
1.2083333333333177
 50
127.52351320610693
 51
52.47648680188081
  0
ARC
  8
_0-1_線色１__水色__
  6
CONTINUOUS
 62
    4
 10
1005.4108818263279
 20
577.82489547215846
 40
1.2083333333333581
 50
307.52351320333912
 51
232.47648680464988
  0
ARC
  8
_0-1_線色１__水色__
  6
CONTINUOUS
 62
    4
 10
1006.8828419708046
 20
575.90822880556061
 40
1.2083333333333177
 50
127.52351320610693
 51
52.47648680188081
  0
ARC
  8
_0-1_線色１__水色__
  6
CONTINUOUS
 62
    4
 10
1002.466961537645
 20
577.82489547195382
 40
1.2083333333333581
 50
307.52351320333912
 51
232.47648680464988
  0
ARC
  8
_0-1_線色１__水色__
  6
CONTINUOUS
 62
    4
 10
1003.9389216821218
 20
575.9082288053537
 40
1.2083333333333177
 50
127.52351320610693
 51
52.47648680188081
  0
ARC
  8
_0-1_線色１__水色__
  6
CONTINUOUS
 62
    4
 10
996.57912096027928
 20
577.82489547154455
 40
1.2083333333333581
 50
307.52351320333912
 51
232.47648680464988
  0
ARC
  8
_0-1_線色１__水色__
  6
CONTINUOUS
 62
    4
 10
999.52304124896216
 20
577.82489547174919
 40
1.2083333333333581
 50
307.52351320333912
 51
232.47648680464988
  0
ARC
  8
_0-1_線色１__水色__
  6
CONTINUOUS
 62
    4
 10
998.05108110475373
 20
575.90822880494443
 40
1.2083333333333177
 50
127.52351320610693
 51
52.47648680188081
  0
ARC
  8
_0-1_線色１__水色__
  6
CONTINUOUS
 62
    4
 10
1000.9950013934366
 20
575.90822880514907
 40
1.2083333333333177
 50
127.52351320610693
 51
52.47648680188081
  0
ARC
  8
_0-1_線色１__水色__
  6
CONTINUOUS
 62
    4
 10
995.10716081607086
 20
575.90822880473979
 40
1.2083333333333177
 50
127.52351320610693
 51
52.47648680188081
  0
ARC
  8
_0-1_線色１__水色__
  6
CONTINUOUS
 62
    4
 10
993.63520067159413
 20
577.82489547133764
 40
1.2083333333333581
 50
307.52351320333912
 51
232.47648680464988
  0
ARC
  8
_0-1_線色１__水色__
  6
CONTINUOUS
 62
    4
 10
978.91559922820022
 20
577.82489547214254
 40
1.2083333333333581
 50
307.52351320333912
 51
82.570446798685794
  0
ARC
  8
_0-1_線色１__水色__
  6
CONTINUOUS
 62
    4
 10
980.38755937267695
 20
575.90822880554242
 40
1.2083333333333177
 50
127.52351320610693
 51
154.32245408297459
  0
ARC
  8
_0-1_線色１__水色__
  6
CONTINUOUS
 62
    4
 10
980.38755937267695
 20
575.90822880554242
 40
1.2083333333333177
 50
215.67754591704434
 51
52.47648680188081
  0
LINE
  8
_0-a_文字
  6
CONTINUOUS
 62
    7
 10
1074.5982879901858
 20
709.36656213499646
 11
1094.5982879901858
 21
709.36656213499646
  0
TEXT
  8
_0-a_文字
 62
    7
 10
1099.5982879901874
 20
701.86656213499646
 40
14.999999999999858
 41
1.0000000000000224
 50
0
  1
ＢＰ－Ｈ１５
  0
LINE
  8
_0-a_文字
  6
CONTINUOUS
 62
    7
 10
1001.535274676682
 20
582.81771092192002
 11
1074.5982879901858
 21
709.36656213499646
  0
LINE
  8
_0-7_ビス
  6
CONTINUOUS
 62
    7
 10
877.26420686481276
 20
943.63309553730687
 11
877.26420686481276
 21
944.01771092192348
  0
LINE
  8
_0-7_ビス
  6
DASHED3
 62
    7
 10
872.73167498106602
 20
941.46834139109615
 11
873.81422270095925
 21
944.01771092192348
  0
LINE
  8
_0-7_ビス
  6
CONTINUOUS
 62
    7
 10
865.26420686481231
 20
943.63309553730687
 11
865.26420686481231
 21
944.01771092192348
  0
LINE
  8
_0-7_ビス
  6
DASHED3
 62
    7
 10
869.79673874855678
 20
941.46834139109615
 11
868.71419102866355
 21
944.01771092192348
  0
LINE
  8
_0-7_ビス
  6
CONTINUOUS
 62
    7
 10
877.26420686481276
 20
943.63309553730687
 11
865.26420686481231
 21
943.63309553730687
  0
LINE
  8
_0-7_ビス
  6
CONTINUOUS
 62
    7
 10
877.26420686481276
 20
944.01771092192348
 11
865.26420686481231
 21
944.01771092192348
  0
LINE
  8
ADD_LINE
  6
DOT
 62
    4
 10
871.2642068648114
 20
910.89834625997128
 11
871.2642068648114
 21
950.5150660025879
  0
ARC
  8
_0-7_ビス
  6
DASHED3
 62
    7
 10
871.2642068648114
 20
942.57888448936228
 40
1.8403175392666382
 50
217.11750793457031
 51
322.88247680664062
  0
LINE
  8
_0-7_ビス
  6
CONTINUOUS
 62
    7
 10
875.34999330243807
 20
941.71888197493445
 11
877.26420686481276
 21
943.63309553730687
  0
ARC
  8
_0-7_ビス
  6
CONTINUOUS
 62
    7
 10
876.76420686481094
 20
940.30466841256157
 40
2
 50
135.00000000000153
 51
180.00000000000003
  0
LINE
  8
_0-7_ビス
  6
CONTINUOUS
 62
    7
 10
867.17842042718473
 20
941.71888197493445
 11
865.26420686481003
 21
943.63309553730687
  0
ARC
  8
_0-7_ビス
  6
CONTINUOUS
 62
    7
 10
865.76420686481185
 20
940.30466841256157
 40
2
 50
0
 51
44.999999999998501
  0
LINE
  8
_0-7_ビス
  6
CONTINUOUS
 62
    7
 10
874.76420686481276
 20
940.01771092192257
 11
867.76420686481003
 21
940.01771092192257
  0
LINE
  8
_0-7_ビス
  6
CONTINUOUS
 62
    7
 10
874.76420686481276
 20
924.17782749484559
 11
867.76420686481003
 21
924.17782749484559
  0
LINE
  8
_0-7_ビス
  6
CONTINUOUS
 62
    7
 10
874.76420686481276
 20
939.01771092192348
 11
867.76420686481003
 21
939.01771092192348
  0
LINE
  8
_0-7_ビス
  6
CONTINUOUS
 62
    4
 10
870.25019548912212
 20
924.17782749484559
 11
874.76420686481276
 21
925.38739281324069
  0
LINE
  8
_0-7_ビス
  6
CONTINUOUS
 62
    4
 10
867.76420686481003
 20
937.81790756252803
 11
872.24178730675192
 21
939.01771092192348
  0
LINE
  8
_0-7_ビス
  6
CONTINUOUS
 62
    4
 10
867.76420686481003
 20
925.5116870331517
 11
874.76420686481276
 21
927.38739281324115
  0
LINE
  8
_0-7_ビス
  6
CONTINUOUS
 62
    4
 10
867.76420686481003
 20
927.51168703315216
 11
874.76420686481276
 21
929.3873928132416
  0
LINE
  8
_0-7_ビス
  6
CONTINUOUS
 62
    4
 10
867.76420686481003
 20
929.51168703315261
 11
874.76420686481276
 21
931.38739281323979
  0
LINE
  8
_0-7_ビス
  6
CONTINUOUS
 62
    4
 10
867.76420686481003
 20
931.51168703315307
 11
874.76420686481276
 21
933.38739281324024
  0
LINE
  8
_0-7_ビス
  6
CONTINUOUS
 62
    4
 10
867.76420686481003
 20
933.51168703315125
 11
874.76420686481276
 21
935.38739281324069
  0
LINE
  8
_0-7_ビス
  6
CONTINUOUS
 62
    4
 10
867.76420686481003
 20
935.5116870331517
 11
874.76420686481276
 21
937.38739281324115
  0
LINE
  8
_0-7_ビス
  6
CONTINUOUS
 62
    7
 10
874.76420686481276
 20
940.30466841256157
 11
874.76420686481276
 21
920.69855343700965
  0
LINE
  8
_0-7_ビス
  6
CONTINUOUS
 62
    7
 10
874.76420686481276
 20
920.69855343700965
 11
871.2642068648114
 21
918.67782749484604
  0
LINE
  8
_0-7_ビス
  6
CONTINUOUS
 62
    7
 10
867.76420686481003
 20
940.30466841256157
 11
867.76420686481003
 21
920.69855343700965
  0
LINE
  8
_0-7_ビス
  6
CONTINUOUS
 62
    7
 10
867.76420686481003
 20
920.69855343700965
 11
871.2642068648114
 21
918.67782749484604
  0
LINE
  8
_0-2_線色２__白__
  6
CONTINUOUS
 62
    7
 10
833.00921479435772
 20
949.01771092192348
 11
832.99099600683519
 21
949.14861586860297
  0
LINE
  8
_0-2_線色２__白__
  6
CONTINUOUS
 62
    7
 10
832.99099600683519
 20
949.14861586860297
 11
832.95792922717453
 21
949.37368980362407
  0
LINE
  8
_0-2_線色２__白__
  6
CONTINUOUS
 62
    7
 10
832.95792922717453
 20
949.37368980362407
 11
832.9202650113092
 21
949.59702971388197
  0
LINE
  8
_0-2_線色２__白__
  6
CONTINUOUS
 62
    7
 10
832.9202650113092
 20
949.59702971388197
 11
832.87509358948398
 21
949.817538115351
  0
LINE
  8
_0-2_線色２__白__
  6
CONTINUOUS
 62
    7
 10
832.87509358948398
 20
949.817538115351
 11
832.81950519195505
 21
950.03411752401007
  0
LINE
  8
_0-2_線色２__白__
  6
CONTINUOUS
 62
    7
 10
832.81950519195505
 20
950.03411752401007
 11
832.75059004896491
 21
950.24567045582899
  0
LINE
  8
_0-2_線色２__白__
  6
CONTINUOUS
 62
    7
 10
832.75059004896491
 20
950.24567045582899
 11
832.70336635067167
 21
950.3656355588214
  0
LINE
  8
_0-2_線色２__白__
  6
CONTINUOUS
 62
    7
 10
832.70336635067167
 20
950.3656355588214
 11
832.66242528940836
 21
950.45775239841305
  0
LINE
  8
_0-2_線色２__白__
  6
CONTINUOUS
 62
    7
 10
832.66242528940836
 20
950.45775239841305
 11
832.58401011672674
 21
950.61346670142484
  0
LINE
  8
_0-2_線色２__白__
  6
CONTINUOUS
 62
    7
 10
832.58401011672674
 20
950.61346670142484
 11
832.49690310240055
 21
950.76547030430675
  0
LINE
  8
_0-2_線色２__白__
  6
CONTINUOUS
 62
    7
 10
832.49690310240055
 20
950.76547030430675
 11
832.40251811325322
 21
950.91402282010677
  0
LINE
  8
_0-2_線色２__白__
  6
CONTINUOUS
 62
    7
 10
832.40251811325322
 20
950.91402282010677
 11
832.3022690161082
 21
951.05938386187745
  0
LINE
  8
_0-2_線色２__白__
  6
CONTINUOUS
 62
    7
 10
832.3022690161082
 20
951.05938386187745
 11
832.19756967779119
 21
951.20181304267362
  0
LINE
  8
_0-2_線色２__白__
  6
CONTINUOUS
 62
    7
 10
832.19756967779119
 20
951.20181304267362
 11
832.13536209811252
 21
951.28318088987953
  0
LINE
  8
_0-2_線色２__白__
  6
CONTINUOUS
 62
    7
 10
832.13536209811252
 20
951.28318088987953
 11
832.06114582417683
 21
951.37786448268116
  0
LINE
  8
_0-2_線色２__白__
  6
CONTINUOUS
 62
    7
 10
832.06114582417683
 20
951.37786448268116
 11
831.93092088407354
 21
951.53858327654234
  0
LINE
  8
_0-2_線色２__白__
  6
CONTINUOUS
 62
    7
 10
831.93092088407354
 20
951.53858327654234
 11
831.79806906485226
 21
951.69645003893265
  0
LINE
  8
_0-2_線色２__白__
  6
CONTINUOUS
 62
    7
 10
831.79806906485226
 20
951.69645003893265
 11
831.66287092672462
 21
951.85187053240043
  0
LINE
  8
_0-2_線色２__白__
  6
CONTINUOUS
 62
    7
 10
831.66287092672462
 20
951.85187053240043
 11
831.52560702990002
 21
952.00525051948716
  0
LINE
  8
_0-2_線色２__白__
  6
CONTINUOUS
 62
    7
 10
831.52560702990002
 20
952.00525051948716
 11
831.38655793459236
 21
952.15699576274346
  0
LINE
  8
_0-2_線色２__白__
  6
CONTINUOUS
 62
    7
 10
831.38655793459236
 20
952.15699576274346
 11
831.30520203668027
 21
952.24441885574834
  0
LINE
  8
_0-2_線色２__白__
  6
CONTINUOUS
 62
    7
 10
831.30520203668027
 20
952.24441885574834
 11
831.21956696326549
 21
952.33548903014707
  0
LINE
  8
_0-2_線色２__白__
  6
CONTINUOUS
 62
    7
 10
831.21956696326549
 20
952.33548903014707
 11
831.07036960495805
 21
952.49119077898058
  0
LINE
  8
_0-2_線色２__白__
  6
CONTINUOUS
 62
    7
 10
831.07036960495805
 20
952.49119077898058
 11
830.91861939138823
 21
952.64453675737968
  0
LINE
  8
_0-2_線色２__白__
  6
CONTINUOUS
 62
    7
 10
830.91861939138823
 20
952.64453675737968
 11
830.76363031188464
 21
952.79472439630126
  0
LINE
  8
_0-2_線色２__白__
  6
CONTINUOUS
 62
    7
 10
830.76363031188464
 20
952.79472439630126
 11
830.60471635577812
 21
952.94095112669766
  0
LINE
  8
_0-2_線色２__白__
  6
CONTINUOUS
 62
    7
 10
830.60471635577812
 20
952.94095112669766
 11
830.44119151239727
 21
953.08241437952574
  0
LINE
  8
_0-2_線色２__白__
  6
CONTINUOUS
 62
    7
 10
830.44119151239727
 20
953.08241437952574
 11
830.34396407080919
 21
953.16196418680647
  0
LINE
  8
_0-2_線色２__白__
  6
CONTINUOUS
 62
    7
 10
830.34396407080919
 20
953.16196418680647
 11
830.25631037126857
 21
953.2306895393026
  0
LINE
  8
_0-2_線色２__白__
  6
CONTINUOUS
 62
    7
 10
830.25631037126857
 20
953.2306895393026
 11
830.10169727134723
 21
953.34490230710344
  0
LINE
  8
_0-2_線色２__白__
  6
CONTINUOUS
 62
    7
 10
830.10169727134723
 20
953.34490230710344
 11
829.94273212815813
 21
953.45287499603501
  0
LINE
  8
_0-2_線色２__白__
  6
CONTINUOUS
 62
    7
 10
829.94273212815813
 20
953.45287499603501
 11
829.77948547093035
 21
953.55365022746128
  0
LINE
  8
_0-2_線色２__白__
  6
CONTINUOUS
 62
    7
 10
829.77948547093035
 20
953.55365022746128
 11
829.61202782889984
 21
953.64627062274621
  0
LINE
  8
_0-2_線色２__白__
  6
CONTINUOUS
 62
    7
 10
829.61202782889984
 20
953.64627062274621
 11
829.44042973129569
 21
953.72977880325834
  0
LINE
  8
_0-2_線色２__白__
  6
CONTINUOUS
 62
    7
 10
829.44042973129569
 20
953.72977880325834
 11
829.33903347012745
 21
953.77366107417856
  0
LINE
  8
_0-2_線色２__白__
  6
CONTINUOUS
 62
    7
 10
829.33903347012745
 20
953.77366107417856
 11
829.22512797738761
 21
953.8181897874415
  0
LINE
  8
_0-2_線色２__白__
  6
CONTINUOUS
 62
    7
 10
829.22512797738761
 20
953.8181897874415
 11
829.02523951953469
 21
953.88550041585631
  0
LINE
  8
_0-2_線色２__白__
  6
CONTINUOUS
 62
    7
 10
829.02523951953469
 20
953.88550041585631
 11
828.82153742067601
 21
953.94210396735389
  0
LINE
  8
_0-2_線色２__白__
  6
CONTINUOUS
 62
    7
 10
828.82153742067601
 20
953.94210396735389
 11
828.61473834386686
 21
953.98947884108566
  0
LINE
  8
_0-2_線色２__白__
  6
CONTINUOUS
 62
    7
 10
828.61473834386686
 20
953.98947884108566
 11
828.405558952158
 21
954.02910343619396
  0
LINE
  8
_0-2_線色２__白__
  6
CONTINUOUS
 62
    7
 10
828.405558952158
 20
954.02910343619396
 11
828.19471590860246
 21
954.06245615183025
  0
LINE
  8
_0-2_線色２__白__
  6
CONTINUOUS
 62
    7
 10
828.19471590860246
 20
954.06245615183025
 11
828.0719470605726
 21
954.07950951786461
  0
LINE
  8
_0-2_線色２__白__
  6
CONTINUOUS
 62
    7
 10
828.0719470605726
 20
954.07950951786461
 11
827.92349009048792
 21
954.09822651713057
  0
LINE
  8
_0-2_線色２__白__
  6
CONTINUOUS
 62
    7
 10
827.92349009048792
 20
954.09822651713057
 11
827.66716982520336
 21
954.12513327822126
  0
LINE
  8
_0-2_線色２__白__
  6
CONTINUOUS
 62
    7
 10
827.66716982520336
 20
954.12513327822126
 11
827.41077449662214
 21
954.14399152552051
  0
LINE
  8
_0-2_線色２__白__
  6
CONTINUOUS
 62
    7
 10
827.41077449662214
 20
954.14399152552051
 11
827.15474665999125
 21
954.15333761670581
  0
LINE
  8
_0-2_線色２__白__
  6
CONTINUOUS
 62
    7
 10
827.15474665999125
 20
954.15333761670581
 11
826.89952887055767
 21
954.15170790945922
  0
LINE
  8
_0-2_線色２__白__
  6
CONTINUOUS
 62
    7
 10
826.89952887055767
 20
954.15170790945922
 11
826.64556368356614
 21
954.13763876145595
  0
LINE
  8
_0-2_線色２__白__
  6
CONTINUOUS
 62
    7
 10
826.64556368356614
 20
954.13763876145595
 11
826.49901220732943
 21
954.12320215267755
  0
LINE
  8
_0-2_線色２__白__
  6
CONTINUOUS
 62
    7
 10
826.49901220732943
 20
954.12320215267755
 11
826.39166801576437
 21
954.10951236659002
  0
LINE
  8
_0-2_線色２__白__
  6
CONTINUOUS
 62
    7
 10
826.39166801576437
 20
954.10951236659002
 11
826.20721795499492
 21
954.08055273534956
  0
LINE
  8
_0-2_線色２__白__
  6
CONTINUOUS
 62
    7
 10
826.20721795499492
 20
954.08055273534956
 11
826.02324709755464
 21
954.04623725381271
  0
LINE
  8
_0-2_線色２__白__
  6
CONTINUOUS
 62
    7
 10
826.02324709755464
 20
954.04623725381271
 11
825.8393910616968
 21
954.00822242778531
  0
LINE
  8
_0-2_線色２__白__
  6
CONTINUOUS
 62
    7
 10
825.8393910616968
 20
954.00822242778531
 11
825.65528546567464
 21
953.96816476307777
  0
LINE
  8
_0-2_線色２__白__
  6
CONTINUOUS
 62
    7
 10
825.65528546567464
 20
953.96816476307777
 11
825.47056592774823
 21
953.92772076550273
  0
LINE
  8
_0-2_線色２__白__
  6
CONTINUOUS
 62
    7
 10
825.47056592774823
 20
953.92772076550273
 11
825.36300370221113
 21
953.90473897861511
  0
LINE
  8
_0-2_線色２__白__
  6
CONTINUOUS
 62
    7
 10
825.36300370221113
 20
953.90473897861511
 11
825.24089247088284
 21
953.87946525711641
  0
LINE
  8
_0-2_線色２__白__
  6
CONTINUOUS
 62
    7
 10
825.24089247088284
 20
953.87946525711641
 11
825.03009444731958
 21
953.83611574088263
  0
LINE
  8
_0-2_線色２__白__
  6
CONTINUOUS
 62
    7
 10
825.03009444731958
 20
953.83611574088263
 11
824.82038922348181
 21
953.78998258273214
  0
LINE
  8
_0-2_線色２__白__
  6
CONTINUOUS
 62
    7
 10
824.82038922348181
 20
953.78998258273214
 11
824.61343227421537
 21
953.73749654102994
  0
LINE
  8
_0-2_線色２__白__
  6
CONTINUOUS
 62
    7
 10
824.61343227421537
 20
953.73749654102994
 11
824.41087907435929
 21
953.67508837413197
  0
LINE
  8
_0-2_線色２__白__
  6
CONTINUOUS
 62
    7
 10
824.41087907435929
 20
953.67508837413197
 11
824.21438509875941
 21
953.59918884039644
  0
LINE
  8
_0-2_線色２__白__
  6
CONTINUOUS
 62
    7
 10
824.21438509875941
 20
953.59918884039644
 11
824.10384727263988
 21
953.54757889974053
  0
LINE
  8
_0-2_線色２__白__
  6
CONTINUOUS
 62
    7
 10
824.10384727263988
 20
953.54757889974053
 11
824.00452504146131
 21
953.49449342781782
  0
LINE
  8
_0-2_線色２__白__
  6
CONTINUOUS
 62
    7
 10
824.00452504146131
 20
953.49449342781782
 11
823.83910112627007
 21
953.39120714671708
  0
LINE
  8
_0-2_線色２__白__
  6
CONTINUOUS
 62
    7
 10
823.83910112627007
 20
953.39120714671708
 11
823.68104955491106
 21
953.27465751498721
  0
LINE
  8
_0-2_線色２__白__
  6
CONTINUOUS
 62
    7
 10
823.68104955491106
 20
953.27465751498721
 11
823.53037450849286
 21
953.14673084167225
  0
LINE
  8
_0-2_線色２__白__
  6
CONTINUOUS
 62
    7
 10
823.53037450849286
 20
953.14673084167225
 11
823.38708016812859
 21
953.00931343582533
  0
LINE
  8
_0-2_線色２__白__
  6
CONTINUOUS
 62
    7
 10
823.38708016812859
 20
953.00931343582533
 11
823.2511707149223
 21
952.86429160649504
  0
LINE
  8
_0-2_線色２__白__
  6
CONTINUOUS
 62
    7
 10
823.2511707149223
 20
952.86429160649504
 11
823.17572863493695
 21
952.77743790249815
  0
LINE
  8
_0-2_線色２__白__
  6
CONTINUOUS
 62
    7
 10
823.17572863493695
 20
952.77743790249815
 11
823.09143361056556
 21
952.67487051450644
  0
LINE
  8
_0-2_線色２__白__
  6
CONTINUOUS
 62
    7
 10
823.09143361056556
 20
952.67487051450644
 11
822.95326175129674
 21
952.49358550476927
  0
LINE
  8
_0-2_線色２__白__
  6
CONTINUOUS
 62
    7
 10
822.95326175129674
 20
952.49358550476927
 11
822.82315148427813
 21
952.30736083015017
  0
LINE
  8
_0-2_線色２__白__
  6
CONTINUOUS
 62
    7
 10
822.82315148427813
 20
952.30736083015017
 11
822.6999315822917
 21
952.11699476906006
  0
LINE
  8
_0-2_線色２__白__
  6
CONTINUOUS
 62
    7
 10
822.6999315822917
 20
952.11699476906006
 11
822.58243081812168
 21
951.92328559991665
  0
LINE
  8
_0-2_線色２__白__
  6
CONTINUOUS
 62
    7
 10
822.58243081812168
 20
951.92328559991665
 11
822.46947796455459
 21
951.72703160113542
  0
LINE
  8
_0-2_線色２__白__
  6
CONTINUOUS
 62
    7
 10
822.46947796455459
 20
951.72703160113542
 11
822.40558763769457
 21
951.61235280410438
  0
LINE
  8
_0-2_線色２__白__
  6
CONTINUOUS
 62
    7
 10
822.40558763769457
 20
951.61235280410438
 11
822.33832027018877
 21
951.48928621197001
  0
LINE
  8
_0-2_線色２__白__
  6
CONTINUOUS
 62
    7
 10
822.33832027018877
 20
951.48928621197001
 11
822.2243390289799
 21
951.27607945560158
  0
LINE
  8
_0-2_線色２__白__
  6
CONTINUOUS
 62
    7
 10
822.2243390289799
 20
951.27607945560158
 11
822.11222448061505
 21
951.06178245606543
  0
LINE
  8
_0-2_線色２__白__
  6
CONTINUOUS
 62
    7
 10
822.11222448061505
 20
951.06178245606543
 11
822.00120787136882
 21
950.84663319498986
  0
LINE
  8
_0-2_線色２__白__
  6
CONTINUOUS
 62
    7
 10
822.00120787136882
 20
950.84663319498986
 11
821.89052044750895
 21
950.63086965400998
  0
LINE
  8
_0-2_線色２__白__
  6
CONTINUOUS
 62
    7
 10
821.89052044750895
 20
950.63086965400998
 11
821.77939345531229
 21
950.41472981475408
  0
LINE
  8
_0-2_線色２__白__
  6
CONTINUOUS
 62
    7
 10
821.77939345531229
 20
950.41472981475408
 11
821.71443546068247
 21
950.28929006525232
  0
LINE
  8
_0-2_線色２__白__
  6
CONTINUOUS
 62
    7
 10
821.71443546068247
 20
950.28929006525232
 11
821.62602200650497
 21
950.12046188224531
  0
LINE
  8
_0-2_線色２__白__
  6
CONTINUOUS
 62
    7
 10
821.62602200650497
 20
950.12046188224531
 11
821.4695171905754
 21
949.83106611636003
  0
LINE
  8
_0-2_線色２__白__
  6
CONTINUOUS
 62
    7
 10
821.4695171905754
 20
949.83106611636003
 11
821.30529559734839
 21
949.54635794010755
  0
LINE
  8
_0-2_線色２__白__
  6
CONTINUOUS
 62
    7
 10
821.30529559734839
 20
949.54635794010755
 11
821.13037160996271
 21
949.26930451209046
  0
LINE
  8
_0-2_線色２__白__
  6
CONTINUOUS
 62
    7
 10
821.13037160996271
 20
949.26930451209046
 11
820.94175961156395
 21
949.00287299090223
  0
LINE
  8
_0-2_線色２__白__
  6
CONTINUOUS
 62
    7
 10
820.94175961156395
 20
949.00287299090223
 11
820.73647398528863
 21
948.75003053514547
  0
LINE
  8
_0-2_線色２__白__
  6
CONTINUOUS
 62
    7
 10
820.73647398528863
 20
948.75003053514547
 11
820.60859197746083
 21
948.61077763536514
  0
LINE
  8
_0-2_線色２__白__
  6
CONTINUOUS
 62
    7
 10
820.60859197746083
 20
948.61077763536514
 11
820.56237680515721
 21
948.56367262945469
  0
LINE
  8
_0-2_線色２__白__
  6
CONTINUOUS
 62
    7
 10
820.56237680515721
 20
948.56367262945469
 11
820.48067754361625
 21
948.48432753442012
  0
LINE
  8
_0-2_線色２__白__
  6
CONTINUOUS
 62
    7
 10
820.48067754361625
 20
948.48432753442012
 11
820.39647515128706
 21
948.40752742497898
  0
LINE
  8
_0-2_線色２__白__
  6
CONTINUOUS
 62
    7
 10
820.39647515128706
 20
948.40752742497898
 11
820.30982917579138
 21
948.33347852165161
  0
LINE
  8
_0-2_線色２__白__
  6
CONTINUOUS
 62
    7
 10
820.30982917579138
 20
948.33347852165161
 11
820.22079916475548
 21
948.26238704496291
  0
LINE
  8
_0-2_線色２__白__
  6
CONTINUOUS
 62
    7
 10
820.22079916475548
 20
948.26238704496291
 11
820.12944466580336
 21
948.1944592154332
  0
LINE
  8
_0-2_線色２__白__
  6
CONTINUOUS
 62
    7
 10
820.12944466580336
 20
948.1944592154332
 11
820.07541744090929
 21
948.1565919190416
  0
LINE
  8
_0-2_線色２__白__
  6
CONTINUOUS
 62
    7
 10
820.07541744090929
 20
948.1565919190416
 11
819.98581602982028
 21
948.09729922866381
  0
LINE
  8
_0-2_線色２__白__
  6
CONTINUOUS
 62
    7
 10
819.98581602982028
 20
948.09729922866381
 11
819.82762458564991
 21
948.0008859644704
  0
LINE
  8
_0-2_線色２__白__
  6
CONTINUOUS
 62
    7
 10
819.82762458564991
 20
948.0008859644704
 11
819.6662132986188
 21
947.90955755539926
  0
LINE
  8
_0-2_線色２__白__
  6
CONTINUOUS
 62
    7
 10
819.6662132986188
 20
947.90955755539926
 11
819.50329335032563
 21
947.82066684694882
  0
LINE
  8
_0-2_線色２__白__
  6
CONTINUOUS
 62
    7
 10
819.50329335032563
 20
947.82066684694882
 11
819.34057592237139
 21
947.73156668461297
  0
LINE
  8
_0-2_線色２__白__
  6
CONTINUOUS
 62
    7
 10
819.34057592237139
 20
947.73156668461297
 11
819.17977219635929
 21
947.63960991388558
  0
LINE
  8
_0-2_線色２__白__
  6
CONTINUOUS
 62
    7
 10
819.17977219635929
 20
947.63960991388558
 11
819.08805718803421
 21
947.58392297237378
  0
LINE
  8
_0-2_線色２__白__
  6
CONTINUOUS
 62
    7
 10
819.08805718803421
 20
947.58392297237378
 11
818.99564619563478
 21
947.52455820250361
  0
LINE
  8
_0-2_線色２__白__
  6
CONTINUOUS
 62
    7
 10
818.99564619563478
 20
947.52455820250361
 11
818.8397031934818
 21
947.41705644073591
  0
LINE
  8
_0-2_線色２__白__
  6
CONTINUOUS
 62
    7
 10
818.8397031934818
 20
947.41705644073591
 11
818.68738065126024
 21
947.30407325076612
  0
LINE
  8
_0-2_線色２__白__
  6
CONTINUOUS
 62
    7
 10
818.68738065126024
 20
947.30407325076612
 11
818.53790416252366
 21
947.1868131983706
  0
LINE
  8
_0-2_線色２__白__
  6
CONTINUOUS
 62
    7
 10
818.53790416252366
 20
947.1868131983706
 11
818.39049932083014
 21
947.0664808493234
  0
LINE
  8
_0-2_線色２__白__
  6
CONTINUOUS
 62
    7
 10
818.39049932083014
 20
947.0664808493234
 11
818.24439171973552
 21
946.94428076939857
  0
LINE
  8
_0-2_線色２__白__
  6
CONTINUOUS
 62
    7
 10
818.24439171973552
 20
946.94428076939857
 11
818.15993855033128
 21
946.87302359030582
  0
LINE
  8
_0-2_線色２__白__
  6
CONTINUOUS
 62
    7
 10
818.15993855033128
 20
946.87302359030582
 11
818.05409668671416
 21
946.78354300640422
  0
LINE
  8
_0-2_線色２__白__
  6
CONTINUOUS
 62
    7
 10
818.05409668671416
 20
946.78354300640422
 11
817.87252390840365
 21
946.62845995261023
  0
LINE
  8
_0-2_線色２__白__
  6
CONTINUOUS
 62
    7
 10
817.87252390840365
 20
946.62845995261023
 11
817.69334925577766
 21
946.47107078436875
  0
LINE
  8
_0-2_線色２__白__
  6
CONTINUOUS
 62
    7
 10
817.69334925577766
 20
946.47107078436875
 11
817.51801712955455
 21
946.30988058644107
  0
LINE
  8
_0-2_線色２__白__
  6
CONTINUOUS
 62
    7
 10
817.51801712955455
 20
946.30988058644107
 11
817.34797193044358
 21
946.14339444359302
  0
LINE
  8
_0-2_線色２__白__
  6
CONTINUOUS
 62
    7
 10
817.34797193044358
 20
946.14339444359302
 11
817.18465805916537
 21
945.97011744058364
  0
LINE
  8
_0-2_線色２__白__
  6
CONTINUOUS
 62
    7
 10
817.18465805916537
 20
945.97011744058364
 11
817.09358947722592
 21
945.8659161323726
  0
LINE
  8
_0-2_線色２__白__
  6
CONTINUOUS
 62
    7
 10
817.09358947722592
 20
945.8659161323726
 11
817.04193020458831
 21
945.80382885684912
  0
LINE
  8
_0-2_線色２__白__
  6
CONTINUOUS
 62
    7
 10
817.04193020458831
 20
945.80382885684912
 11
816.95560509428503
 21
945.69435611701238
  0
LINE
  8
_0-2_線色２__白__
  6
CONTINUOUS
 62
    7
 10
816.95560509428503
 20
945.69435611701238
 11
816.87324522215192
 21
945.58185485925151
  0
LINE
  8
_0-2_線色２__白__
  6
CONTINUOUS
 62
    7
 10
816.87324522215192
 20
945.58185485925151
 11
816.79542453140755
 21
945.4663739265402
  0
LINE
  8
_0-2_線色２__白__
  6
CONTINUOUS
 62
    7
 10
816.79542453140755
 20
945.4663739265402
 11
816.72271696526138
 21
945.34796216184759
  0
LINE
  8
_0-2_線色２__白__
  6
CONTINUOUS
 62
    7
 10
816.72271696526138
 20
945.34796216184759
 11
816.655696466932
 21
945.22666840814509
  0
LINE
  8
_0-2_線色２__白__
  6
CONTINUOUS
 62
    7
 10
816.655696466932
 20
945.22666840814509
 11
816.61965655584652
 21
945.15501675030237
  0
LINE
  8
_0-2_線色２__白__
  6
CONTINUOUS
 62
    7
 10
816.61965655584652
 20
945.15501675030237
 11
816.57300470248799
 21
945.05354085925319
  0
LINE
  8
_0-2_線色２__白__
  6
CONTINUOUS
 62
    7
 10
816.57300470248799
 20
945.05354085925319
 11
816.5015179441383
 21
944.87477648020104
  0
LINE
  8
_0-2_線色２__白__
  6
CONTINUOUS
 62
    7
 10
816.5015179441383
 20
944.87477648020104
 11
816.4395666055151
 21
944.69195606205176
  0
LINE
  8
_0-2_線色２__白__
  6
CONTINUOUS
 62
    7
 10
816.4395666055151
 20
944.69195606205176
 11
816.38506871724474
 21
944.50596520286354
  0
LINE
  8
_0-2_線色２__白__
  6
CONTINUOUS
 62
    7
 10
816.38506871724474
 20
944.50596520286354
 11
816.33594230995811
 21
944.31768950068772
  0
LINE
  8
_0-2_線色２__白__
  6
CONTINUOUS
 62
    7
 10
816.33594230995811
 20
944.31768950068772
 11
816.29010541428158
 21
944.12801455358476
  0
LINE
  8
_0-2_線色２__白__
  6
CONTINUOUS
 62
    7
 10
816.29010541428158
 20
944.12801455358476
 11
816.2642068648114
 21
944.01771092192348
  0
LINE
  8
_0-4_線色４__黄__
  6
CONTINUOUS
 62
    2
 10
827.01208272742576
 20
949.01771092192348
 11
827.01208272742576
 21
944.01771092192348
  0
LINE
  8
_0-4_線色４__黄__
  6
CONTINUOUS
 62
    2
 10
895.06880508991742
 20
949.01771092192348
 11
827.01208272742576
 21
949.01771092192348
  0
LINE
  8
_0-4_線色４__黄__
  6
CONTINUOUS
 62
    2
 10
895.06880508991742
 20
949.01771092192348
 11
899.12015366587354
 21
945.56656213499764
  0
LINE
  8
_0-4_線色４__黄__
  6
CONTINUOUS
 62
    2
 10
980.73527467667816
 20
945.56656213499764
 11
899.12015366587354
 21
945.56656213499764
  0
LINE
  8
_0-2_線色２__白__
  6
CONTINUOUS
 62
    7
 10
896.2642068648114
 20
941.43120279850791
 11
897.2792198176279
 21
940.56656213499764
  0
LINE
  8
_0-2_線色２__白__
  6
CONTINUOUS
 62
    7
 10
845.42870004187478
 20
942.81771092191093
 11
845.42870004187478
 21
940.56656213499764
  0
LINE
  8
_0-d_断熱__ハッチ
  6
CONTINUOUS
 62
    4
 10
865.40082209458149
 20
940.56656213499764
 11
866.2189663803241
 21
941.38470642074026
  0
LINE
  8
_0-d_断熱__ハッチ
  6
CONTINUOUS
 62
    4
 10
861.86528818864815
 20
940.56656213499764
 11
864.11643697556372
 21
942.8177109219132
  0
LINE
  8
_0-d_断熱__ハッチ
  6
CONTINUOUS
 62
    4
 10
858.32975428271482
 20
940.56656213499764
 11
860.58090306963038
 21
942.8177109219132
  0
LINE
  8
_0-d_断熱__ハッチ
  6
CONTINUOUS
 62
    4
 10
854.79422037678148
 20
940.56656213499764
 11
857.04536916369705
 21
942.8177109219132
  0
LINE
  8
_0-d_断熱__ハッチ
  6
CONTINUOUS
 62
    4
 10
851.25868647084815
 20
940.56656213499764
 11
853.50983525776371
 21
942.8177109219132
  0
LINE
  8
_0-d_断熱__ハッチ
  6
CONTINUOUS
 62
    4
 10
847.72315256491481
 20
940.56656213499764
 11
849.97430135183038
 21
942.81771092191548
  0
LINE
  8
_0-d_断熱__ハッチ
  6
CONTINUOUS
 62
    4
 10
845.4287000418725
 20
941.80764351789094
 11
846.43876744589477
 21
942.8177109219132
  0
LINE
  8
_0-d_断熱__ハッチ
  6
CONTINUOUS
 62
    4
 10
893.68509334203907
 20
940.56656213499537
 11
894.48715242396418
 21
941.36862121692047
  0
LINE
  8
_0-d_断熱__ハッチ
  6
CONTINUOUS
 62
    4
 10
890.14955943610119
 20
940.56656213499309
 11
892.40070822301902
 21
942.81771092191093
  0
LINE
  8
_0-d_断熱__ハッチ
  6
CONTINUOUS
 62
    4
 10
886.61402553016785
 20
940.56656213499309
 11
888.86517431708569
 21
942.81771092191093
  0
LINE
  8
_0-d_断熱__ハッチ
  6
CONTINUOUS
 62
    4
 10
883.07849162423452
 20
940.56656213499309
 11
885.32964041115235
 21
942.81771092191093
  0
LINE
  8
_0-d_断熱__ハッチ
  6
CONTINUOUS
 62
    4
 10
879.54295771830118
 20
940.56656213499537
 11
881.79410650521902
 21
942.81771092191093
  0
LINE
  8
_0-d_断熱__ハッチ
  6
CONTINUOUS
 62
    4
 10
876.00742381236785
 20
940.56656213499537
 11
878.25857259928569
 21
942.8177109219132
  0
LINE
  8
_0-a_文字
  6
CONTINUOUS
 62
    7
 10
918.33463374581186
 20
1050.7248863546215
 11
938.33463374581186
 21
1050.7248863546215
  0
TEXT
  8
_0-a_文字
 62
    7
 10
943.33463374581231
 20
1043.2248863546215
 40
15.000000000000302
 41
0.9999999999999674
 50
0
  1
特注塩ビ鋼板
  0
LINE
  8
_0-a_文字
  6
CONTINUOUS
 62
    7
 10
903.90087701607115
 20
1025.7248863546215
 11
938.33463374581186
 21
1025.7248863546215
  0
TEXT
  8
_0-a_文字
 62
    7
 10
943.33463374581027
 20
1018.2248863546215
 40
15.000000000000213
 41
0.9999999999999927
 50
0
  1
ロンシーラントＴＢ
  0
TEXT
  8
_0-a_文字
 62
    7
 10
943.3346337458114
 20
993.2248863546215
 40
15.000000000000213
 41
0.9999999999999885
 50
0
  1
亜鉛めっき鋼板 t=1.2以上（別途工事）
  0
LINE
  8
_0-a_文字
  6
CONTINUOUS
 62
    7
 10
889.46712028633044
 20
1000.7248863546215
 11
938.33463374581186
 21
1000.7248863546215
  0
LINE
  8
_0-a_文字
  6
CONTINUOUS
 62
    7
 10
875.03336355658973
 20
975.7248863546215
 11
938.33463374581186
 21
975.7248863546215
  0
TEXT
  8
_0-a_文字
 62
    7
 10
943.3346337458122
 20
968.22488635462093
 40
15.000000000000213
 41
0.9999999999999825
 50
0
  1
ブチルテープ（別途工事）
  0
LINE
  8
_0-a_文字
  6
CONTINUOUS
 62
    7
 10
853.30723884717997
 20
938.09413450634565
 11
918.33463374581186
 21
1050.7248863546215
  0
LINE
  8
_0-a_文字
  6
CONTINUOUS
 62
    7
 10
896.68534190583784
 20
1075.7248863546215
 11
916.68534190583784
 21
1075.7248863546215
  0
TEXT
  8
_0-a_文字
 62
    7
 10
921.6853419058375
 20
1068.2248863546215
 40
15.000000000000213
 41
0.9999999999999901
 50
0
  1
プルーフシーラー
  0
LINE
  8
_0-a_文字
  6
CONTINUOUS
 62
    7
 10
824.65747550502499
 20
950.9689621876305
 11
896.68534190583784
 21
1075.7248863546215
  0
LINE
  8
_0-6_鋼板__アングル
  6
CONTINUOUS
 62
    2
 10
824.53527467667698
 20
940.56656213499764
 11
824.53527467667698
 21
939.36656213499646
  0
LINE
  8
_0-6_鋼板__アングル
  6
CONTINUOUS
 62
    2
 10
977.53527467668107
 20
939.36656213499646
 11
824.53527467667698
 21
939.36656213499646
  0
LINE
  8
_0-6_鋼板__アングル
  6
CONTINUOUS
 62
    2
 10
978.73527467667998
 20
940.56656213499764
 11
824.53527467667698
 21
940.56656213499764
  0
LINE
  8
_0-6_鋼板__アングル
  6
CONTINUOUS
 62
    2
 10
978.73527467667998
 20
910.56656213499764
 11
977.53527467668107
 21
910.56656213499764
  0
LINE
  8
_0-6_鋼板__アングル
  6
CONTINUOUS
 62
    2
 10
977.53527467668107
 20
939.36656213499646
 11
977.53527467668107
 21
910.56656213499764
  0
LINE
  8
_0-6_鋼板__アングル
  6
CONTINUOUS
 62
    2
 10
978.73527467667998
 20
940.56656213499764
 11
978.73527467667998
 21
910.56656213499764
  0
LINE
  8
_0-6_鋼板__アングル
  6
CONTINUOUS
 62
    2
 10
959.53527467667925
 20
539.36656213499646
 11
1160.7352746766783
 21
539.36656213499646
  0
LINE
  8
_0-6_鋼板__アングル
  6
CONTINUOUS
 62
    2
 10
960.73527467667816
 20
540.56656213499764
 11
1160.7352746766783
 21
540.56656213499764
  0
LINE
  8
_0-6_鋼板__アングル
  6
CONTINUOUS
 62
    2
 10
1160.7352746766783
 20
539.36656213499646
 11
1160.7352746766783
 21
540.56656213499764
  0
LINE
  8
_0-6_鋼板__アングル
  6
CONTINUOUS
 62
    2
 10
959.53527467667925
 20
539.36656213499646
 11
959.53527467667925
 21
640.56656213499537
  0
LINE
  8
_0-6_鋼板__アングル
  6
CONTINUOUS
 62
    2
 10
959.53527467667925
 20
640.56656213499537
 11
960.73527467667816
 21
640.56656213499537
  0
LINE
  8
_0-6_鋼板__アングル
  6
CONTINUOUS
 62
    2
 10
960.73527467667816
 20
540.56656213499764
 11
960.73527467667816
 21
640.56656213499537
  0
LINE
  8
_0-6_鋼板__アングル
  6
CONTINUOUS
 62
    2
 10
977.53527467668107
 20
582.8177109219223
 11
978.86435332739154
 21
567.6262724300409
  0
LINE
  8
_0-6_鋼板__アングル
  6
CONTINUOUS
 62
    2
 10
978.84484487795078
 20
581.61771092191202
 11
980.06893713241141
 21
567.6262724300409
  0
LINE
  8
_0-6_鋼板__アングル
  6
CONTINUOUS
 62
    2
 10
978.86435332739154
 20
567.6262724300409
 11
980.06893713241141
 21
567.6262724300409
  0
LINE
  8
_0-6_鋼板__アングル
  6
CONTINUOUS
 62
    2
 10
978.84484487795078
 20
581.61771092191202
 11
994.53821840184162
 21
581.61771092191202
  0
LINE
  8
_0-6_鋼板__アングル
  6
CONTINUOUS
 62
    2
 10
1007.3882615226893
 20
582.32000849577389
 11
1004.7852746766802
 21
580.3177109219223
  0
ARC
  8
_0-6_鋼板__アングル
  6
CONTINUOUS
 62
    2
 10
1008.8515673487262
 20
580.41771092192221
 40
2.3999999999999999
 50
90
 51
127.56859202882603
  0
LINE
  8
_0-6_鋼板__アングル
  6
CONTINUOUS
 62
    2
 10
995.68228783067468
 20
582.32000849577389
 11
998.28527467667925
 21
580.3177109219223
  0
ARC
  8
_0-6_鋼板__アングル
  6
CONTINUOUS
 62
    2
 10
994.21898200463318
 20
580.41771092192221
 40
2.3999999999999999
 50
52.431407971173961
 51
90
  0
LINE
  8
_0-6_鋼板__アングル
  6
CONTINUOUS
 62
    4
 10
1008.8515673487262
 20
582.8177109219223
 11
994.21898200463318
 21
582.8177109219223
  0
LINE
  8
_0-6_鋼板__アングル
  6
CONTINUOUS
 62
    4
 10
998.28527467667925
 20
580.3177109219223
 11
1004.7852746766802
 21
580.3177109219223
  0
LINE
  8
_0-6_鋼板__アングル
  6
CONTINUOUS
 62
    2
 10
1004.7852746766802
 20
580.3177109219223
 11
1005.5169275896986
 21
579.36656213499646
  0
LINE
  8
_0-6_鋼板__アングル
  6
CONTINUOUS
 62
    2
 10
998.28527467667925
 20
580.3177109219223
 11
997.55362176366077
 21
579.36656213499646
  0
LINE
  8
_0-6_鋼板__アングル
  6
CONTINUOUS
 62
    4
 10
997.55362176366077
 20
579.36656213499646
 11
1005.5169275896986
 21
579.36656213499646
  0
LINE
  8
_0-6_鋼板__アングル
  6
CONTINUOUS
 62
    2
 10
1008.1199144357078
 20
581.36885970884805
 11
1005.5169275896986
 21
579.36656213499646
  0
ARC
  8
_0-6_鋼板__アングル
  6
CONTINUOUS
 62
    2
 10
1008.8515673487262
 20
580.41771092192221
 40
1.2
 50
90
 51
127.56859202882507
  0
LINE
  8
_0-6_鋼板__アングル
  6
CONTINUOUS
 62
    2
 10
994.9506349176562
 20
581.36885970884805
 11
997.55362176366077
 21
579.36656213499646
  0
ARC
  8
_0-6_鋼板__アングル
  6
CONTINUOUS
 62
    2
 10
994.21898200463318
 20
580.41771092192221
 40
1.2
 50
52.431407971171978
 51
90.000000000000057
  0
LINE
  8
_0-6_鋼板__アングル
  6
CONTINUOUS
 62
    2
 10
977.53527467668107
 20
582.8177109219223
 11
994.21898200463318
 21
582.8177109219223
  0
LINE
  8
_0-6_鋼板__アングル
  6
CONTINUOUS
 62
    2
 10
1022.4775344588869
 20
581.25957576765359
 11
1024.7571149299592
 21
579.31771092192321
  0
ARC
  8
_0-6_鋼板__アングル
  6
CONTINUOUS
 62
    2
 10
1021.504834775489
 20
580.11771092192248
 40
2.7000000000000002
 50
49.573921259901446
 51
90
  0
ARC
  8
_0-6_鋼板__アングル
  6
CONTINUOUS
 62
    2
 10
1021.504834775489
 20
580.11771092192248
 40
1.5000000000000002
 50
49.573921259901446
 51
90
  0
LINE
  8
_0-6_鋼板__アングル
  6
CONTINUOUS
 62
    2
 10
1023.2556942056061
 20
582.17306764423711
 11
1025.535274676683
 21
580.23120279850673
  0
LINE
  8
_0-6_鋼板__アングル
  6
CONTINUOUS
 62
    2
 10
1025.535274676683
 20
580.23120279850673
 11
1024.7571149299592
 21
579.31771092192321
  0
LINE
  8
_0-6_鋼板__アングル
  6
CONTINUOUS
 62
    2
 10
1008.8515673487262
 20
582.8177109219223
 11
1021.504834775489
 21
582.8177109219223
  0
LINE
  8
_0-6_鋼板__アングル
  6
CONTINUOUS
 62
    2
 10
1008.5323309515496
 20
581.61771092191202
 11
1021.504834775489
 21
581.61771092191202
  0
LINE
  8
ADD_LINE
  6
DOT
 62
    4
 10
1001.535274676682
 20
594.37049962277115
 11
1001.535274676682
 21
560.18614343270656
  0
LINE
  8
_0-6_鋼板__アングル
  6
CONTINUOUS
 62
    2
 10
816.2642068648114
 20
894.01771092192348
 11
817.46420686481031
 21
894.01771092192348
  0
LINE
  8
_0-6_鋼板__アングル
  6
CONTINUOUS
 62
    2
 10
817.46420686481031
 20
894.01771092192348
 11
824.53527467667698
 21
901.08877873378788
  0
LINE
  8
_0-6_鋼板__アングル
  6
CONTINUOUS
 62
    2
 10
823.68674653925325
 20
901.9373068712116
 11
824.53527467667698
 21
901.08877873378788
  0
LINE
  8
_0-6_鋼板__アングル
  6
CONTINUOUS
 62
    2
 10
817.46420686481031
 20
895.71476719677094
 11
823.68674653925325
 21
901.9373068712116
  0
LINE
  8
_0-6_鋼板__アングル
  6
CONTINUOUS
 62
    2
 10
817.46420686481031
 20
942.81771092191093
 11
817.46420686481031
 21
895.71476719677094
  0
LINE
  8
_0-6_鋼板__アングル
  6
CONTINUOUS
 62
    2
 10
816.2642068648114
 20
944.01771092192348
 11
816.2642068648114
 21
894.01771092192348
  0
LINE
  8
_0-6_鋼板__アングル
  6
CONTINUOUS
 62
    2
 10
877.11719371081642
 20
943.52000849577507
 11
874.51420686481185
 21
941.51771092192348
  0
LINE
  8
_0-6_鋼板__アングル
  6
CONTINUOUS
 62
    2
 10
865.41122001880638
 20
943.52000849577507
 11
868.01420686481094
 21
941.51771092192348
  0
LINE
  8
_0-6_鋼板__アングル
  6
CONTINUOUS
 62
    4
 10
878.58049953685793
 20
944.01771092192348
 11
863.94791419276487
 21
944.01771092192348
  0
LINE
  8
_0-6_鋼板__アングル
  6
CONTINUOUS
 62
    4
 10
868.01420686481094
 20
941.51771092192348
 11
874.51420686481185
 21
941.51771092192348
  0
LINE
  8
_0-6_鋼板__アングル
  6
CONTINUOUS
 62
    2
 10
874.51420686481185
 20
941.51771092192348
 11
875.24585977783033
 21
940.56656213499764
  0
LINE
  8
_0-6_鋼板__アングル
  6
CONTINUOUS
 62
    2
 10
868.01420686481094
 20
941.51771092192348
 11
867.28255395179247
 21
940.56656213499764
  0
LINE
  8
_0-6_鋼板__アングル
  6
CONTINUOUS
 62
    4
 10
867.28255395179247
 20
940.56656213499764
 11
875.24585977783033
 21
940.56656213499764
  0
LINE
  8
_0-6_鋼板__アングル
  6
CONTINUOUS
 62
    2
 10
877.84884662383718
 20
942.56885970884923
 11
875.24585977783033
 21
940.56656213499764
  0
LINE
  8
_0-6_鋼板__アングル
  6
CONTINUOUS
 62
    2
 10
864.67956710578562
 20
942.56885970884923
 11
867.28255395179247
 21
940.56656213499764
  0
LINE
  8
ADD_LINE
  6
DOT
 62
    4
 10
871.2642068648114
 20
955.57049962277233
 11
871.2642068648114
 21
921.38614343270774
  0
ARC
  8
_0-6_鋼板__アングル
  6
CONTINUOUS
 62
    2
 10
878.58049953685793
 20
941.61771092192339
 40
1.2
 50
90
 51
127.56859202882507
  0
ARC
  8
_0-6_鋼板__アングル
  6
CONTINUOUS
 62
    2
 10
878.58049953685793
 20
941.61771092192339
 40
2.3999999999999999
 50
90
 51
127.56859202882603
  0
ARC
  8
_0-6_鋼板__アングル
  6
CONTINUOUS
 62
    2
 10
863.94791419276487
 20
941.61771092192339
 40
1.2
 50
52.431407971171978
 51
90
  0
ARC
  8
_0-6_鋼板__アングル
  6
CONTINUOUS
 62
    2
 10
863.94791419276487
 20
941.61771092192339
 40
2.3999999999999999
 50
52.431407971173961
 51
90
  0
LINE
  8
_0-6_鋼板__アングル
  6
CONTINUOUS
 62
    2
 10
893.20646664701769
 20
942.4595757676525
 11
895.48604711809219
 21
940.51771092192212
  0
ARC
  8
_0-6_鋼板__アングル
  6
CONTINUOUS
 62
    2
 10
892.23376696361754
 20
941.31771092192366
 40
2.7000000000000002
 50
49.573921259901446
 51
90
  0
ARC
  8
_0-6_鋼板__アングル
  6
CONTINUOUS
 62
    2
 10
892.23376696361754
 20
941.31771092192366
 40
1.5000000000000002
 50
49.573921259901446
 51
90
  0
LINE
  8
_0-6_鋼板__アングル
  6
CONTINUOUS
 62
    2
 10
893.9846263937369
 20
943.37306764423602
 11
896.2642068648114
 21
941.43120279850791
  0
LINE
  8
_0-6_鋼板__アングル
  6
CONTINUOUS
 62
    2
 10
896.2642068648114
 20
941.43120279850791
 11
895.48604711809219
 21
940.51771092192212
  0
LINE
  8
_0-6_鋼板__アングル
  6
CONTINUOUS
 62
    2
 10
878.58049953685793
 20
942.81771092191093
 11
892.23376696361754
 21
942.81771092191093
  0
LINE
  8
_0-6_鋼板__アングル
  6
CONTINUOUS
 62
    2
 10
878.58049953685793
 20
944.01771092192348
 11
892.23376696361754
 21
944.01771092192348
  0
LINE
  8
_0-6_鋼板__アングル
  6
CONTINUOUS
 62
    2
 10
816.2642068648114
 20
944.01771092192348
 11
863.94791419276487
 21
944.01771092192348
  0
LINE
  8
_0-6_鋼板__アングル
  6
CONTINUOUS
 62
    2
 10
817.46420686481031
 20
942.81771092191093
 11
863.94791419276487
 21
942.81771092191093
  0
LINE
  8
ADD_LINE
  6
DOT
 62
    4
 10
989.53527549138869
 20
427.4125711384886
 11
989.53527549138869
 21
556.06692198169071
  0
LINE
  8
ADD_LINE
  6
DOT
 62
    4
 10
1189.5352754913888
 20
427.4125711384886
 11
1189.5352754913888
 21
556.06692198169071
  0
LINE
  8
_0-3_線色３__緑__
  6
CONTINUOUS
 62
    3
 10
824.53527467667698
 20
374.06741237025699
 11
824.53527467667698
 21
939.36656213499646
  0
LINE
  8
_0-5_金属
  6
CONTINUOUS
 62
    7
 10
959.53527467667925
 20
593.66656213499709
 11
959.53527467667925
 21
374.06741237025699
  0
LINE
  8
_0-5_金属
  6
CONTINUOUS
 62
    7
 10
859.53527467667698
 20
593.66656213499709
 11
859.53527467667698
 21
374.06741237025699
  0
LINE
  8
_0-5_金属
  6
CONTINUOUS
 62
    7
 10
879.53527467667698
 20
589.36656213499646
 11
879.53527467667698
 21
374.06741237025699
  0
LINE
  8
_0-5_金属
  6
CONTINUOUS
 62
    7
 10
939.53527467667698
 20
589.36656213499646
 11
939.53527467667698
 21
374.06741237025699
  0
LINE
  8
_0-2_線色２__白__
  6
CONTINUOUS
 62
    7
 10
859.53527467667698
 20
374.06741237025699
 11
859.53527467667698
 21
939.36656213499646
  0
LINE
  8
_0-d_断熱__ハッチ
  6
CONTINUOUS
 62
    4
 10
833.28527467667698
 20
937.36656213499828
 11
833.28527467667698
 21
374.06741237025699
  0
LINE
  8
_0-d_断熱__ハッチ
  6
CONTINUOUS
 62
    4
 10
850.78527467667698
 20
937.36656213499828
 11
850.78527467667698
 21
374.06741237025699
  0
LINE
  8
_0-d_断熱__ハッチ
  6
CONTINUOUS
 62
    4
 10
842.03527467667698
 20
937.36656213499828
 11
842.03527467667698
 21
374.06741237025699
  0
LINE
  8
_0-4_線色４__黄__
  6
CONTINUOUS
 62
    2
 10
1036.2292873929227
 20
584.36656213499646
 11
1289.5352530413875
 21
584.36656213499646
  0
LINE
  8
_0-2_線色２__白__
  6
CONTINUOUS
 62
    7
 10
979.47923819434607
 20
574.36656213499646
 11
1289.5352530413875
 21
574.36656213499646
  0
LINE
  8
_0-2_線色２__白__
  6
CONTINUOUS
 62
    7
 10
979.04179487671797
 20
579.36656213499646
 11
1289.5352530413875
 21
579.36656213499646
  0
LINE
  8
_0-d_断熱__ハッチ
  6
CONTINUOUS
 62
    4
 10
1206.994560002599
 20
574.366562135001
 11
1241.9945600026012
 21
539.366562135001
  0
LINE
  8
_0-d_断熱__ハッチ
  6
CONTINUOUS
 62
    4
 10
1197.7616490578312
 20
539.36656213500555
 11
1232.7616490578289
 21
574.366562135001
  0
LINE
  8
_0-d_断熱__ハッチ
  6
CONTINUOUS
 62
    4
 10
1235.2788312500611
 20
574.36656213500555
 11
1270.2788312500634
 21
539.36656213500555
  0
LINE
  8
_0-d_断熱__ハッチ
  6
CONTINUOUS
 62
    4
 10
1226.0459203052933
 20
539.3665621350101
 11
1261.045920305291
 21
574.36656213500555
  0
LINE
  8
_0-d_断熱__ハッチ
  6
CONTINUOUS
 62
    4
 10
1254.3301915527554
 20
539.36656213501522
 11
1289.3301915527531
 21
574.36656213501067
  0
ARC
  8
_0-1_線色１__水色__
  6
CONTINUOUS
 62
    4
 10
1237.9805846321979
 20
577.82489547430259
 40
1.2083333333333581
 50
307.52351320333912
 51
232.47648680464988
  0
ARC
  8
_0-1_線色１__水色__
  6
CONTINUOUS
 62
    4
 10
1239.4525447766746
 20
575.90822880770247
 40
1.2083333333333177
 50
127.52351320610693
 51
52.47648680188081
  0
ARC
  8
_0-1_線色１__水色__
  6
CONTINUOUS
 62
    4
 10
1235.036664343515
 20
577.82489547409796
 40
1.2083333333333581
 50
307.52351320333912
 51
232.47648680464988
  0
ARC
  8
_0-1_線色１__水色__
  6
CONTINUOUS
 62
    4
 10
1236.5086244879894
 20
575.90822880749784
 40
1.2083333333333177
 50
127.52351320610693
 51
52.47648680188081
  0
ARC
  8
_0-1_線色１__水色__
  6
CONTINUOUS
 62
    4
 10
1232.0927440548321
 20
577.82489547389332
 40
1.2083333333333581
 50
307.52351320333912
 51
232.47648680464988
  0
ARC
  8
_0-1_線色１__水色__
  6
CONTINUOUS
 62
    4
 10
1233.5647041993066
 20
575.9082288072932
 40
1.2083333333333177
 50
127.52351320610693
 51
52.47648680188081
  0
ARC
  8
_0-1_線色１__水色__
  6
CONTINUOUS
 62
    4
 10
1230.6207839106237
 20
575.90822880708856
 40
1.2083333333333177
 50
127.52351320610693
 51
52.47648680188081
  0
ARC
  8
_0-1_線色１__水色__
  6
CONTINUOUS
 62
    4
 10
1255.6441063642997
 20
577.82489547368641
 40
1.2083333333333581
 50
307.52351320333912
 51
232.47648680464988
  0
ARC
  8
_0-1_線色１__水色__
  6
CONTINUOUS
 62
    4
 10
1257.1160665087741
 20
575.90822880708856
 40
1.2083333333333177
 50
127.52351320610693
 51
52.47648680188081
  0
ARC
  8
_0-1_線色１__水色__
  6
CONTINUOUS
 62
    4
 10
1252.7001860756145
 20
577.82489547348177
 40
1.2083333333333581
 50
307.52351320333912
 51
232.47648680464988
  0
ARC
  8
_0-1_線色１__水色__
  6
CONTINUOUS
 62
    4
 10
1254.1721462200912
 20
575.90822880688165
 40
1.2083333333333177
 50
127.52351320610693
 51
52.47648680188081
  0
ARC
  8
_0-1_線色１__水色__
  6
CONTINUOUS
 62
    4
 10
1249.7562657869316
 20
577.82489547327714
 40
1.2083333333333581
 50
307.52351320333912
 51
232.47648680464988
  0
ARC
  8
_0-1_線色１__水色__
  6
CONTINUOUS
 62
    4
 10
1251.2282259314084
 20
575.90822880667702
 40
1.2083333333333177
 50
127.52351320610693
 51
52.47648680188081
  0
ARC
  8
_0-1_線色１__水色__
  6
CONTINUOUS
 62
    4
 10
1243.8684252095659
 20
577.82489547286559
 40
1.2083333333333581
 50
307.52351320333912
 51
232.47648680464988
  0
ARC
  8
_0-1_線色１__水色__
  6
CONTINUOUS
 62
    4
 10
1246.8123454982488
 20
577.8248954730725
 40
1.2083333333333581
 50
307.52351320333912
 51
232.47648680464988
  0
ARC
  8
_0-1_線色１__水色__
  6
CONTINUOUS
 62
    4
 10
1245.3403853540403
 20
575.90822880626774
 40
1.2083333333333177
 50
127.52351320610693
 51
52.47648680188081
  0
ARC
  8
_0-1_線色１__水色__
  6
CONTINUOUS
 62
    4
 10
1248.2843056427232
 20
575.90822880647238
 40
1.2083333333333177
 50
127.52351320610693
 51
52.47648680188081
  0
ARC
  8
_0-1_線色１__水色__
  6
CONTINUOUS
 62
    4
 10
1242.3964650653575
 20
575.90822880606083
 40
1.2083333333333177
 50
127.52351320610693
 51
52.47648680188081
  0
ARC
  8
_0-1_線色１__水色__
  6
CONTINUOUS
 62
    4
 10
1240.924504920883
 20
577.82489547266096
 40
1.2083333333333581
 50
307.52351320333912
 51
232.47648680464988
  0
ARC
  8
_0-1_線色１__水色__
  6
CONTINUOUS
 62
    4
 10
1229.1488237661492
 20
577.82489547368641
 40
1.2083333333333581
 50
307.52351320333912
 51
232.47648680464988
  0
ARC
  8
_0-1_線色１__水色__
  6
CONTINUOUS
 62
    4
 10
1267.4197875190312
 20
577.8248954745095
 40
1.2083333333333581
 50
307.52351320333912
 51
232.47648680464988
  0
ARC
  8
_0-1_線色１__水色__
  6
CONTINUOUS
 62
    4
 10
1268.8917476635079
 20
575.90822880790938
 40
1.2083333333333177
 50
127.52351320610693
 51
52.47648680188081
  0
ARC
  8
_0-1_線色１__水色__
  6
CONTINUOUS
 62
    4
 10
1264.4758672303483
 20
577.82489547430487
 40
1.2083333333333581
 50
307.52351320333912
 51
232.47648680464988
  0
ARC
  8
_0-1_線色１__水色__
  6
CONTINUOUS
 62
    4
 10
1265.9478273748227
 20
575.90822880770475
 40
1.2083333333333177
 50
127.52351320610693
 51
52.47648680188081
  0
ARC
  8
_0-1_線色１__水色__
  6
CONTINUOUS
 62
    4
 10
1261.5319469416654
 20
577.82489547410023
 40
1.2083333333333581
 50
307.52351320333912
 51
232.47648680464988
  0
ARC
  8
_0-1_線色１__水色__
  6
CONTINUOUS
 62
    4
 10
1263.0039070861399
 20
575.90822880750011
 40
1.2083333333333177
 50
127.52351320610693
 51
52.47648680188081
  0
ARC
  8
_0-1_線色１__水色__
  6
CONTINUOUS
 62
    4
 10
1260.059986797457
 20
575.90822880729547
 40
1.2083333333333177
 50
127.52351320610693
 51
52.47648680188081
  0
ARC
  8
_0-1_線色１__水色__
  6
CONTINUOUS
 62
    4
 10
1285.083309251133
 20
577.82489547389332
 40
1.2083333333333581
 50
307.52351320333912
 51
232.47648680464988
  0
ARC
  8
_0-1_線色１__水色__
  6
CONTINUOUS
 62
    4
 10
1286.5552693956051
 20
575.90822880729547
 40
1.2083333333333177
 50
127.52351320610693
 51
52.47648680188081
  0
ARC
  8
_0-1_線色１__水色__
  6
CONTINUOUS
 62
    4
 10
1282.1393889624478
 20
577.82489547368868
 40
1.2083333333333581
 50
307.52351320333912
 51
232.47648680464988
  0
ARC
  8
_0-1_線色１__水色__
  6
CONTINUOUS
 62
    4
 10
1283.6113491069245
 20
575.90822880708856
 40
1.2083333333333177
 50
127.52351320610693
 51
52.47648680188081
  0
ARC
  8
_0-1_線色１__水色__
  6
CONTINUOUS
 62
    4
 10
1279.1954686737649
 20
577.82489547348405
 40
1.2083333333333581
 50
307.52351320333912
 51
232.47648680464988
  0
ARC
  8
_0-1_線色１__水色__
  6
CONTINUOUS
 62
    4
 10
1280.6674288182394
 20
575.90822880688393
 40
1.2083333333333177
 50
127.52351320610693
 51
52.47648680188081
  0
ARC
  8
_0-1_線色１__水色__
  6
CONTINUOUS
 62
    4
 10
1273.3076280963969
 20
577.8248954730725
 40
1.2083333333333581
 50
307.52351320333912
 51
232.47648680464988
  0
ARC
  8
_0-1_線色１__水色__
  6
CONTINUOUS
 62
    4
 10
1276.2515483850821
 20
577.82489547327941
 40
1.2083333333333581
 50
307.52351320333912
 51
232.47648680464988
  0
ARC
  8
_0-1_線色１__水色__
  6
CONTINUOUS
 62
    4
 10
1274.7795882408736
 20
575.90822880647465
 40
1.2083333333333177
 50
127.52351320610693
 51
52.47648680188081
  0
ARC
  8
_0-1_線色１__水色__
  6
CONTINUOUS
 62
    4
 10
1277.7235085295565
 20
575.90822880667929
 40
1.2083333333333177
 50
127.52351320610693
 51
52.47648680188081
  0
ARC
  8
_0-1_線色１__水色__
  6
CONTINUOUS
 62
    4
 10
1271.8356679521885
 20
575.90822880626774
 40
1.2083333333333177
 50
127.52351320610693
 51
52.47648680188081
  0
ARC
  8
_0-1_線色１__水色__
  6
CONTINUOUS
 62
    4
 10
1270.3637078077163
 20
577.82489547286787
 40
1.2083333333333581
 50
307.52351320333912
 51
232.47648680464988
  0
ARC
  8
_0-1_線色１__水色__
  6
CONTINUOUS
 62
    4
 10
1258.5880266529803
 20
577.82489547389332
 40
1.2083333333333581
 50
307.52351320333912
 51
232.47648680464988
  0
ARC
  8
_0-1_線色１__水色__
  6
CONTINUOUS
 62
    4
 10
1288.0272295398136
 20
577.8248954741008
 40
1.2083333333333581
 50
307.52351320333912
 51
232.47648680464988
  0
LINE
  8
_0-d_断熱__ハッチ
  6
CONTINUOUS
 62
    4
 10
1263.5631024975232
 20
574.36656213501067
 11
1289.5352530413875
 21
548.39441159114585
  0
LINE
  8
_0-d_断熱__ハッチ
  6
CONTINUOUS
 62
    4
 10
1282.6144628002176
 20
539.36656213502033
 11
1289.5352530413875
 21
546.28735237618969
  0
ARC
  8
_0-1_線色１__水色__
  6
CONTINUOUS
 62
    4
 10
1289.4991896842903
 20
575.90822880750295
 40
1.2083333333333177
 50
127.52351320610693
 51
271.71027727296774
  0
LINE
  8
_0-5_金属
  6
CONTINUOUS
 62
    7
 10
959.53527467667925
 20
439.36654213499764
 11
1289.5352530413875
 21
439.36654213499764
  0
LINE
  8
ADD_LINE
  6
DOT
 62
    4
 10
1001.535274676682
 20
499.69834625997123
 11
1001.535274676682
 21
589.31506600258786
  0
LINE
  8
_0-7_ビス
  6
CONTINUOUS
 62
    7
 10
1007.5352746766811
 20
582.43309553730626
 11
1007.5352746766811
 21
582.8177109219223
  0
LINE
  8
_0-7_ビス
  6
DASHED3
 62
    7
 10
1003.0027427929366
 20
580.2683413910944
 11
1004.0852905128298
 21
582.8177109219223
  0
LINE
  8
_0-7_ビス
  6
CONTINUOUS
 62
    7
 10
995.53527467668061
 20
582.43309553730626
 11
995.53527467668061
 21
582.8177109219223
  0
LINE
  8
_0-7_ビス
  6
DASHED3
 62
    7
 10
1000.0678065604251
 20
580.2683413910944
 11
998.98525884053186
 21
582.8177109219223
  0
LINE
  8
_0-7_ビス
  6
CONTINUOUS
 62
    7
 10
1007.5352746766811
 20
582.43309553730626
 11
995.53527467668061
 21
582.43309553730626
  0
LINE
  8
_0-7_ビス
  6
CONTINUOUS
 62
    7
 10
1007.5352746766811
 20
582.8177109219223
 11
995.53527467668061
 21
582.8177109219223
  0
ARC
  8
_0-7_ビス
  6
DASHED3
 62
    7
 10
1001.535274676682
 20
581.3788844893611
 40
1.8403175392666382
 50
217.11750793457031
 51
322.88247680664062
  0
LINE
  8
_0-7_ビス
  6
CONTINUOUS
 62
    7
 10
1005.6210611143086
 20
580.51888197493327
 11
1007.5352746766811
 21
582.43309553730626
  0
ARC
  8
_0-7_ビス
  6
CONTINUOUS
 62
    7
 10
1007.0352746766793
 20
579.10466841256039
 40
2
 50
135.00000000000153
 51
180.00000000000003
  0
LINE
  8
_0-7_ビス
  6
CONTINUOUS
 62
    7
 10
997.44948823905531
 20
580.51888197493327
 11
995.53527467668061
 21
582.43309553730626
  0
ARC
  8
_0-7_ビス
  6
CONTINUOUS
 62
    7
 10
996.03527467668016
 20
579.10466841256039
 40
2
 50
0
 51
44.999999999998501
  0
LINE
  8
_0-7_ビス
  6
CONTINUOUS
 62
    7
 10
1005.0352746766811
 20
578.81771092192196
 11
998.03527467668061
 21
578.81771092192196
  0
LINE
  8
_0-7_ビス
  6
CONTINUOUS
 62
    7
 10
998.03527467668061
 20
509.83843686408477
 11
1001.535274676682
 21
507.8177109219223
  0
LINE
  8
_0-7_ビス
  6
CONTINUOUS
 62
    7
 10
998.03527467668061
 20
579.10466841256039
 11
998.03527467668061
 21
509.83843686408477
  0
LINE
  8
_0-7_ビス
  6
CONTINUOUS
 62
    7
 10
1005.0352746766811
 20
513.31771092192184
 11
998.03527467668061
 21
513.31771092192184
  0
LINE
  8
_0-7_ビス
  6
CONTINUOUS
 62
    7
 10
1005.0352746766811
 20
509.83843686408591
 11
1001.535274676682
 21
507.8177109219223
  0
LINE
  8
_0-7_ビス
  6
CONTINUOUS
 62
    7
 10
1005.0352746766811
 20
579.10466841256039
 11
1005.0352746766811
 21
509.83843686408591
  0
LINE
  8
_0-7_ビス
  6
CONTINUOUS
 62
    7
 10
1005.0352746766811
 20
567.8177109219223
 11
998.03527467668061
 21
567.8177109219223
  0
LINE
  8
_0-7_ビス
  6
CONTINUOUS
 62
    4
 10
998.03527467668061
 20
566.61790756252799
 11
1002.5128551186225
 21
567.8177109219223
  0
LINE
  8
_0-7_ビス
  6
CONTINUOUS
 62
    4
 10
998.03527467668061
 20
554.31168703315052
 11
1005.0352746766811
 21
556.18739281323997
  0
LINE
  8
_0-7_ビス
  6
CONTINUOUS
 62
    4
 10
998.03527467668061
 20
556.31168703315097
 11
1005.0352746766811
 21
558.18739281323928
  0
LINE
  8
_0-7_ビス
  6
CONTINUOUS
 62
    4
 10
998.03527467668061
 20
558.31168703315143
 11
1005.0352746766811
 21
560.18739281323974
  0
LINE
  8
_0-7_ビス
  6
CONTINUOUS
 62
    4
 10
998.03527467668061
 20
560.31168703315075
 11
1005.0352746766811
 21
562.18739281323963
  0
LINE
  8
_0-7_ビス
  6
CONTINUOUS
 62
    4
 10
998.03527467668061
 20
562.3116870331512
 11
1005.0352746766811
 21
564.18739281323951
  0
LINE
  8
_0-7_ビス
  6
CONTINUOUS
 62
    4
 10
998.03527467668061
 20
564.31168703315166
 11
1005.0352746766811
 21
566.18739281323997
  0
LINE
  8
_0-7_ビス
  6
CONTINUOUS
 62
    4
 10
998.03527467668061
 20
542.00546650377419
 11
1005.0352746766811
 21
543.8811722838625
  0
LINE
  8
_0-7_ビス
  6
CONTINUOUS
 62
    4
 10
998.03527467668061
 20
544.00546650377464
 11
1005.0352746766811
 21
545.88117228386295
  0
LINE
  8
_0-7_ビス
  6
CONTINUOUS
 62
    4
 10
998.03527467668061
 20
546.00546650377396
 11
1005.0352746766811
 21
547.88117228386227
  0
LINE
  8
_0-7_ビス
  6
CONTINUOUS
 62
    4
 10
998.03527467668061
 20
548.00546650377441
 11
1005.0352746766811
 21
549.88117228386272
  0
LINE
  8
_0-7_ビス
  6
CONTINUOUS
 62
    4
 10
998.03527467668061
 20
550.00546650377373
 11
1005.0352746766811
 21
551.88117228386261
  0
LINE
  8
_0-7_ビス
  6
CONTINUOUS
 62
    4
 10
998.03527467668061
 20
552.00546650377419
 11
1005.0352746766811
 21
553.88117228386307
  0
LINE
  8
_0-7_ビス
  6
CONTINUOUS
 62
    4
 10
998.03527467668061
 20
529.69924597439672
 11
1005.0352746766811
 21
531.57495175448616
  0
LINE
  8
_0-7_ビス
  6
CONTINUOUS
 62
    4
 10
998.03527467668061
 20
531.69924597439717
 11
1005.0352746766811
 21
533.57495175448548
  0
LINE
  8
_0-7_ビス
  6
CONTINUOUS
 62
    4
 10
998.03527467668061
 20
533.69924597439763
 11
1005.0352746766811
 21
535.57495175448594
  0
LINE
  8
_0-7_ビス
  6
CONTINUOUS
 62
    4
 10
998.03527467668061
 20
535.69924597439694
 11
1005.0352746766811
 21
537.57495175448639
  0
LINE
  8
_0-7_ビス
  6
CONTINUOUS
 62
    4
 10
998.03527467668061
 20
537.6992459743974
 11
1005.0352746766811
 21
539.57495175448571
  0
LINE
  8
_0-7_ビス
  6
CONTINUOUS
 62
    4
 10
998.03527467668061
 20
539.69924597439785
 11
1005.0352746766811
 21
541.57495175448616
  0
LINE
  8
_0-7_ビス
  6
CONTINUOUS
 62
    4
 10
998.03527467668061
 20
517.39302544502038
 11
1005.0352746766811
 21
519.2687312251087
  0
LINE
  8
_0-7_ビス
  6
CONTINUOUS
 62
    4
 10
998.03527467668061
 20
519.39302544502084
 11
1005.0352746766811
 21
521.26873122510915
  0
LINE
  8
_0-7_ビス
  6
CONTINUOUS
 62
    4
 10
998.03527467668061
 20
521.39302544502016
 11
1005.0352746766811
 21
523.26873122510847
  0
LINE
  8
_0-7_ビス
  6
CONTINUOUS
 62
    4
 10
998.03527467668061
 20
523.39302544502061
 11
1005.0352746766811
 21
525.26873122510892
  0
LINE
  8
_0-7_ビス
  6
CONTINUOUS
 62
    4
 10
998.03527467668061
 20
525.39302544501993
 11
1005.0352746766811
 21
527.26873122510938
  0
LINE
  8
_0-7_ビス
  6
CONTINUOUS
 62
    4
 10
998.03527467668061
 20
527.39302544502038
 11
1005.0352746766811
 21
529.26873122510983
  0
LINE
  8
_0-7_ビス
  6
CONTINUOUS
 62
    4
 10
998.03527467668061
 20
515.08680491564405
 11
1005.0352746766811
 21
516.96251069573236
  0
LINE
  8
_0-7_ビス
  6
CONTINUOUS
 62
    4
 10
998.89699939977334
 20
513.31771092192184
 11
1005.0352746766811
 21
514.96251069573191
  0
LINE
  8
_0-5_金属
  6
CONTINUOUS
 62
    7
 10
969.53527467667925
 20
451.36656213499691
 11
1009.5352154913888
 21
451.36656213499691
  0
ARC
  8
_0-5_金属
  6
CONTINUOUS
 62
    7
 10
1027.8722954913901
 20
535.60296213499782
 40
2.9999997999999999
 50
90
 51
167.90458000000001
  0
ARC
  8
_0-5_金属
  6
CONTINUOUS
 62
    7
 10
1009.5352154913888
 20
451.36663213499787
 40
2.9999997999999999
 50
270
 51
347.90458000000001
  0
LINE
  8
_0-5_金属
  6
CONTINUOUS
 62
    7
 10
1009.5352154913888
 20
451.36656213499691
 11
1024.9388957177866
 21
536.23158329931584
  0
LINE
  8
_0-5_金属
  6
CONTINUOUS
 62
    7
 10
1027.8606454913888
 20
535.56657213499761
 11
1012.4686152649923
 21
450.73801097067985
  0
LINE
  8
_0-5_金属
  6
CONTINUOUS
 62
    7
 10
1169.5352855913889
 20
448.36660213499727
 11
1209.5351655913892
 21
448.36660213499727
  0
ARC
  8
_0-5_金属
  6
CONTINUOUS
 62
    7
 10
1227.887185591389
 20
535.56255213499753
 40
2.9999997999999999
 50
90
 51
167.90458000000001
  0
ARC
  8
_0-5_金属
  6
CONTINUOUS
 62
    7
 10
1151.1721055913877
 20
535.55799213499768
 40
2.9999997999999999
 50
12.095412999999999
 51
90.000000000000028
  0
LINE
  8
_0-5_金属
  6
CONTINUOUS
 62
    7
 10
1151.2097955913891
 20
535.56657213499761
 11
1027.8606454913888
 21
535.56657213499761
  0
ARC
  8
_0-5_金属
  6
CONTINUOUS
 62
    7
 10
1169.5352855913889
 20
451.36663213499787
 40
2.9999997999999999
 50
192.09540999999999
 51
270
  0
ARC
  8
_0-5_金属
  6
CONTINUOUS
 62
    7
 10
1209.5351655913892
 20
451.36663213499787
 40
2.9999997999999999
 50
270
 51
347.90458000000001
  0
LINE
  8
_0-5_金属
  6
CONTINUOUS
 62
    7
 10
1166.6018857080708
 20
450.73801148265375
 11
1151.2097955913891
 21
535.56657213499761
  0
LINE
  8
_0-5_金属
  6
CONTINUOUS
 62
    7
 10
1227.860595591389
 20
535.56657213499761
 11
1212.4685653649904
 21
450.73801097067985
  0
LINE
  8
_0-5_金属
  6
CONTINUOUS
 62
    7
 10
1154.1055054417911
 20
536.18661294093272
 11
1169.5352910851257
 21
451.36647193499812
  0
LINE
  8
_0-5_金属
  6
CONTINUOUS
 62
    7
 10
1169.5352910851257
 20
451.36647193499812
 11
1209.5351491956803
 21
451.36647193499812
  0
LINE
  8
_0-5_金属
  6
CONTINUOUS
 62
    7
 10
1209.5351491956803
 20
451.36647193499812
 11
1224.9537858177855
 21
536.19117329931555
  0
LINE
  8
_0-5_金属
  6
CONTINUOUS
 62
    7
 10
969.53527467667925
 20
451.36656213499691
 11
969.53527467667925
 21
448.36654213499742
  0
LINE
  8
_0-5_金属
  6
CONTINUOUS
 62
    7
 10
1289.5352530413875
 20
448.36654213499742
 11
959.53527467667925
 21
448.36654213499742
  0
LINE
  8
_0-5_金属
  6
CONTINUOUS
 62
    7
 10
1227.860595591389
 20
535.56657213499761
 11
1289.5352530413875
 21
535.56657213499761
  0
ARC
  8
_0-5_金属
  6
CONTINUOUS
 62
    7
 10
975.58523549138897
 20
465.4165121349979
 40
1.0499997999999999
 50
90
 51
270
  0
ARC
  8
_0-5_金属
  6
CONTINUOUS
 62
    7
 10
975.58523549138897
 20
465.4165121349979
 40
0.2499999
 50
90
 51
270
  0
ARC
  8
_0-5_金属
  6
CONTINUOUS
 62
    7
 10
1003.4853154913884
 20
465.4165121349979
 40
1.0499997999999999
 50
270
 51
90
  0
ARC
  8
_0-5_金属
  6
CONTINUOUS
 62
    7
 10
1003.4853154913884
 20
465.4165121349979
 40
0.2499999
 50
270
 51
90
  0
ARC
  8
_0-5_金属
  6
CONTINUOUS
 62
    7
 10
987.93532549138888
 20
467.26656213499723
 40
0.7999998999999997
 50
270
 51
0
  0
ARC
  8
_0-5_金属
  6
CONTINUOUS
 62
    7
 10
987.93532549138888
 20
467.26656213499723
 40
1.5999999
 50
270
 51
0
  0
ARC
  8
_0-5_金属
  6
CONTINUOUS
 62
    7
 10
991.1352254913885
 20
467.26656213499723
 40
0.7999998999999997
 50
180
 51
270
  0
ARC
  8
_0-5_金属
  6
CONTINUOUS
 62
    7
 10
991.1352254913885
 20
467.26656213499723
 40
1.5999999
 50
180
 51
270
  0
ARC
  8
_0-5_金属
  6
CONTINUOUS
 62
    7
 10
987.93532549138888
 20
536.96658213499745
 40
0.7999998999999997
 50
0
 51
90
  0
ARC
  8
_0-5_金属
  6
CONTINUOUS
 62
    7
 10
987.93532549138888
 20
536.96658213499745
 40
1.5999999
 50
0
 51
90
  0
ARC
  8
_0-5_金属
  6
CONTINUOUS
 62
    7
 10
991.1352254913885
 20
537.76656213499791
 40
0.7999998999999997
 50
90
 51
180
  0
ARC
  8
_0-5_金属
  6
CONTINUOUS
 62
    7
 10
991.1352254913885
 20
537.76656213499791
 40
1.5999999
 50
90
 51
180
  0
LINE
  8
_0-5_金属
  6
CONTINUOUS
 62
    7
 10
989.53527549138869
 20
534.51544213499801
 11
989.53527549138869
 21
524.07460213499689
  0
LINE
  8
_0-5_金属
  6
CONTINUOUS
 62
    7
 10
987.97021549138833
 20
525.63959213499743
 11
989.53527549138869
 21
524.07460213499689
  0
LINE
  8
_0-5_金属
  6
CONTINUOUS
 62
    7
 10
989.53527549138869
 20
534.51544213499801
 11
987.97021549138833
 21
525.63959213499743
  0
LINE
  8
_0-5_金属
  6
CONTINUOUS
 62
    7
 10
989.53527549138869
 20
524.07460213499689
 11
989.53527549138869
 21
467.26656213499723
  0
LINE
  8
_0-5_金属
  6
CONTINUOUS
 62
    7
 10
987.11005549138861
 20
525.36840213499772
 11
988.7353054913882
 21
523.74315213499813
  0
LINE
  8
_0-5_金属
  6
CONTINUOUS
 62
    7
 10
988.7353054913882
 20
523.74315213499813
 11
988.7353054913882
 21
467.26656213499723
  0
LINE
  8
_0-5_金属
  6
CONTINUOUS
 62
    7
 10
988.7353054913882
 20
534.58559213499711
 11
987.11005549138861
 21
525.36840213499772
  0
LINE
  8
_0-5_金属
  6
CONTINUOUS
 62
    7
 10
989.53527549138869
 20
537.76656213499791
 11
989.53527549138869
 21
534.51544213499801
  0
LINE
  8
_0-5_金属
  6
CONTINUOUS
 62
    7
 10
988.7353054913882
 20
536.96658213499745
 11
988.7353054913882
 21
534.58559213499711
  0
LINE
  8
_0-5_金属
  6
CONTINUOUS
 62
    7
 10
974.5352854913898
 20
537.76662213499776
 11
987.93532549138888
 21
537.76662213499776
  0
LINE
  8
_0-5_金属
  6
CONTINUOUS
 62
    7
 10
990.33524549138917
 20
537.76656213499791
 11
990.33524549138917
 21
467.26656213499723
  0
LINE
  8
_0-5_金属
  6
CONTINUOUS
 62
    7
 10
975.58523549138897
 20
465.66655213499757
 11
987.93532549138888
 21
465.66655213499757
  0
LINE
  8
_0-5_金属
  6
CONTINUOUS
 62
    7
 10
975.58523549138897
 20
465.1664821349982
 11
1003.4853154913884
 21
465.1664821349982
  0
LINE
  8
_0-5_金属
  6
CONTINUOUS
 62
    7
 10
975.58523549138897
 20
466.46646213499707
 11
987.93532549138888
 21
466.46646213499707
  0
LINE
  8
_0-5_金属
  6
CONTINUOUS
 62
    7
 10
991.1352254913885
 20
466.46646213499707
 11
1003.4853154913884
 21
466.46646213499707
  0
LINE
  8
_0-5_金属
  6
CONTINUOUS
 62
    7
 10
991.1352254913885
 20
465.66655213499757
 11
1003.4853154913884
 21
465.66655213499757
  0
LINE
  8
_0-5_金属
  6
CONTINUOUS
 62
    7
 10
975.58523549138897
 20
464.36651233499788
 11
1003.4853154913884
 21
464.36651233499788
  0
LINE
  8
_0-5_金属
  6
CONTINUOUS
 62
    7
 10
1187.9352755913892
 20
539.36656213499759
 11
990.98585549138932
 21
539.36656213499759
  0
ARC
  8
_0-5_金属
  6
CONTINUOUS
 62
    7
 10
1203.4852655913887
 20
465.4165121349979
 40
1.0499997999999999
 50
270
 51
90
  0
ARC
  8
_0-5_金属
  6
CONTINUOUS
 62
    7
 10
1203.4852655913887
 20
465.4165121349979
 40
0.2499999
 50
270
 51
90
  0
ARC
  8
_0-5_金属
  6
CONTINUOUS
 62
    7
 10
1175.5851855913893
 20
465.4165121349979
 40
1.0499997999999999
 50
90
 51
270
  0
ARC
  8
_0-5_金属
  6
CONTINUOUS
 62
    7
 10
1175.5851855913893
 20
465.4165121349979
 40
0.2499999
 50
90
 51
270
  0
ARC
  8
_0-5_金属
  6
CONTINUOUS
 62
    7
 10
1191.1351755913888
 20
467.26656213499723
 40
0.7999998999999997
 50
180
 51
270
  0
ARC
  8
_0-5_金属
  6
CONTINUOUS
 62
    7
 10
1191.1351755913888
 20
467.26656213499723
 40
1.5999999
 50
180
 51
270
  0
ARC
  8
_0-5_金属
  6
CONTINUOUS
 62
    7
 10
1187.9352755913892
 20
467.26656213499723
 40
0.7999998999999997
 50
270
 51
0
  0
ARC
  8
_0-5_金属
  6
CONTINUOUS
 62
    7
 10
1187.9352755913892
 20
467.26656213499723
 40
1.5999999
 50
270
 51
0
  0
ARC
  8
_0-5_金属
  6
CONTINUOUS
 62
    7
 10
1191.1351755913888
 20
537.76656213499791
 40
0.7999998999999997
 50
90
 51
180
  0
ARC
  8
_0-5_金属
  6
CONTINUOUS
 62
    7
 10
1191.1351755913888
 20
537.76656213499791
 40
1.5999999
 50
90
 51
180
  0
ARC
  8
_0-5_金属
  6
CONTINUOUS
 62
    7
 10
1187.9352755913892
 20
537.76656213499791
 40
0.7999998999999997
 50
0
 51
90
  0
ARC
  8
_0-5_金属
  6
CONTINUOUS
 62
    7
 10
1187.9352755913892
 20
537.76656213499791
 40
1.5999999
 50
0
 51
90
  0
LINE
  8
_0-5_金属
  6
CONTINUOUS
 62
    7
 10
1190.3351955913895
 20
537.76656213499791
 11
1190.3351955913895
 21
467.26656213499723
  0
LINE
  8
_0-5_金属
  6
CONTINUOUS
 62
    7
 10
1188.7352555913885
 20
537.76656213499791
 11
1188.7352555913885
 21
467.26656213499723
  0
LINE
  8
_0-5_金属
  6
CONTINUOUS
 62
    7
 10
1189.535225591389
 20
537.76656213499791
 11
1189.535225591389
 21
467.26656213499723
  0
LINE
  8
_0-5_金属
  6
CONTINUOUS
 62
    7
 10
1203.4852655913887
 20
465.66655213499757
 11
1191.1351755913888
 21
465.66655213499757
  0
LINE
  8
_0-5_金属
  6
CONTINUOUS
 62
    7
 10
1203.4852655913887
 20
465.1664821349982
 11
1175.5851855913893
 21
465.1664821349982
  0
LINE
  8
_0-5_金属
  6
CONTINUOUS
 62
    7
 10
1203.4852655913887
 20
466.46646213499707
 11
1191.1351755913888
 21
466.46646213499707
  0
LINE
  8
_0-5_金属
  6
CONTINUOUS
 62
    7
 10
1187.9352755913892
 20
466.46646213499707
 11
1175.5851855913893
 21
466.46646213499707
  0
LINE
  8
_0-5_金属
  6
CONTINUOUS
 62
    7
 10
1187.9352755913892
 20
465.66655213499757
 11
1175.5851855913893
 21
465.66655213499757
  0
LINE
  8
_0-5_金属
  6
CONTINUOUS
 62
    7
 10
1175.5851855913893
 20
464.36651233499788
 11
1203.4852655913887
 21
464.36651233499788
  0
LINE
  8
_0-5_金属
  6
CONTINUOUS
 62
    7
 10
1187.9352755913892
 20
538.56659213499711
 11
991.1352254913885
 21
538.56659213499711
  0
LINE
  8
_0-5_金属
  6
CONTINUOUS
 62
    7
 10
974.5352854913898
 20
538.56659213499711
 11
974.5352854913898
 21
537.76662213499776
  0
LINE
  8
_0-5_金属
  6
CONTINUOUS
 62
    7
 10
974.5352854913898
 20
538.56659213499711
 11
987.93532549138888
 21
538.56659213499711
  0
LINE
  8
_0-5_金属
  6
CONTINUOUS
 62
    7
 10
1289.5352530413875
 20
538.56659213499711
 11
1190.9953755913893
 21
538.56659213499711
  0
LINE
  8
_0-5_金属
  6
CONTINUOUS
 62
    7
 10
1191.1351755913888
 20
539.36656213499759
 11
1289.5352530413875
 21
539.36656213499759
  0
TEXT
  8
_0-a_文字
 62
    7
 10
1104.709765377208
 20
331.86656213499759
 40
14.999999999999858
 41
1.0000000000000089
 50
0
  1
亜鉛めっき鋼板 t=1.2以上
  0
TEXT
  8
_0-a_文字
 62
    7
 10
1104.7097653772096
 20
311.86656213499759
 40
14.999999999999858
 41
1.0000000000000193
 50
0
  1
（別途工事）
  0
TEXT
  8
_0-a_文字
 62
    7
 10
1196.8823841748801
 20
356.86656213499759
 40
14.999999999999858
 41
1.0000000000000064
 50
0
  1
タイトフレーム（別途工事）
  0
LINE
  8
_0-a_文字
  6
CONTINUOUS
 62
    7
 10
1145.9016220613439
 20
409.36656213499759
 11
1191.8823841748799
 21
409.36656213499759
  0
LINE
  8
_0-a_文字
  6
CONTINUOUS
 62
    7
 10
963.96456233423294
 20
539.84313453781169
 11
1079.709765377208
 21
339.36656213499759
  0
LINE
  8
_0-a_文字
  6
CONTINUOUS
 62
    7
 10
1079.709765377208
 20
339.36656213499759
 11
1099.709765377208
 21
339.36656213499759
  0
LINE
  8
_0-a_文字
  6
CONTINUOUS
 62
    7
 10
1071.0770185141128
 20
538.96657713499735
 11
1171.8823841748799
 21
364.36656213499759
  0
LINE
  8
_0-a_文字
  6
CONTINUOUS
 62
    7
 10
1171.8823841748799
 20
364.36656213499759
 11
1191.8823841748799
 21
364.36656213499759
  0
TEXT
  8
_0-a_文字
 62
    7
 10
1196.8823841748776
 20
401.86656213499759
 40
14.999999999999858
 41
1.0000000000000073
 50
0
  1
デッキプレート フラットタイプ H=75
  0
TEXT
  8
_0-a_文字
 62
    7
 10
1196.8823841748772
 20
381.86656213499759
 40
14.999999999999858
 41
1.0000000000000084
 50
0
  1
t=1.0 または t=1.2（別途工事）
  0
TEXT
  8
_f-0_
 62
    7
 10
405.30228976001922
 20
1163.75
 40
17.499999999999993
 41
1.0000000000000004
 50
0
  1
ＳＤ－Ｆ仕様 パラペット 立上り接着工法（笠木なし）
  0
ENDSEC
  0
EOF
