  0
SECTION
  2
HEADER
  9
$ACADVER
  1
AC1009
  9
$INSBASE
 10
0
 20
0
 30
0
  9
$EXTMIN
 10
0
 20
0
  9
$EXTMAX
 10
2100
 20
1485
  9
$LIMMIN
 10
0
 20
0
  9
$LIMMAX
 10
2100
 20
1485
  9
$LTSCALE
 40
5
  0
ENDSEC
  0
SECTION
  2
TABLES
  0
TABLE
  2
LTYPE
 70
     9
  0
LTYPE
  2
CONTINUOUS
 70
    64
  3
実線
 72
    65
 73
     0
 40
0.0
  0
LTYPE
  2
DASHED1
 70
    64
  3
--  --  --  --  --  --  --  --  
 72
    65
 73
     2
 40
2.5
 49
1.25
 49
-1.25
  0
LTYPE
  2
DASHED2
 70
    64
  3
----    ----    ----    ----    
 72
    65
 73
     2
 40
5.0
 49
2.5
 49
-2.5
  0
LTYPE
  2
DASHED3
 70
    64
  3
------  ------  ------  ------  
 72
    65
 73
     2
 40
5.0
 49
3.75
 49
-1.25
  0
LTYPE
  2
CENTER1
 70
    64
  3
----- - ----- - ----- - ----- - 
 72
    65
 73
     4
 40
10.0
 49
6.25
 49
-1.25
 49
1.25
 49
-1.25
  0
LTYPE
  2
CENTER2
 70
    64
  3
----------  --  ----------  --  
 72
    65
 73
     4
 40
20.0
 49
12.5
 49
-2.5
 49
2.5
 49
-2.5
  0
LTYPE
  2
PHANTOM1
 70
    64
  3
--- - - --- - - --- - - --- - - 
 72
    65
 73
     6
 40
10.0
 49
3.25
 49
-1.25
 49
1.25
 49
-1.25
 49
1.25
 49
-1.25
  0
LTYPE
  2
PHANTOM2
 70
    64
  3
--------  -  -  --------  -  -  
 72
    65
 73
     6
 40
20.0
 49
10.0
 49
-2.5
 49
1.25
 49
-2.5
 49
1.25
 49
-2.5
  0
LTYPE
  2
DOT
 70
    64
  3
-   -   -   -   -   -   -   -   
 72
    65
 73
     2
 40
2.5
 49
0.625
 49
-1.875
  0
LTYPE
  2
DUMMY
 70
    64
  3
ダミー
 72
    65
 73
     0
 40
0.0
  0
LTYPE
  2
RAND1
 70
    64
  3
ランダム線1
 72
    65
 73
     4
 40
10.0
 49
1.0
 49
-2.0
 49
3.0
 49
-4.0
  0
LTYPE
  2
RAND2
 70
    64
  3
ランダム線2
 72
    65
 73
     4
 40
14.0
 49
2.0
 49
-3.0
 49
4.0
 49
-5.0
  0
LTYPE
  2
RAND3
 70
    64
  3
ランダム線3
 72
    65
 73
     4
 40
18.0
 49
3.0
 49
-4.0
 49
5.0
 49
-6.0
  0
LTYPE
  2
RAND4
 70
    64
  3
ランダム線4
 72
    65
 73
     4
 40
22.0
 49
4.0
 49
-5.0
 49
6.0
 49
-7.0
  0
LTYPE
  2
RAND5
 70
    64
  3
ランダム線5
 72
    65
 73
     4
 40
26.0
 49
5.0
 49
-6.0
 49
7.0
 49
-8.0
  0
LTYPE
  2
LONG1
 70
    64
  3
----------  --  ----------  --  
 72
    65
 73
     4
 40
40.0
 49
32.5
 49
-2.5
 49
2.5
 49
-2.5
  0
LTYPE
  2
LONG2
 70
    64
  3
--------  -  -  --------  -  -  
 72
    65
 73
     6
 40
40.0
 49
30.0
 49
-2.5
 49
1.25
 49
-2.5
 49
1.25
 49
-2.5
  0
LTYPE
  2
LONG3
 70
    64
  3
+++++++++++++++..+++++++++++++++
 72
    65
 73
     2
 40
40.0
 49
37.5
 49
-2.5
  0
LTYPE
  2
LONG4
 70
    64
  3
+++++++++++++++..+++++++++++++++
 72
    65
 73
     2
 40
80.0
 49
75.0
 49
-5.0
  0
LTYPE
  2
LONG5
 70
    64
  3
----------  --  ----------  --  
 72
    65
 73
     4
 40
60.0
 49
37.5
 49
-7.5
 49
7.5
 49
-7.5
  0
LTYPE
  2
dashed
 70
   64
  3
-------   -------------   ------
 72
   65
 73
    2
 40
7.5
 49
6
 49
-1.5
  0
LTYPE
  2
dashed_spaced
 70
   64
  3
----        --------        ----
 72
   65
 73
    2
 40
12
 49
6
 49
-6
  0
LTYPE
  2
long_dashed_dotted
 70
   64
  3
------------- --- --------------
 72
   65
 73
    4
 40
15.25
 49
12
 49
-1.5
 49
0.25
 49
-1.5
  0
LTYPE
  2
long_dashed_double-dotted
 70
   64
  3
----------- --- --- ------------
 72
   65
 73
    6
 40
17
 49
12
 49
-1.5
 49
0.25
 49
-1.5
 49
0.25
 49
-1.5
  0
LTYPE
  2
long_dashed_triplicate-dotted
 70
   64
  3
--------- --- --- --- ----------
 72
   65
 73
    8
 40
18.75
 49
12
 49
-1.5
 49
0.25
 49
-1.5
 49
0.25
 49
-1.5
 49
0.25
 49
-1.5
  0
LTYPE
  2
dotted
 70
   64
  3
   -       -       -       -    
 72
   65
 73
    2
 40
1.75
 49
0.25
 49
-1.5
  0
LTYPE
  2
chain
 70
   64
  3
-------------- -- --------------
 72
   65
 73
    4
 40
18.5
 49
12
 49
-1.5
 49
3.5
 49
-1.5
  0
LTYPE
  2
chain_double_dash
 70
   64
  3
------------ -- -- -------------
 72
   65
 73
    6
 40
23.5
 49
12
 49
-1.5
 49
3.5
 49
-1.5
 49
3.5
 49
-1.5
  0
LTYPE
  2
dashed_dotted
 70
   64
  3
-----------     -     ----------
 72
   65
 73
    4
 40
9.25
 49
6
 49
-1.5
 49
0.25
 49
-1.5
  0
LTYPE
  2
double-dashed_dotted
 70
   64
  3
------   -----------   -   -----
 72
   65
 73
    6
 40
16.75
 49
6
 49
-1.5
 49
6
 49
-1.5
 49
0.25
 49
-1.5
  0
LTYPE
  2
dashed_double-dotted
 70
   64
  3
---------    -    -    ---------
 72
   65
 73
    6
 40
11
 49
6
 49
-1.5
 49
0.25
 49
-1.5
 49
0.25
 49
-1.5
  0
LTYPE
  2
double-dashed_double-dotted
 70
   64
  3
-----   ---------   -   -   ----
 72
   65
 73
    8
 40
18.5
 49
6
 49
-1.5
 49
6
 49
-1.5
 49
0.25
 49
-1.5
 49
0.25
 49
-1.5
  0
LTYPE
  2
dashed_triplicate-dotted
 70
   64
  3
-------    -    -    -    ------
 72
   65
 73
    8
 40
12.75
 49
6
 49
-1.5
 49
0.25
 49
-1.5
 49
0.25
 49
-1.5
 49
0.25
 49
-1.5
  0
LTYPE
  2
double-dashed_triplicate-dotted
 70
   64
  3
-----  ---------  -  -  -  -----
 72
   65
 73
   10
 40
20.25
 49
6
 49
-1.5
 49
6
 49
-1.5
 49
0.25
 49
-1.5
 49
0.25
 49
-1.5
 49
0.25
 49
-1.5
  0
LTYPE
  2
undefined
 70
   64
  3
--------------------------------
 72
   65
 73
    0
 40
0
  0
ENDTAB
  0
TABLE
  2
STYLE
  5
3
100
AcDbSymbolTable
 70
     1
  0
STYLE
  5
10
100
AcDbSymbolTableRecord
100
AcDbTextStyleTableRecord
  2
STANDARD
 70
     0
 40
0.0
 41
1.0
 50
0.0
 71
     0
 42
0.2
  3
txt
  4
bigfont.shx
  0
STYLE
  5
26
100
AcDbSymbolTableRecord
100
AcDbTextStyleTableRecord
  2
TATEGAKI
 70
    68
 40
0.0
 41
1.0
 50
0.0
 71
     0
 42
1.0
  3
txt
  4
bigfont.shx
  0
ENDTAB
  0
TABLE
  2
LAYER
 70
   13
  0
LAYER
  2
_0-1_線色１__水色__
 70
   64
 62
    7
  6
CONTINUOUS
  0
LAYER
  2
_0-2_線色２__白__
 70
   64
 62
    7
  6
CONTINUOUS
  0
LAYER
  2
_0-3_線色３__緑__
 70
   64
 62
    7
  6
CONTINUOUS
  0
LAYER
  2
_0-4_線色４__黄__
 70
   64
 62
    7
  6
CONTINUOUS
  0
LAYER
  2
_0-5_金属
 70
   64
 62
    7
  6
CONTINUOUS
  0
LAYER
  2
_0-6_鋼板__アングル
 70
   64
 62
    7
  6
CONTINUOUS
  0
LAYER
  2
_0-7_ビス
 70
   64
 62
    7
  6
CONTINUOUS
  0
LAYER
  2
_0-a_文字
 70
   64
 62
    7
  6
CONTINUOUS
  0
LAYER
  2
_0-b_寸法
 70
   64
 62
    7
  6
CONTINUOUS
  0
LAYER
  2
_0-d_断熱__ハッチ
 70
   64
 62
    7
  6
CONTINUOUS
  0
LAYER
  2
_f-0_
 70
   64
 62
    7
  6
CONTINUOUS
  0
LAYER
  2
_f-f_
 70
   64
 62
    7
  6
CONTINUOUS
  0
LAYER
  2
ADD_LINE
 70
   64
 62
    7
  6
CONTINUOUS
  0
ENDTAB
  0
ENDSEC
  0
SECTION
  2
BLOCKS
  0
ENDSEC
  0
SECTION
  2
ENTITIES
  0
LINE
  8
_f-0_
  6
CONTINUOUS
 62
  136
 10
1714.9999999999989
 20
1192.5
 11
385
 21
1192.5
  0
LINE
  8
_f-0_
  6
CONTINUOUS
 62
  136
 10
385
 20
277.50000000000341
 11
1714.9999999999989
 21
277.50000000000341
  0
LINE
  8
_f-0_
  6
CONTINUOUS
 62
  136
 10
385
 20
1192.5
 11
385
 21
277.50000000000341
  0
LINE
  8
_f-0_
  6
CONTINUOUS
 62
  136
 10
1714.9999999999989
 20
1192.5
 11
1714.9999999999989
 21
277.50000000000341
  0
LINE
  8
_f-0_
  6
CONTINUOUS
 62
    6
 10
1714.9999999999989
 20
1152.5
 11
385
 21
1152.5
  0
LINE
  8
_f-f_
  6
CONTINUOUS
 62
    9
 10
310
 20
217.5
 11
310
 21
1267.5
  0
LINE
  8
_f-f_
  6
CONTINUOUS
 62
    9
 10
1790
 20
217.5
 11
310
 21
217.5
  0
LINE
  8
_f-f_
  6
CONTINUOUS
 62
    9
 10
1790
 20
1267.5
 11
310
 21
1267.5
  0
LINE
  8
_f-f_
  6
CONTINUOUS
 62
    9
 10
1790
 20
1267.5
 11
1790
 21
217.5
  0
LINE
  8
ADD_LINE
  6
DOT
 62
  136
 10
1764.9999999999989
 20
1242.5
 11
335
 21
1242.5
  0
LINE
  8
ADD_LINE
  6
DOT
 62
  136
 10
335
 20
242.50000000000227
 11
335
 21
1242.5
  0
LINE
  8
ADD_LINE
  6
DOT
 62
  136
 10
1765
 20
1242.5
 11
1765
 21
242.5
  0
LINE
  8
ADD_LINE
  6
DOT
 62
  136
 10
1765
 20
242.5
 11
335.00000000000114
 21
242.5
  0
TEXT
  8
_0-a_文字
 62
    7
 10
405
 20
287.50000000000313
 40
15.000000000000568
 41
0.9999999999999666
 50
0
  1
※ 本図面は防水納まりの参考図であり、下地等の構造を保証するものではありません
  0
TEXT
  8
_0-a_文字
 62
    7
 10
405
 20
307.50000000000313
 40
15.000000000000568
 41
0.9999999999999668
 50
0
  1
※ デッキ端部などの開口部には、必要に応じ遮炎性を満たす処理をお願いします（別途工事）
  0
TEXT
  8
_0-a_文字
 62
    7
 10
405
 20
327.50000000000313
 40
15.000000000000568
 41
0.9999999999999666
 50
0
  1
※ ラジアルシートＬ６００は、断熱材の種類がポリスチレンフォームの場合のみ使用
  0
LINE
  8
_0-5_金属
  6
CONTINUOUS
 62
    7
 10
957.2352746766768
 20
593.66656213499709
 11
957.2352746766768
 21
635.06656213499696
  0
LINE
  8
_0-5_金属
  6
CONTINUOUS
 62
    7
 10
959.53527467667925
 20
593.66656213499709
 11
959.53527467667925
 21
635.06656213499696
  0
ARC
  8
_0-5_金属
  6
CONTINUOUS
 62
    7
 10
863.83527467667761
 20
593.66656213499709
 40
4.2999999999999989
 50
180
 51
270
  0
LINE
  8
_0-5_金属
  6
CONTINUOUS
 62
    7
 10
863.83527467667761
 20
589.36656213499646
 11
879.53527467667698
 21
589.36656213499646
  0
LINE
  8
_0-5_金属
  6
CONTINUOUS
 62
    7
 10
859.53527467667698
 20
593.66656213499709
 11
859.53527467667698
 21
635.06656213499696
  0
ARC
  8
_0-5_金属
  6
CONTINUOUS
 62
    7
 10
863.83527467667761
 20
635.06656213499696
 40
4.2999999999999989
 50
90
 51
180
  0
LINE
  8
_0-5_金属
  6
CONTINUOUS
 62
    7
 10
863.83527467667761
 20
639.36656213499759
 11
955.23527467667861
 21
639.36656213499759
  0
ARC
  8
_0-5_金属
  6
CONTINUOUS
 62
    7
 10
955.23527467667861
 20
635.06656213499696
 40
4.2999999999999989
 50
0
 51
90
  0
ARC
  8
_0-5_金属
  6
CONTINUOUS
 62
    7
 10
955.23527467667861
 20
593.66656213499709
 40
4.2999999999999989
 50
270
 51
0
  0
LINE
  8
_0-5_金属
  6
CONTINUOUS
 62
    7
 10
955.23527467667861
 20
589.36656213499646
 11
939.53527467667698
 21
589.36656213499646
  0
ARC
  8
_0-5_金属
  6
CONTINUOUS
 62
    7
 10
955.23527467667861
 20
593.66656213499709
 40
2
 50
270
 51
0
  0
LINE
  8
_0-5_金属
  6
CONTINUOUS
 62
    7
 10
955.23527467667861
 20
591.66656213499664
 11
939.53527467667698
 21
591.66656213499664
  0
ARC
  8
_0-5_金属
  6
CONTINUOUS
 62
    7
 10
955.23527467667861
 20
635.06656213499696
 40
2
 50
0
 51
90.000000000000014
  0
LINE
  8
_0-5_金属
  6
CONTINUOUS
 62
    7
 10
955.23527467667861
 20
637.06656213499627
 11
863.83527467667761
 21
637.06656213499627
  0
ARC
  8
_0-5_金属
  6
CONTINUOUS
 62
    7
 10
863.83527467667761
 20
635.06656213499696
 40
2
 50
90
 51
180
  0
LINE
  8
_0-5_金属
  6
CONTINUOUS
 62
    7
 10
861.83527467667943
 20
635.06656213499696
 11
861.83527467667943
 21
593.66656213499709
  0
ARC
  8
_0-5_金属
  6
CONTINUOUS
 62
    7
 10
863.83527467667761
 20
593.66656213499709
 40
2
 50
180
 51
270
  0
LINE
  8
_0-5_金属
  6
CONTINUOUS
 62
    7
 10
863.83527467667761
 20
591.66656213499664
 11
879.53527467667698
 21
591.66656213499664
  0
LINE
  8
_0-5_金属
  6
CONTINUOUS
 62
    7
 10
957.2352746766768
 20
893.66656213499709
 11
957.2352746766768
 21
935.06656213499809
  0
ARC
  8
_0-5_金属
  6
CONTINUOUS
 62
    7
 10
863.83527467667761
 20
893.66656213499709
 40
4.2999999999999989
 50
180
 51
270
  0
LINE
  8
_0-5_金属
  6
CONTINUOUS
 62
    7
 10
863.83527467667761
 20
889.36656213499646
 11
879.53527467667698
 21
889.36656213499646
  0
LINE
  8
_0-5_金属
  6
CONTINUOUS
 62
    7
 10
859.53527467667698
 20
893.66656213499709
 11
859.53527467667698
 21
935.06656213499809
  0
ARC
  8
_0-5_金属
  6
CONTINUOUS
 62
    7
 10
863.83527467667761
 20
935.06656213499809
 40
4.2999999999999989
 50
90
 51
180
  0
ARC
  8
_0-5_金属
  6
CONTINUOUS
 62
    7
 10
955.23527467667861
 20
935.06656213499809
 40
4.2999999999999989
 50
0
 51
90
  0
ARC
  8
_0-5_金属
  6
CONTINUOUS
 62
    7
 10
955.23527467667861
 20
893.66656213499709
 40
4.2999999999999989
 50
270
 51
0
  0
LINE
  8
_0-5_金属
  6
CONTINUOUS
 62
    7
 10
955.23527467667861
 20
889.36656213499646
 11
939.53527467667698
 21
889.36656213499646
  0
ARC
  8
_0-5_金属
  6
CONTINUOUS
 62
    7
 10
955.23527467667861
 20
893.66656213499709
 40
2
 50
270
 51
0
  0
LINE
  8
_0-5_金属
  6
CONTINUOUS
 62
    7
 10
955.23527467667861
 20
891.66656213499664
 11
939.53527467667698
 21
891.66656213499664
  0
ARC
  8
_0-5_金属
  6
CONTINUOUS
 62
    7
 10
955.23527467667861
 20
935.06656213499809
 40
2
 50
0
 51
90.000000000000014
  0
ARC
  8
_0-5_金属
  6
CONTINUOUS
 62
    7
 10
863.83527467667761
 20
935.06656213499809
 40
2
 50
90
 51
180
  0
LINE
  8
_0-5_金属
  6
CONTINUOUS
 62
    7
 10
861.83527467667943
 20
935.06656213499809
 11
861.83527467667943
 21
893.66656213499709
  0
ARC
  8
_0-5_金属
  6
CONTINUOUS
 62
    7
 10
863.83527467667761
 20
893.66656213499709
 40
2
 50
180
 51
270
  0
LINE
  8
_0-5_金属
  6
CONTINUOUS
 62
    7
 10
863.83527467667761
 20
891.66656213499664
 11
879.53527467667698
 21
891.66656213499664
  0
LINE
  8
_0-5_金属
  6
CONTINUOUS
 62
    7
 10
939.53527467667698
 20
891.66656213499664
 11
939.53527467667698
 21
889.36656213499646
  0
LINE
  8
_0-5_金属
  6
CONTINUOUS
 62
    7
 10
879.53527467667698
 20
891.66656213499664
 11
879.53527467667698
 21
889.36656213499646
  0
LINE
  8
_0-5_金属
  6
CONTINUOUS
 62
    7
 10
939.53527467667698
 20
889.36656213499646
 11
939.53527467667698
 21
639.36656213499759
  0
LINE
  8
_0-5_金属
  6
CONTINUOUS
 62
    7
 10
879.53527467667698
 20
889.36656213499646
 11
879.53527467667698
 21
639.36656213499759
  0
LINE
  8
_0-5_金属
  6
CONTINUOUS
 62
    7
 10
955.23527467667861
 20
937.06656213499627
 11
863.83527467667761
 21
937.06656213499627
  0
LINE
  8
_0-5_金属
  6
CONTINUOUS
 62
    7
 10
863.83527467667761
 20
939.36656213499646
 11
955.23527467667861
 21
939.36656213499646
  0
LINE
  8
_0-5_金属
  6
CONTINUOUS
 62
    7
 10
859.53527467667698
 20
893.66656213499709
 11
859.53527467667698
 21
635.06656213499696
  0
LINE
  8
_0-2_線色２__白__
  6
CONTINUOUS
 62
    7
 10
959.53527467667925
 20
635.06656213499696
 11
959.53527467667925
 21
939.36656213499646
  0
LINE
  8
_0-5_金属
  6
CONTINUOUS
 62
    7
 10
959.53527467667698
 20
893.66656213499709
 11
959.53527467667698
 21
935.06656213499809
  0
LINE
  8
_0-5_金属
  6
CONTINUOUS
 62
    7
 10
879.53527467667698
 20
591.66656213499664
 11
879.53527467667698
 21
589.36656213499646
  0
LINE
  8
_0-5_金属
  6
CONTINUOUS
 62
    7
 10
939.53527467667698
 20
591.66656213499664
 11
939.53527467667698
 21
589.36656213499646
  0
LINE
  8
_0-2_線色２__白__
  6
CONTINUOUS
 62
    7
 10
824.53527467667698
 20
937.36656213499828
 11
859.53527467667698
 21
937.36656213499828
  0
LINE
  8
_0-d_断熱__ハッチ
  6
CONTINUOUS
 62
    4
 10
857.7917566522018
 20
937.36656213499828
 11
859.53527467667698
 21
939.11008015947345
  0
LINE
  8
_0-d_断熱__ハッチ
  6
CONTINUOUS
 62
    4
 10
854.25622274626846
 20
937.36656213499828
 11
856.25622274626892
 21
939.36656213499873
  0
LINE
  8
_0-d_断熱__ハッチ
  6
CONTINUOUS
 62
    4
 10
850.72068884033513
 20
937.36656213499828
 11
852.72068884033558
 21
939.36656213499873
  0
LINE
  8
_0-d_断熱__ハッチ
  6
CONTINUOUS
 62
    4
 10
847.18515493440179
 20
937.36656213500055
 11
849.18515493440225
 21
939.36656213499873
  0
LINE
  8
_0-d_断熱__ハッチ
  6
CONTINUOUS
 62
    4
 10
843.64962102847073
 20
937.36656213500055
 11
845.64962102846891
 21
939.36656213499873
  0
LINE
  8
_0-d_断熱__ハッチ
  6
CONTINUOUS
 62
    4
 10
840.11408712253512
 20
937.36656213499828
 11
842.11408712253558
 21
939.36656213499873
  0
LINE
  8
_0-d_断熱__ハッチ
  6
CONTINUOUS
 62
    4
 10
836.57855321660179
 20
937.36656213499828
 11
838.57855321660224
 21
939.36656213499873
  0
LINE
  8
_0-d_断熱__ハッチ
  6
CONTINUOUS
 62
    4
 10
833.04301931067982
 20
937.36656213499828
 11
835.04301931067801
 21
939.36656213499873
  0
LINE
  8
_0-d_断熱__ハッチ
  6
CONTINUOUS
 62
    4
 10
829.50748540474422
 20
937.36656213499828
 11
831.5074854047424
 21
939.36656213499418
  0
LINE
  8
_0-d_断熱__ハッチ
  6
CONTINUOUS
 62
    4
 10
825.97195149881316
 20
937.36656213500055
 11
827.97195149880906
 21
939.36656213499646
  0
LINE
  8
_0-2_線色２__白__
  6
CONTINUOUS
 62
    7
 10
959.53527467667925
 20
939.36656213499646
 11
977.5352746766788
 21
939.36656213499646
  0
LINE
  8
_0-2_線色２__白__
  6
CONTINUOUS
 62
    7
 10
977.5352746766788
 20
540.56656213499764
 11
977.5352746766788
 21
939.36656213499646
  0
LINE
  8
_0-d_断熱__ハッチ
  6
CONTINUOUS
 62
    4
 10
969.53161091218988
 20
540.5665621349965
 11
977.53527467668107
 21
548.5702258994877
  0
LINE
  8
_0-d_断熱__ハッチ
  6
CONTINUOUS
 62
    4
 10
960.73527467667816
 20
542.37682761728593
 11
977.5352746766788
 21
559.17682761728656
  0
LINE
  8
_0-d_断熱__ハッチ
  6
CONTINUOUS
 62
    4
 10
960.73527467667816
 20
552.98342933508138
 11
977.5352746766788
 21
569.78342933508088
  0
LINE
  8
_0-d_断熱__ハッチ
  6
CONTINUOUS
 62
    4
 10
960.73527467667816
 20
563.59003105287456
 11
977.5352746766788
 21
580.39003105287748
  0
LINE
  8
_0-d_断熱__ハッチ
  6
CONTINUOUS
 62
    4
 10
960.73527467667589
 20
574.19663277067457
 11
977.5352746766788
 21
590.99663277067748
  0
LINE
  8
_0-d_断熱__ハッチ
  6
CONTINUOUS
 62
    4
 10
960.73527467667816
 20
584.80323448847571
 11
977.53527467668107
 21
601.60323448847862
  0
LINE
  8
_0-d_断熱__ハッチ
  6
CONTINUOUS
 62
    4
 10
960.73527467667816
 20
595.40983620627685
 11
977.5352746766788
 21
612.20983620627749
  0
LINE
  8
_0-d_断熱__ハッチ
  6
CONTINUOUS
 62
    4
 10
960.73527467668043
 20
606.01643792407344
 11
977.5352746766788
 21
622.81643792407294
  0
LINE
  8
_0-d_断熱__ハッチ
  6
CONTINUOUS
 62
    4
 10
960.73527467667816
 20
616.62303964186776
 11
977.53527467668107
 21
633.4230396418684
  0
LINE
  8
_0-d_断熱__ハッチ
  6
CONTINUOUS
 62
    4
 10
960.73527467667816
 20
627.22964135966777
 11
977.5352746766788
 21
644.0296413596684
  0
LINE
  8
_0-d_断熱__ハッチ
  6
CONTINUOUS
 62
    4
 10
960.73527467667816
 20
637.83624307746777
 11
977.53527467668107
 21
654.63624307746954
  0
LINE
  8
_0-d_断熱__ハッチ
  6
CONTINUOUS
 62
    4
 10
959.53527467667925
 20
647.24284479526887
 11
977.5352746766788
 21
665.24284479526841
  0
LINE
  8
_0-d_断熱__ハッチ
  6
CONTINUOUS
 62
    4
 10
959.53527467667925
 20
657.84944651306319
 11
977.5352746766788
 21
675.84944651306387
  0
LINE
  8
_0-d_断熱__ハッチ
  6
CONTINUOUS
 62
    4
 10
959.53527467667925
 20
668.45604823085978
 11
977.53527467668107
 21
686.45604823085932
  0
LINE
  8
_0-d_断熱__ハッチ
  6
CONTINUOUS
 62
    4
 10
959.53527467667925
 20
679.06264994865978
 11
977.5352746766788
 21
697.06264994865933
  0
LINE
  8
_0-d_断熱__ハッチ
  6
CONTINUOUS
 62
    4
 10
959.53527467667698
 20
689.66925166645751
 11
977.53527467668107
 21
707.66925166645933
  0
LINE
  8
_0-d_断熱__ハッチ
  6
CONTINUOUS
 62
    4
 10
959.53527467667925
 20
700.27585338425979
 11
977.5352746766788
 21
718.27585338425934
  0
LINE
  8
_0-d_断熱__ハッチ
  6
CONTINUOUS
 62
    4
 10
959.53527467667925
 20
710.88245510205525
 11
977.5352746766788
 21
728.88245510205479
  0
LINE
  8
_0-d_断熱__ハッチ
  6
CONTINUOUS
 62
    4
 10
959.53527467667925
 20
721.4890568198507
 11
977.53527467668107
 21
739.48905681985252
  0
LINE
  8
_0-d_断熱__ハッチ
  6
CONTINUOUS
 62
    4
 10
959.53527467667925
 20
732.09565853765071
 11
977.5352746766788
 21
750.09565853765025
  0
LINE
  8
_0-d_断熱__ハッチ
  6
CONTINUOUS
 62
    4
 10
959.53527467667698
 20
742.70226025544844
 11
977.53527467668107
 21
760.70226025545253
  0
LINE
  8
_0-d_断熱__ハッチ
  6
CONTINUOUS
 62
    4
 10
959.53527467667925
 20
753.30886197325071
 11
977.5352746766788
 21
771.30886197325026
  0
LINE
  8
_0-d_断熱__ハッチ
  6
CONTINUOUS
 62
    4
 10
959.53527467667925
 20
763.91546369104617
 11
977.5352746766788
 21
781.91546369104572
  0
LINE
  8
_0-d_断熱__ハッチ
  6
CONTINUOUS
 62
    4
 10
959.53527467667925
 20
774.52206540884163
 11
977.53527467668107
 21
792.52206540884345
  0
LINE
  8
_0-d_断熱__ハッチ
  6
CONTINUOUS
 62
    4
 10
959.53527467667925
 20
785.12866712664163
 11
977.53527467668107
 21
803.12866712664118
  0
LINE
  8
_0-d_断熱__ハッチ
  6
CONTINUOUS
 62
    4
 10
959.53527467667925
 20
795.73526884443936
 11
977.53527467668107
 21
813.73526884444118
  0
LINE
  8
_0-d_断熱__ハッチ
  6
CONTINUOUS
 62
    4
 10
959.53527467667925
 20
806.34187056224164
 11
977.5352746766788
 21
824.34187056224118
  0
LINE
  8
_0-d_断熱__ハッチ
  6
CONTINUOUS
 62
    4
 10
959.53527467667925
 20
816.94847228003709
 11
977.53527467668107
 21
834.94847228003664
  0
LINE
  8
_0-d_断熱__ハッチ
  6
CONTINUOUS
 62
    4
 10
959.53527467667925
 20
827.55507399783255
 11
977.5352746766788
 21
845.5550739978321
  0
LINE
  8
_0-d_断熱__ハッチ
  6
CONTINUOUS
 62
    4
 10
959.53527467667925
 20
838.16167571563255
 11
977.53527467668107
 21
856.16167571563437
  0
LINE
  8
_0-d_断熱__ハッチ
  6
CONTINUOUS
 62
    4
 10
959.53527467667925
 20
848.76827743343028
 11
977.53527467668107
 21
866.7682774334321
  0
LINE
  8
_0-d_断熱__ハッチ
  6
CONTINUOUS
 62
    4
 10
959.53527467667925
 20
859.37487915123256
 11
977.5352746766788
 21
877.37487915123211
  0
LINE
  8
_0-d_断熱__ハッチ
  6
CONTINUOUS
 62
    4
 10
959.53527467668152
 20
869.98148086903484
 11
977.53527467668107
 21
887.98148086903439
  0
LINE
  8
_0-d_断熱__ハッチ
  6
CONTINUOUS
 62
    4
 10
959.53527467667925
 20
880.58808258682348
 11
977.5352746766788
 21
898.58808258682302
  0
LINE
  8
_0-d_断熱__ハッチ
  6
CONTINUOUS
 62
    4
 10
959.53527467667925
 20
891.19468430462348
 11
977.53527467668107
 21
909.1946843046253
  0
LINE
  8
_0-d_断熱__ハッチ
  6
CONTINUOUS
 62
    4
 10
959.53527467667925
 20
901.80128602242121
 11
977.53527467668107
 21
919.80128602242303
  0
LINE
  8
_0-d_断熱__ハッチ
  6
CONTINUOUS
 62
    4
 10
959.53527467667925
 20
912.40788774022349
 11
977.5352746766788
 21
930.40788774022303
  0
LINE
  8
_0-d_断熱__ハッチ
  6
CONTINUOUS
 62
    4
 10
959.53527467667925
 20
923.01448945802349
 11
975.88734735365449
 21
939.36656213499646
  0
LINE
  8
_0-d_断熱__ハッチ
  6
CONTINUOUS
 62
    4
 10
959.53527467667925
 20
933.6210911758144
 11
965.28074563586131
 21
939.36656213499646
  0
LINE
  8
_0-2_線色２__白__
  6
CONTINUOUS
 62
    7
 10
978.73527467667998
 20
910.56656213499764
 11
977.5352746766788
 21
908.48810116591494
  0
LINE
  8
_0-4_線色４__黄__
  6
CONTINUOUS
 62
    2
 10
983.73527467667998
 20
909.22681617284297
 11
982.53527467668107
 21
907.14835520376255
  0
LINE
  8
_0-4_線色４__黄__
  6
CONTINUOUS
 62
    2
 10
983.73527467667998
 20
942.56656213499582
 11
983.73527467667998
 21
909.22681617284297
  0
ARC
  8
_0-4_線色４__黄__
  6
CONTINUOUS
 62
    2
 10
980.73527467667816
 20
942.56656213499582
 40
3.0000000000000004
 50
0
 51
90
  0
LINE
  8
_0-d_断熱__ハッチ
  6
CONTINUOUS
 62
    4
 10
977.5352746766788
 20
549.26740623375736
 11
986.23611877543851
 21
540.56656213499764
  0
LINE
  8
_0-2_線色２__白__
  6
CONTINUOUS
 62
    7
 10
1160.7352746766783
 20
539.36656213499759
 11
1239.4525447766746
 21
539.36656213499759
  0
LINE
  8
_0-5_金属
  6
CONTINUOUS
 62
    7
 10
959.53527467667925
 20
893.66656213499709
 11
959.53527467667925
 21
635.06656213499696
  0
LINE
  8
_0-d_断熱__ハッチ
  6
CONTINUOUS
 62
    4
 10
980.72039002290637
 20
574.36656213499759
 11
1014.5203900229029
 21
540.56656213499991
  0
LINE
  8
_0-d_断熱__ハッチ
  6
CONTINUOUS
 62
    4
 10
1169.477377810369
 20
539.366562135001
 11
1204.4773778103645
 21
574.36656213499759
  0
LINE
  8
_0-d_断熱__ハッチ
  6
CONTINUOUS
 62
    4
 10
1142.3931065629104
 20
540.56656213499764
 11
1176.1931065629069
 21
574.36656213499759
  0
LINE
  8
_0-d_断熱__ハッチ
  6
CONTINUOUS
 62
    4
 10
1114.1088353154437
 20
540.56656213499878
 11
1147.9088353154402
 21
574.36656213499759
  0
LINE
  8
_0-d_断熱__ハッチ
  6
CONTINUOUS
 62
    4
 10
1085.8245640679838
 20
540.56656213499764
 11
1119.6245640679826
 21
574.36656213499759
  0
LINE
  8
_0-d_断熱__ハッチ
  6
CONTINUOUS
 62
    4
 10
1057.5402928205194
 20
540.56656213499878
 11
1091.340292820516
 21
574.36656213499759
  0
LINE
  8
_0-d_断熱__ハッチ
  6
CONTINUOUS
 62
    4
 10
1029.2560215730596
 20
540.56656213499764
 11
1063.0560215730584
 21
574.36656213499759
  0
LINE
  8
_0-d_断熱__ハッチ
  6
CONTINUOUS
 62
    4
 10
1000.9717503255951
 20
540.56656213499991
 11
1034.7717503255917
 21
574.36656213499759
  0
LINE
  8
_0-d_断熱__ハッチ
  6
CONTINUOUS
 62
    4
 10
977.5352746766788
 20
545.41435773354124
 11
1006.487479078134
 21
574.36656213499759
  0
LINE
  8
_0-d_断熱__ハッチ
  6
CONTINUOUS
 62
    4
 10
1009.0046612703617
 20
574.36656213499759
 11
1042.8046612703629
 21
540.56656213499764
  0
LINE
  8
_0-d_断熱__ハッチ
  6
CONTINUOUS
 62
    4
 10
1037.2889325178285
 20
574.36656213499759
 11
1071.0889325178296
 21
540.56656213499764
  0
LINE
  8
_0-d_断熱__ハッチ
  6
CONTINUOUS
 62
    4
 10
1065.5732037652861
 20
574.36656213499759
 11
1099.3732037652871
 21
540.56656213499764
  0
LINE
  8
_0-d_断熱__ハッチ
  6
CONTINUOUS
 62
    4
 10
1093.8574750127482
 20
574.36656213499759
 11
1127.6574750127493
 21
540.56656213499764
  0
LINE
  8
_0-d_断熱__ハッチ
  6
CONTINUOUS
 62
    4
 10
1122.1417462602103
 20
574.36656213499759
 11
1155.9417462602114
 21
540.56656213499764
  0
LINE
  8
_0-d_断熱__ハッチ
  6
CONTINUOUS
 62
    4
 10
1150.4260175076679
 20
574.36656213499759
 11
1185.4260175076724
 21
539.36656213499532
  0
LINE
  8
_0-d_断熱__ハッチ
  6
CONTINUOUS
 62
    4
 10
1178.7102887551346
 20
574.36656213499759
 11
1213.7102887551368
 21
539.36656213499646
  0
ARC
  8
_0-1_線色１__水色__
  6
CONTINUOUS
 62
    4
 10
1137.8872948169642
 20
577.82489547409568
 40
1.2083333333333581
 50
307.52351320333912
 51
232.47648680464988
  0
ARC
  8
_0-1_線色１__水色__
  6
CONTINUOUS
 62
    4
 10
1139.3592549614386
 20
575.9082288074967
 40
1.2083333333333177
 50
127.52351320610693
 51
52.47648680188081
  0
ARC
  8
_0-1_線色１__水色__
  6
CONTINUOUS
 62
    4
 10
1134.9433745282813
 20
577.82489547389105
 40
1.2083333333333581
 50
307.52351320333912
 51
232.47648680464988
  0
ARC
  8
_0-1_線色１__水色__
  6
CONTINUOUS
 62
    4
 10
1136.4153346727558
 20
575.90822880729093
 40
1.2083333333333177
 50
127.52351320610693
 51
52.47648680188081
  0
ARC
  8
_0-1_線色１__水色__
  6
CONTINUOUS
 62
    4
 10
1131.9994542395962
 20
577.82489547368641
 40
1.2083333333333581
 50
307.52351320333912
 51
232.47648680464988
  0
ARC
  8
_0-1_線色１__水色__
  6
CONTINUOUS
 62
    4
 10
1133.4714143840729
 20
575.90822880708629
 40
1.2083333333333177
 50
127.52351320610693
 51
52.47648680188081
  0
ARC
  8
_0-1_線色１__水色__
  6
CONTINUOUS
 62
    4
 10
1129.0555339509156
 20
577.82489547348064
 40
1.2083333333333581
 50
307.52351320333912
 51
232.47648680464988
  0
ARC
  8
_0-1_線色１__水色__
  6
CONTINUOUS
 62
    4
 10
1130.52749409539
 20
575.90822880688165
 40
1.2083333333333177
 50
127.52351320610693
 51
52.47648680188081
  0
ARC
  8
_0-1_線色１__水色__
  6
CONTINUOUS
 62
    4
 10
1164.3825774151146
 20
577.82489547409568
 40
1.2083333333333581
 50
307.52351320333912
 51
232.47648680464988
  0
ARC
  8
_0-1_線色１__水色__
  6
CONTINUOUS
 62
    4
 10
1165.8545375595913
 20
575.9082288074967
 40
1.2083333333333177
 50
127.52351320610693
 51
52.47648680188081
  0
ARC
  8
_0-1_線色１__水色__
  6
CONTINUOUS
 62
    4
 10
1161.4386571264295
 20
577.82489547389105
 40
1.2083333333333581
 50
307.52351320333912
 51
232.47648680464988
  0
ARC
  8
_0-1_線色１__水色__
  6
CONTINUOUS
 62
    4
 10
1162.9106172709062
 20
575.90822880729093
 40
1.2083333333333177
 50
127.52351320610693
 51
52.47648680188081
  0
ARC
  8
_0-1_線色１__水色__
  6
CONTINUOUS
 62
    4
 10
1158.4947368377489
 20
577.82489547368641
 40
1.2083333333333581
 50
307.52351320333912
 51
232.47648680464988
  0
ARC
  8
_0-1_線色１__水色__
  6
CONTINUOUS
 62
    4
 10
1159.9666969822233
 20
575.90822880708629
 40
1.2083333333333177
 50
127.52351320610693
 51
52.47648680188081
  0
ARC
  8
_0-1_線色１__水色__
  6
CONTINUOUS
 62
    4
 10
1155.5508165490637
 20
577.82489547348064
 40
1.2083333333333581
 50
307.52351320333912
 51
232.47648680464988
  0
ARC
  8
_0-1_線色１__水色__
  6
CONTINUOUS
 62
    4
 10
1157.0227766935404
 20
575.90822880688165
 40
1.2083333333333177
 50
127.52351320610693
 51
52.47648680188081
  0
ARC
  8
_0-1_線色１__水色__
  6
CONTINUOUS
 62
    4
 10
1152.6068962603808
 20
577.82489547327486
 40
1.2083333333333581
 50
307.52351320333912
 51
232.47648680464988
  0
ARC
  8
_0-1_線色１__水色__
  6
CONTINUOUS
 62
    4
 10
1154.0788564048553
 20
575.90822880667588
 40
1.2083333333333177
 50
127.52351320610693
 51
52.47648680188081
  0
ARC
  8
_0-1_線色１__水色__
  6
CONTINUOUS
 62
    4
 10
1149.662975971698
 20
577.82489547307023
 40
1.2083333333333581
 50
307.52351320333912
 51
232.47648680464988
  0
ARC
  8
_0-1_線色１__水色__
  6
CONTINUOUS
 62
    4
 10
1151.1349361161747
 20
575.90822880647011
 40
1.2083333333333177
 50
127.52351320610693
 51
52.47648680188081
  0
ARC
  8
_0-1_線色１__水色__
  6
CONTINUOUS
 62
    4
 10
1143.7751353943322
 20
577.82489547265982
 40
1.2083333333333581
 50
307.52351320333912
 51
232.47648680464988
  0
ARC
  8
_0-1_線色１__水色__
  6
CONTINUOUS
 62
    4
 10
1146.7190556830128
 20
577.82489547286559
 40
1.2083333333333581
 50
307.52351320333912
 51
232.47648680464988
  0
ARC
  8
_0-1_線色１__水色__
  6
CONTINUOUS
 62
    4
 10
1145.2470955388067
 20
575.90822880606083
 40
1.2083333333333177
 50
127.52351320610693
 51
52.47648680188081
  0
ARC
  8
_0-1_線色１__水色__
  6
CONTINUOUS
 62
    4
 10
1148.1910158274895
 20
575.90822880626547
 40
1.2083333333333177
 50
127.52351320610693
 51
52.47648680188081
  0
ARC
  8
_0-1_線色１__水色__
  6
CONTINUOUS
 62
    4
 10
1142.3031752501238
 20
575.90822880585506
 40
1.2083333333333177
 50
127.52351320610693
 51
52.47648680188081
  0
ARC
  8
_0-1_線色１__水色__
  6
CONTINUOUS
 62
    4
 10
1140.8312151056471
 20
577.82489547245405
 40
1.2083333333333581
 50
307.52351320333912
 51
232.47648680464988
  0
ARC
  8
_0-1_線色１__水色__
  6
CONTINUOUS
 62
    4
 10
1182.0460991472141
 20
577.82489547409568
 40
1.2083333333333581
 50
307.52351320333912
 51
232.47648680464988
  0
ARC
  8
_0-1_線色１__水色__
  6
CONTINUOUS
 62
    4
 10
1183.5180592916886
 20
575.9082288074967
 40
1.2083333333333177
 50
127.52351320610693
 51
52.47648680188081
  0
ARC
  8
_0-1_線色１__水色__
  6
CONTINUOUS
 62
    4
 10
1179.1021788585313
 20
577.82489547389105
 40
1.2083333333333581
 50
307.52351320333912
 51
232.47648680464988
  0
ARC
  8
_0-1_線色１__水色__
  6
CONTINUOUS
 62
    4
 10
1180.574139003008
 20
575.90822880729093
 40
1.2083333333333177
 50
127.52351320610693
 51
52.47648680188081
  0
ARC
  8
_0-1_線色１__水色__
  6
CONTINUOUS
 62
    4
 10
1176.1582585698484
 20
577.82489547368641
 40
1.2083333333333581
 50
307.52351320333912
 51
232.47648680464988
  0
ARC
  8
_0-1_線色１__水色__
  6
CONTINUOUS
 62
    4
 10
1177.6302187143228
 20
575.90822880708629
 40
1.2083333333333177
 50
127.52351320610693
 51
52.47648680188081
  0
ARC
  8
_0-1_線色１__水色__
  6
CONTINUOUS
 62
    4
 10
1173.2143382811655
 20
577.82489547348064
 40
1.2083333333333581
 50
307.52351320333912
 51
232.47648680464988
  0
ARC
  8
_0-1_線色１__水色__
  6
CONTINUOUS
 62
    4
 10
1174.68629842564
 20
575.90822880688165
 40
1.2083333333333177
 50
127.52351320610693
 51
52.47648680188081
  0
ARC
  8
_0-1_線色１__水色__
  6
CONTINUOUS
 62
    4
 10
1170.2704179924804
 20
577.82489547327486
 40
1.2083333333333581
 50
307.52351320333912
 51
232.47648680464988
  0
ARC
  8
_0-1_線色１__水色__
  6
CONTINUOUS
 62
    4
 10
1171.7423781369571
 20
575.90822880667588
 40
1.2083333333333177
 50
127.52351320610693
 51
52.47648680188081
  0
ARC
  8
_0-1_線色１__水色__
  6
CONTINUOUS
 62
    4
 10
1167.3264977037975
 20
577.82489547307023
 40
1.2083333333333581
 50
307.52351320333912
 51
232.47648680464988
  0
ARC
  8
_0-1_線色１__水色__
  6
CONTINUOUS
 62
    4
 10
1168.7984578482719
 20
575.90822880647011
 40
1.2083333333333177
 50
127.52351320610693
 51
52.47648680188081
  0
ARC
  8
_0-1_線色１__水色__
  6
CONTINUOUS
 62
    4
 10
1208.5413817453646
 20
577.82489547409568
 40
1.2083333333333581
 50
307.52351320333912
 51
232.47648680464988
  0
ARC
  8
_0-1_線色１__水色__
  6
CONTINUOUS
 62
    4
 10
1210.0133418898413
 20
575.9082288074967
 40
1.2083333333333177
 50
127.52351320610693
 51
52.47648680188081
  0
ARC
  8
_0-1_線色１__水色__
  6
CONTINUOUS
 62
    4
 10
1205.5974614566817
 20
577.82489547389105
 40
1.2083333333333581
 50
307.52351320333912
 51
232.47648680464988
  0
ARC
  8
_0-1_線色１__水色__
  6
CONTINUOUS
 62
    4
 10
1207.0694216011561
 20
575.90822880729093
 40
1.2083333333333177
 50
127.52351320610693
 51
52.47648680188081
  0
ARC
  8
_0-1_線色１__水色__
  6
CONTINUOUS
 62
    4
 10
1202.6535411679988
 20
577.82489547368641
 40
1.2083333333333581
 50
307.52351320333912
 51
232.47648680464988
  0
ARC
  8
_0-1_線色１__水色__
  6
CONTINUOUS
 62
    4
 10
1204.1255013124733
 20
575.90822880708629
 40
1.2083333333333177
 50
127.52351320610693
 51
52.47648680188081
  0
ARC
  8
_0-1_線色１__水色__
  6
CONTINUOUS
 62
    4
 10
1199.7096208793137
 20
577.82489547348064
 40
1.2083333333333581
 50
307.52351320333912
 51
232.47648680464988
  0
ARC
  8
_0-1_線色１__水色__
  6
CONTINUOUS
 62
    4
 10
1201.1815810237904
 20
575.90822880688165
 40
1.2083333333333177
 50
127.52351320610693
 51
52.47648680188081
  0
ARC
  8
_0-1_線色１__水色__
  6
CONTINUOUS
 62
    4
 10
1196.7657005906308
 20
577.82489547327486
 40
1.2083333333333581
 50
307.52351320333912
 51
232.47648680464988
  0
ARC
  8
_0-1_線色１__水色__
  6
CONTINUOUS
 62
    4
 10
1198.2376607351052
 20
575.90822880667588
 40
1.2083333333333177
 50
127.52351320610693
 51
52.47648680188081
  0
ARC
  8
_0-1_線色１__水色__
  6
CONTINUOUS
 62
    4
 10
1193.8217803019479
 20
577.82489547307023
 40
1.2083333333333581
 50
307.52351320333912
 51
232.47648680464988
  0
ARC
  8
_0-1_線色１__水色__
  6
CONTINUOUS
 62
    4
 10
1195.2937404464246
 20
575.90822880647011
 40
1.2083333333333177
 50
127.52351320610693
 51
52.47648680188081
  0
ARC
  8
_0-1_線色１__水色__
  6
CONTINUOUS
 62
    4
 10
1187.9339397245822
 20
577.82489547265982
 40
1.2083333333333581
 50
307.52351320333912
 51
232.47648680464988
  0
ARC
  8
_0-1_線色１__水色__
  6
CONTINUOUS
 62
    4
 10
1190.877860013265
 20
577.82489547286559
 40
1.2083333333333581
 50
307.52351320333912
 51
232.47648680464988
  0
ARC
  8
_0-1_線色１__水色__
  6
CONTINUOUS
 62
    4
 10
1189.4058998690566
 20
575.90822880606083
 40
1.2083333333333177
 50
127.52351320610693
 51
52.47648680188081
  0
ARC
  8
_0-1_線色１__水色__
  6
CONTINUOUS
 62
    4
 10
1192.3498201577395
 20
575.90822880626547
 40
1.2083333333333177
 50
127.52351320610693
 51
52.47648680188081
  0
ARC
  8
_0-1_線色１__水色__
  6
CONTINUOUS
 62
    4
 10
1186.4619795803737
 20
575.90822880585506
 40
1.2083333333333177
 50
127.52351320610693
 51
52.47648680188081
  0
ARC
  8
_0-1_線色１__水色__
  6
CONTINUOUS
 62
    4
 10
1184.990019435897
 20
577.82489547245405
 40
1.2083333333333581
 50
307.52351320333912
 51
232.47648680464988
  0
ARC
  8
_0-1_線色１__水色__
  6
CONTINUOUS
 62
    4
 10
1229.148823766147
 20
577.82489547368641
 40
1.2083333333333581
 50
307.52351320333912
 51
232.47648680464988
  0
ARC
  8
_0-1_線色１__水色__
  6
CONTINUOUS
 62
    4
 10
1230.6207839106237
 20
575.90822880708629
 40
1.2083333333333177
 50
127.52351320610693
 51
52.47648680188081
  0
ARC
  8
_0-1_線色１__水色__
  6
CONTINUOUS
 62
    4
 10
1226.2049034774664
 20
577.82489547348064
 40
1.2083333333333581
 50
307.52351320333912
 51
232.47648680464988
  0
ARC
  8
_0-1_線色１__水色__
  6
CONTINUOUS
 62
    4
 10
1227.6768636219385
 20
575.90822880688165
 40
1.2083333333333177
 50
127.52351320610693
 51
52.47648680188081
  0
ARC
  8
_0-1_線色１__水色__
  6
CONTINUOUS
 62
    4
 10
1223.2609831887812
 20
577.82489547327486
 40
1.2083333333333581
 50
307.52351320333912
 51
232.47648680464988
  0
ARC
  8
_0-1_線色１__水色__
  6
CONTINUOUS
 62
    4
 10
1224.7329433332579
 20
575.90822880667588
 40
1.2083333333333177
 50
127.52351320610693
 51
52.47648680188081
  0
ARC
  8
_0-1_線色１__水色__
  6
CONTINUOUS
 62
    4
 10
1220.3170629000983
 20
577.82489547307023
 40
1.2083333333333581
 50
307.52351320333912
 51
232.47648680464988
  0
ARC
  8
_0-1_線色１__水色__
  6
CONTINUOUS
 62
    4
 10
1221.7890230445728
 20
575.90822880647011
 40
1.2083333333333177
 50
127.52351320610693
 51
52.47648680188081
  0
ARC
  8
_0-1_線色１__水色__
  6
CONTINUOUS
 62
    4
 10
1214.4292223227303
 20
577.82489547265982
 40
1.2083333333333581
 50
307.52351320333912
 51
232.47648680464988
  0
ARC
  8
_0-1_線色１__水色__
  6
CONTINUOUS
 62
    4
 10
1217.3731426114155
 20
577.82489547286559
 40
1.2083333333333581
 50
307.52351320333912
 51
232.47648680464988
  0
ARC
  8
_0-1_線色１__水色__
  6
CONTINUOUS
 62
    4
 10
1215.901182467207
 20
575.90822880606083
 40
1.2083333333333177
 50
127.52351320610693
 51
52.47648680188081
  0
ARC
  8
_0-1_線色１__水色__
  6
CONTINUOUS
 62
    4
 10
1218.8451027558899
 20
575.90822880626547
 40
1.2083333333333177
 50
127.52351320610693
 51
52.47648680188081
  0
ARC
  8
_0-1_線色１__水色__
  6
CONTINUOUS
 62
    4
 10
1212.9572621785219
 20
575.90822880585506
 40
1.2083333333333177
 50
127.52351320610693
 51
52.47648680188081
  0
ARC
  8
_0-1_線色１__水色__
  6
CONTINUOUS
 62
    4
 10
1211.4853020340497
 20
577.82489547245405
 40
1.2083333333333581
 50
307.52351320333912
 51
232.47648680464988
  0
ARC
  8
_0-1_線色１__水色__
  6
CONTINUOUS
 62
    4
 10
1108.4480919301536
 20
577.82489547387286
 40
1.2083333333333581
 50
307.52351320333912
 51
232.47648680464988
  0
ARC
  8
_0-1_線色１__水色__
  6
CONTINUOUS
 62
    4
 10
1109.9200520746281
 20
575.90822880727387
 40
1.2083333333333177
 50
127.52351320610693
 51
52.47648680188081
  0
ARC
  8
_0-1_線色１__水色__
  6
CONTINUOUS
 62
    4
 10
1105.5041716414707
 20
577.82489547366822
 40
1.2083333333333581
 50
307.52351320333912
 51
232.47648680464988
  0
ARC
  8
_0-1_線色１__水色__
  6
CONTINUOUS
 62
    4
 10
1106.9761317859452
 20
575.9082288070681
 40
1.2083333333333177
 50
127.52351320610693
 51
52.47648680188081
  0
ARC
  8
_0-1_線色１__水色__
  6
CONTINUOUS
 62
    4
 10
1102.5602513527856
 20
577.82489547346245
 40
1.2083333333333581
 50
307.52351320333912
 51
232.47648680464988
  0
ARC
  8
_0-1_線色１__水色__
  6
CONTINUOUS
 62
    4
 10
1104.0322114972623
 20
575.90822880686346
 40
1.2083333333333177
 50
127.52351320610693
 51
52.47648680188081
  0
ARC
  8
_0-1_線色１__水色__
  6
CONTINUOUS
 62
    4
 10
1099.616331064105
 20
577.82489547325781
 40
1.2083333333333581
 50
307.52351320333912
 51
232.47648680464988
  0
ARC
  8
_0-1_線色１__水色__
  6
CONTINUOUS
 62
    4
 10
1101.0882912085772
 20
575.90822880665769
 40
1.2083333333333177
 50
127.52351320610693
 51
52.47648680188081
  0
ARC
  8
_0-1_線色１__水色__
  6
CONTINUOUS
 62
    4
 10
1126.1116136622531
 20
577.82489547325781
 40
1.2083333333333581
 50
307.52351320333912
 51
232.47648680464988
  0
ARC
  8
_0-1_線色１__水色__
  6
CONTINUOUS
 62
    4
 10
1127.5835738067299
 20
575.90822880665769
 40
1.2083333333333177
 50
127.52351320610693
 51
52.47648680188081
  0
ARC
  8
_0-1_線色１__水色__
  6
CONTINUOUS
 62
    4
 10
1123.1676933735703
 20
577.82489547305204
 40
1.2083333333333581
 50
307.52351320333912
 51
232.47648680464988
  0
ARC
  8
_0-1_線色１__水色__
  6
CONTINUOUS
 62
    4
 10
1124.6396535180447
 20
575.90822880645305
 40
1.2083333333333177
 50
127.52351320610693
 51
52.47648680188081
  0
ARC
  8
_0-1_線色１__水色__
  6
CONTINUOUS
 62
    4
 10
1120.2237730848874
 20
577.8248954728474
 40
1.2083333333333581
 50
307.52351320333912
 51
232.47648680464988
  0
ARC
  8
_0-1_線色１__水色__
  6
CONTINUOUS
 62
    4
 10
1121.6957332293641
 20
575.90822880624728
 40
1.2083333333333177
 50
127.52351320610693
 51
52.47648680188081
  0
ARC
  8
_0-1_線色１__水色__
  6
CONTINUOUS
 62
    4
 10
1114.3359325075216
 20
577.82489547243699
 40
1.2083333333333581
 50
307.52351320333912
 51
232.47648680464988
  0
ARC
  8
_0-1_線色１__水色__
  6
CONTINUOUS
 62
    4
 10
1117.2798527962022
 20
577.82489547264163
 40
1.2083333333333581
 50
307.52351320333912
 51
232.47648680464988
  0
ARC
  8
_0-1_線色１__水色__
  6
CONTINUOUS
 62
    4
 10
1115.8078926519938
 20
575.90822880583687
 40
1.2083333333333177
 50
127.52351320610693
 51
52.47648680188081
  0
ARC
  8
_0-1_線色１__水色__
  6
CONTINUOUS
 62
    4
 10
1118.751812940679
 20
575.90822880604264
 40
1.2083333333333177
 50
127.52351320610693
 51
52.47648680188081
  0
ARC
  8
_0-1_線色１__水色__
  6
CONTINUOUS
 62
    4
 10
1112.8639723633132
 20
575.90822880563223
 40
1.2083333333333177
 50
127.52351320610693
 51
52.47648680188081
  0
ARC
  8
_0-1_線色１__水色__
  6
CONTINUOUS
 62
    4
 10
1111.3920122188365
 20
577.82489547223122
 40
1.2083333333333581
 50
307.52351320333912
 51
232.47648680464988
  0
ARC
  8
_0-1_線色１__水色__
  6
CONTINUOUS
 62
    4
 10
1079.0088890433431
 20
577.82489547365003
 40
1.2083333333333581
 50
307.52351320333912
 51
232.47648680464988
  0
ARC
  8
_0-1_線色１__水色__
  6
CONTINUOUS
 62
    4
 10
1080.4808491878175
 20
575.90822880704991
 40
1.2083333333333177
 50
127.52351320610693
 51
52.47648680188081
  0
ARC
  8
_0-1_線色１__水色__
  6
CONTINUOUS
 62
    4
 10
1076.0649687546602
 20
577.82489547344539
 40
1.2083333333333581
 50
307.52351320333912
 51
232.47648680464988
  0
ARC
  8
_0-1_線色１__水色__
  6
CONTINUOUS
 62
    4
 10
1077.5369288991346
 20
575.90822880684527
 40
1.2083333333333177
 50
127.52351320610693
 51
52.47648680188081
  0
ARC
  8
_0-1_線色１__水色__
  6
CONTINUOUS
 62
    4
 10
1073.121048465975
 20
577.82489547323962
 40
1.2083333333333581
 50
307.52351320333912
 51
232.47648680464988
  0
ARC
  8
_0-1_線色１__水色__
  6
CONTINUOUS
 62
    4
 10
1074.5930086104518
 20
575.90822880664064
 40
1.2083333333333177
 50
127.52351320610693
 51
52.47648680188081
  0
ARC
  8
_0-1_線色１__水色__
  6
CONTINUOUS
 62
    4
 10
1070.1771281772944
 20
577.82489547303385
 40
1.2083333333333581
 50
307.52351320333912
 51
232.47648680464988
  0
ARC
  8
_0-1_線色１__水色__
  6
CONTINUOUS
 62
    4
 10
1071.6490883217666
 20
575.90822880643486
 40
1.2083333333333177
 50
127.52351320610693
 51
52.47648680188081
  0
ARC
  8
_0-1_線色１__水色__
  6
CONTINUOUS
 62
    4
 10
1096.6724107754426
 20
577.82489547303385
 40
1.2083333333333581
 50
307.52351320333912
 51
232.47648680464988
  0
ARC
  8
_0-1_線色１__水色__
  6
CONTINUOUS
 62
    4
 10
1098.1443709199193
 20
575.90822880643486
 40
1.2083333333333177
 50
127.52351320610693
 51
52.47648680188081
  0
ARC
  8
_0-1_線色１__水色__
  6
CONTINUOUS
 62
    4
 10
1093.7284904867597
 20
577.82489547282921
 40
1.2083333333333581
 50
307.52351320333912
 51
232.47648680464988
  0
ARC
  8
_0-1_線色１__水色__
  6
CONTINUOUS
 62
    4
 10
1095.2004506312342
 20
575.90822880622909
 40
1.2083333333333177
 50
127.52351320610693
 51
52.47648680188081
  0
ARC
  8
_0-1_線色１__水色__
  6
CONTINUOUS
 62
    4
 10
1090.7845701980768
 20
577.82489547262458
 40
1.2083333333333581
 50
307.52351320333912
 51
232.47648680464988
  0
ARC
  8
_0-1_線色１__水色__
  6
CONTINUOUS
 62
    4
 10
1092.2565303425513
 20
575.90822880602445
 40
1.2083333333333177
 50
127.52351320610693
 51
52.47648680188081
  0
ARC
  8
_0-1_線色１__水色__
  6
CONTINUOUS
 62
    4
 10
1084.8967296207111
 20
577.82489547221303
 40
1.2083333333333581
 50
307.52351320333912
 51
232.47648680464988
  0
ARC
  8
_0-1_線色１__水色__
  6
CONTINUOUS
 62
    4
 10
1087.8406499093917
 20
577.8248954724188
 40
1.2083333333333581
 50
307.52351320333912
 51
232.47648680464988
  0
ARC
  8
_0-1_線色１__水色__
  6
CONTINUOUS
 62
    4
 10
1086.3686897651833
 20
575.90822880561404
 40
1.2083333333333177
 50
127.52351320610693
 51
52.47648680188081
  0
ARC
  8
_0-1_線色１__水色__
  6
CONTINUOUS
 62
    4
 10
1089.3126100538684
 20
575.90822880581982
 40
1.2083333333333177
 50
127.52351320610693
 51
52.47648680188081
  0
ARC
  8
_0-1_線色１__水色__
  6
CONTINUOUS
 62
    4
 10
1083.4247694765027
 20
575.90822880540827
 40
1.2083333333333177
 50
127.52351320610693
 51
52.47648680188081
  0
ARC
  8
_0-1_線色１__水色__
  6
CONTINUOUS
 62
    4
 10
1081.9528093320259
 20
577.82489547200839
 40
1.2083333333333581
 50
307.52351320333912
 51
232.47648680464988
  0
ARC
  8
_0-1_線色１__水色__
  6
CONTINUOUS
 62
    4
 10
1049.5696861565302
 20
577.8248954734272
 40
1.2083333333333581
 50
307.52351320333912
 51
232.47648680464988
  0
ARC
  8
_0-1_線色１__水色__
  6
CONTINUOUS
 62
    4
 10
1051.0416463010069
 20
575.90822880682708
 40
1.2083333333333177
 50
127.52351320610693
 51
52.47648680188081
  0
ARC
  8
_0-1_線色１__水色__
  6
CONTINUOUS
 62
    4
 10
1046.6257658678496
 20
577.82489547322143
 40
1.2083333333333581
 50
307.52351320333912
 51
232.47648680464988
  0
ARC
  8
_0-1_線色１__水色__
  6
CONTINUOUS
 62
    4
 10
1048.0977260123241
 20
575.90822880662245
 40
1.2083333333333177
 50
127.52351320610693
 51
52.47648680188081
  0
ARC
  8
_0-1_線色１__水色__
  6
CONTINUOUS
 62
    4
 10
1043.6818455791645
 20
577.8248954730168
 40
1.2083333333333581
 50
307.52351320333912
 51
232.47648680464988
  0
ARC
  8
_0-1_線色１__水色__
  6
CONTINUOUS
 62
    4
 10
1045.1538057236412
 20
575.90822880641667
 40
1.2083333333333177
 50
127.52351320610693
 51
52.47648680188081
  0
ARC
  8
_0-1_線色１__水色__
  6
CONTINUOUS
 62
    4
 10
1040.7379252904839
 20
577.82489547281102
 40
1.2083333333333581
 50
307.52351320333912
 51
232.47648680464988
  0
ARC
  8
_0-1_線色１__水色__
  6
CONTINUOUS
 62
    4
 10
1042.209885434956
 20
575.90822880621204
 40
1.2083333333333177
 50
127.52351320610693
 51
52.47648680188081
  0
ARC
  8
_0-1_線色１__水色__
  6
CONTINUOUS
 62
    4
 10
1067.233207888632
 20
577.82489547281102
 40
1.2083333333333581
 50
307.52351320333912
 51
232.47648680464988
  0
ARC
  8
_0-1_線色１__水色__
  6
CONTINUOUS
 62
    4
 10
1068.7051680331087
 20
575.90822880621204
 40
1.2083333333333177
 50
127.52351320610693
 51
52.47648680188081
  0
ARC
  8
_0-1_線色１__水色__
  6
CONTINUOUS
 62
    4
 10
1064.2892875999491
 20
577.82489547260639
 40
1.2083333333333581
 50
307.52351320333912
 51
232.47648680464988
  0
ARC
  8
_0-1_線色１__水色__
  6
CONTINUOUS
 62
    4
 10
1065.7612477444236
 20
575.90822880600626
 40
1.2083333333333177
 50
127.52351320610693
 51
52.47648680188081
  0
ARC
  8
_0-1_線色１__水色__
  6
CONTINUOUS
 62
    4
 10
1061.3453673112663
 20
577.82489547240061
 40
1.2083333333333581
 50
307.52351320333912
 51
232.47648680464988
  0
ARC
  8
_0-1_線色１__水色__
  6
CONTINUOUS
 62
    4
 10
1062.8173274557407
 20
575.90822880580163
 40
1.2083333333333177
 50
127.52351320610693
 51
52.47648680188081
  0
ARC
  8
_0-1_線色１__水色__
  6
CONTINUOUS
 62
    4
 10
1055.4575267339005
 20
577.8248954719902
 40
1.2083333333333581
 50
307.52351320333912
 51
232.47648680464988
  0
ARC
  8
_0-1_線色１__水色__
  6
CONTINUOUS
 62
    4
 10
1058.4014470225811
 20
577.82489547219598
 40
1.2083333333333581
 50
307.52351320333912
 51
232.47648680464988
  0
ARC
  8
_0-1_線色１__水色__
  6
CONTINUOUS
 62
    4
 10
1056.9294868783727
 20
575.90822880539122
 40
1.2083333333333177
 50
127.52351320610693
 51
52.47648680188081
  0
ARC
  8
_0-1_線色１__水色__
  6
CONTINUOUS
 62
    4
 10
1059.8734071670578
 20
575.90822880559585
 40
1.2083333333333177
 50
127.52351320610693
 51
52.47648680188081
  0
ARC
  8
_0-1_線色１__水色__
  6
CONTINUOUS
 62
    4
 10
1053.9855665896921
 20
575.90822880518544
 40
1.2083333333333177
 50
127.52351320610693
 51
52.47648680188081
  0
ARC
  8
_0-1_線色１__水色__
  6
CONTINUOUS
 62
    4
 10
1052.5136064452154
 20
577.82489547178557
 40
1.2083333333333581
 50
307.52351320333912
 51
232.47648680464988
  0
ARC
  8
_0-1_線色１__水色__
  6
CONTINUOUS
 62
    4
 10
1020.1304832697195
 20
577.82489547320438
 40
1.2083333333333581
 50
307.52351320333912
 51
232.47648680464988
  0
ARC
  8
_0-1_線色１__水色__
  6
CONTINUOUS
 62
    4
 10
1021.6024434141963
 20
575.90822880660426
 40
1.2083333333333177
 50
127.52351320610693
 51
52.47648680188081
  0
ARC
  8
_0-1_線色１__水色__
  6
CONTINUOUS
 62
    4
 10
1017.1865629810389
 20
577.82489547299861
 40
1.2083333333333581
 50
307.52351320333912
 51
232.47648680464988
  0
ARC
  8
_0-1_線色１__水色__
  6
CONTINUOUS
 62
    4
 10
1018.6585231255134
 20
575.90822880639962
 40
1.2083333333333177
 50
127.52351320610693
 51
52.47648680188081
  0
ARC
  8
_0-1_線色１__水色__
  6
CONTINUOUS
 62
    4
 10
1014.2426426923538
 20
577.82489547279283
 40
1.2083333333333581
 50
307.52351320333912
 51
232.47648680464988
  0
ARC
  8
_0-1_線色１__水色__
  6
CONTINUOUS
 62
    4
 10
1015.7146028368305
 20
575.90822880619385
 40
1.2083333333333177
 50
127.52351320610693
 51
52.47648680188081
  0
ARC
  8
_0-1_線色１__水色__
  6
CONTINUOUS
 62
    4
 10
1011.2987224036709
 20
577.8248954725882
 40
1.2083333333333581
 50
307.52351320333912
 51
232.47648680464988
  0
ARC
  8
_0-1_線色１__水色__
  6
CONTINUOUS
 62
    4
 10
1012.7706825481454
 20
575.90822880598807
 40
1.2083333333333177
 50
127.52351320610693
 51
52.47648680188081
  0
ARC
  8
_0-1_線色１__水色__
  6
CONTINUOUS
 62
    4
 10
1037.7940050018215
 20
577.8248954725882
 40
1.2083333333333581
 50
307.52351320333912
 51
232.47648680464988
  0
ARC
  8
_0-1_線色１__水色__
  6
CONTINUOUS
 62
    4
 10
1039.2659651462982
 20
575.90822880598807
 40
1.2083333333333177
 50
127.52351320610693
 51
52.47648680188081
  0
ARC
  8
_0-1_線色１__水色__
  6
CONTINUOUS
 62
    4
 10
1034.8500847131386
 20
577.82489547238356
 40
1.2083333333333581
 50
307.52351320333912
 51
232.47648680464988
  0
ARC
  8
_0-1_線色１__水色__
  6
CONTINUOUS
 62
    4
 10
1036.322044857613
 20
575.90822880578344
 40
1.2083333333333177
 50
127.52351320610693
 51
52.47648680188081
  0
ARC
  8
_0-1_線色１__水色__
  6
CONTINUOUS
 62
    4
 10
1031.9061644244557
 20
577.82489547217779
 40
1.2083333333333581
 50
307.52351320333912
 51
232.47648680464988
  0
ARC
  8
_0-1_線色１__水色__
  6
CONTINUOUS
 62
    4
 10
1033.3781245689302
 20
575.9082288055788
 40
1.2083333333333177
 50
127.52351320610693
 51
52.47648680188081
  0
ARC
  8
_0-1_線色１__水色__
  6
CONTINUOUS
 62
    4
 10
1026.01832384709
 20
577.82489547176738
 40
1.2083333333333581
 50
307.52351320333912
 51
232.47648680464988
  0
ARC
  8
_0-1_線色１__水色__
  6
CONTINUOUS
 62
    4
 10
1028.9622441357706
 20
577.82489547197201
 40
1.2083333333333581
 50
307.52351320333912
 51
232.47648680464988
  0
ARC
  8
_0-1_線色１__水色__
  6
CONTINUOUS
 62
    4
 10
1027.4902839915621
 20
575.90822880516725
 40
1.2083333333333177
 50
127.52351320610693
 51
52.47648680188081
  0
ARC
  8
_0-1_線色１__水色__
  6
CONTINUOUS
 62
    4
 10
1030.4342042802473
 20
575.90822880537303
 40
1.2083333333333177
 50
127.52351320610693
 51
52.47648680188081
  0
ARC
  8
_0-1_線色１__水色__
  6
CONTINUOUS
 62
    4
 10
1024.5463637028815
 20
575.90822880496262
 40
1.2083333333333177
 50
127.52351320610693
 51
52.47648680188081
  0
ARC
  8
_0-1_線色１__水色__
  6
CONTINUOUS
 62
    4
 10
1023.0744035584047
 20
577.82489547156274
 40
1.2083333333333581
 50
307.52351320333912
 51
232.47648680464988
  0
ARC
  8
_0-1_線色１__水色__
  6
CONTINUOUS
 62
    4
 10
990.69128038291126
 20
577.82489547298042
 40
1.2083333333333581
 50
307.52351320333912
 51
232.47648680464988
  0
ARC
  8
_0-1_線色１__水色__
  6
CONTINUOUS
 62
    4
 10
992.16324052738571
 20
575.90822880638143
 40
1.2083333333333177
 50
127.52351320610693
 51
52.47648680188081
  0
ARC
  8
_0-1_線色１__水色__
  6
CONTINUOUS
 62
    4
 10
987.74736009422838
 20
577.82489547277578
 40
1.2083333333333581
 50
307.52351320333912
 51
232.47648680464988
  0
ARC
  8
_0-1_線色１__水色__
  6
CONTINUOUS
 62
    4
 10
989.21932023870284
 20
575.90822880617566
 40
1.2083333333333177
 50
127.52351320610693
 51
52.47648680188081
  0
ARC
  8
_0-1_線色１__水色__
  6
CONTINUOUS
 62
    4
 10
986.27539995001996
 20
575.90822880597102
 40
1.2083333333333177
 50
127.52351320610693
 51
52.47648680188081
  0
ARC
  8
_0-1_線色１__水色__
  6
CONTINUOUS
 62
    4
 10
1008.3548021150108
 20
577.82489547236537
 40
1.2083333333333581
 50
307.52351320333912
 51
232.47648680464988
  0
ARC
  8
_0-1_線色１__水色__
  6
CONTINUOUS
 62
    4
 10
1009.8267622594875
 20
575.90822880576525
 40
1.2083333333333177
 50
127.52351320610693
 51
52.47648680188081
  0
ARC
  8
_0-1_線色１__水色__
  6
CONTINUOUS
 62
    4
 10
1005.4108818263256
 20
577.8248954721596
 40
1.2083333333333581
 50
307.52351320333912
 51
232.47648680464988
  0
ARC
  8
_0-1_線色１__水色__
  6
CONTINUOUS
 62
    4
 10
1006.8828419708024
 20
575.90822880556061
 40
1.2083333333333177
 50
127.52351320610693
 51
52.47648680188081
  0
ARC
  8
_0-1_線色１__水色__
  6
CONTINUOUS
 62
    4
 10
1002.466961537645
 20
577.82489547195496
 40
1.2083333333333581
 50
307.52351320333912
 51
232.47648680464988
  0
ARC
  8
_0-1_線色１__水色__
  6
CONTINUOUS
 62
    4
 10
1003.9389216821195
 20
575.90822880535484
 40
1.2083333333333177
 50
127.52351320610693
 51
52.47648680188081
  0
ARC
  8
_0-1_線色１__水色__
  6
CONTINUOUS
 62
    4
 10
996.57912096027928
 20
577.82489547154455
 40
1.2083333333333581
 50
307.52351320333912
 51
232.47648680464988
  0
ARC
  8
_0-1_線色１__水色__
  6
CONTINUOUS
 62
    4
 10
999.52304124895988
 20
577.82489547174919
 40
1.2083333333333581
 50
307.52351320333912
 51
232.47648680464988
  0
ARC
  8
_0-1_線色１__水色__
  6
CONTINUOUS
 62
    4
 10
998.05108110475146
 20
575.90822880494443
 40
1.2083333333333177
 50
127.52351320610693
 51
52.47648680188081
  0
ARC
  8
_0-1_線色１__水色__
  6
CONTINUOUS
 62
    4
 10
1000.9950013934366
 20
575.9082288051502
 40
1.2083333333333177
 50
127.52351320610693
 51
52.47648680188081
  0
ARC
  8
_0-1_線色１__水色__
  6
CONTINUOUS
 62
    4
 10
995.10716081607086
 20
575.90822880473979
 40
1.2083333333333177
 50
127.52351320610693
 51
52.47648680188081
  0
ARC
  8
_0-1_線色１__水色__
  6
CONTINUOUS
 62
    4
 10
993.63520067159413
 20
577.82489547133878
 40
1.2083333333333581
 50
307.52351320333912
 51
232.47648680464988
  0
LINE
  8
_0-7_ビス
  6
CONTINUOUS
 62
    7
 10
877.26420686481049
 20
943.63309553730915
 11
877.26420686481049
 21
944.01771092192348
  0
LINE
  8
_0-7_ビス
  6
DASHED3
 62
    7
 10
872.73167498106602
 20
941.46834139109615
 11
873.81422270095925
 21
944.01771092192348
  0
LINE
  8
_0-7_ビス
  6
CONTINUOUS
 62
    7
 10
865.26420686481003
 20
943.63309553730915
 11
865.26420686481003
 21
944.01771092192348
  0
LINE
  8
_0-7_ビス
  6
DASHED3
 62
    7
 10
869.79673874855678
 20
941.46834139109615
 11
868.71419102866128
 21
944.01771092192348
  0
LINE
  8
_0-7_ビス
  6
CONTINUOUS
 62
    7
 10
877.26420686481049
 20
943.63309553730915
 11
865.26420686481003
 21
943.63309553730915
  0
LINE
  8
_0-7_ビス
  6
CONTINUOUS
 62
    7
 10
877.26420686481049
 20
944.01771092192348
 11
865.26420686481003
 21
944.01771092192348
  0
LINE
  8
ADD_LINE
  6
DOT
 62
    4
 10
871.2642068648114
 20
910.89834625997128
 11
871.2642068648114
 21
950.5150660025879
  0
ARC
  8
_0-7_ビス
  6
DASHED3
 62
    7
 10
871.2642068648114
 20
942.57888448936228
 40
1.8403175392666382
 50
217.11750793457031
 51
322.88247680664062
  0
LINE
  8
_0-7_ビス
  6
CONTINUOUS
 62
    7
 10
875.34999330243807
 20
941.71888197493445
 11
877.26420686481049
 21
943.63309553730915
  0
ARC
  8
_0-7_ビス
  6
CONTINUOUS
 62
    7
 10
876.76420686481094
 20
940.30466841256157
 40
2
 50
135.00000000000153
 51
180.00000000000003
  0
LINE
  8
_0-7_ビス
  6
CONTINUOUS
 62
    7
 10
867.17842042718473
 20
941.71888197493445
 11
865.26420686481003
 21
943.63309553730915
  0
ARC
  8
_0-7_ビス
  6
CONTINUOUS
 62
    7
 10
865.76420686481185
 20
940.30466841256157
 40
2
 50
0
 51
44.999999999998501
  0
LINE
  8
_0-7_ビス
  6
CONTINUOUS
 62
    7
 10
874.76420686481049
 20
940.01771092192257
 11
867.76420686481003
 21
940.01771092192257
  0
LINE
  8
_0-7_ビス
  6
CONTINUOUS
 62
    7
 10
874.76420686481049
 20
924.17782749484559
 11
867.76420686481003
 21
924.17782749484559
  0
LINE
  8
_0-7_ビス
  6
CONTINUOUS
 62
    7
 10
874.76420686481049
 20
939.01771092192348
 11
867.76420686481003
 21
939.01771092192348
  0
LINE
  8
_0-7_ビス
  6
CONTINUOUS
 62
    4
 10
870.25019548911985
 20
924.17782749484559
 11
874.76420686481049
 21
925.38739281324069
  0
LINE
  8
_0-7_ビス
  6
CONTINUOUS
 62
    4
 10
867.76420686481003
 20
937.81790756252803
 11
872.24178730675192
 21
939.01771092192348
  0
LINE
  8
_0-7_ビス
  6
CONTINUOUS
 62
    4
 10
867.76420686481003
 20
925.5116870331517
 11
874.76420686481049
 21
927.38739281324115
  0
LINE
  8
_0-7_ビス
  6
CONTINUOUS
 62
    4
 10
867.76420686481003
 20
927.51168703315216
 11
874.76420686481049
 21
929.3873928132416
  0
LINE
  8
_0-7_ビス
  6
CONTINUOUS
 62
    4
 10
867.76420686481003
 20
929.51168703315261
 11
874.76420686481049
 21
931.38739281324206
  0
LINE
  8
_0-7_ビス
  6
CONTINUOUS
 62
    4
 10
867.76420686481003
 20
931.51168703315307
 11
874.76420686481049
 21
933.38739281324024
  0
LINE
  8
_0-7_ビス
  6
CONTINUOUS
 62
    4
 10
867.76420686481003
 20
933.51168703315352
 11
874.76420686481049
 21
935.38739281324069
  0
LINE
  8
_0-7_ビス
  6
CONTINUOUS
 62
    4
 10
867.76420686481003
 20
935.5116870331517
 11
874.76420686481049
 21
937.38739281324115
  0
LINE
  8
_0-7_ビス
  6
CONTINUOUS
 62
    7
 10
874.76420686481049
 20
940.30466841256157
 11
874.76420686481049
 21
920.69855343700965
  0
LINE
  8
_0-7_ビス
  6
CONTINUOUS
 62
    7
 10
874.76420686481049
 20
920.69855343700965
 11
871.2642068648114
 21
918.67782749484604
  0
LINE
  8
_0-7_ビス
  6
CONTINUOUS
 62
    7
 10
867.76420686481003
 20
940.30466841256157
 11
867.76420686481003
 21
920.69855343700965
  0
LINE
  8
_0-7_ビス
  6
CONTINUOUS
 62
    7
 10
867.76420686481003
 20
920.69855343700965
 11
871.2642068648114
 21
918.67782749484604
  0
LINE
  8
_0-2_線色２__白__
  6
CONTINUOUS
 62
    7
 10
833.00921479435772
 20
949.01771092192348
 11
832.99099600683519
 21
949.14861586860525
  0
LINE
  8
_0-2_線色２__白__
  6
CONTINUOUS
 62
    7
 10
832.99099600683519
 20
949.14861586860525
 11
832.95792922717453
 21
949.37368980362407
  0
LINE
  8
_0-2_線色２__白__
  6
CONTINUOUS
 62
    7
 10
832.95792922717453
 20
949.37368980362407
 11
832.92026501130692
 21
949.59702971388197
  0
LINE
  8
_0-2_線色２__白__
  6
CONTINUOUS
 62
    7
 10
832.92026501130692
 20
949.59702971388197
 11
832.87509358948398
 21
949.817538115351
  0
LINE
  8
_0-2_線色２__白__
  6
CONTINUOUS
 62
    7
 10
832.87509358948398
 20
949.817538115351
 11
832.81950519195277
 21
950.03411752401007
  0
LINE
  8
_0-2_線色２__白__
  6
CONTINUOUS
 62
    7
 10
832.81950519195277
 20
950.03411752401007
 11
832.75059004896491
 21
950.24567045582899
  0
LINE
  8
_0-2_線色２__白__
  6
CONTINUOUS
 62
    7
 10
832.75059004896491
 20
950.24567045582899
 11
832.70336635067167
 21
950.3656355588214
  0
LINE
  8
_0-2_線色２__白__
  6
CONTINUOUS
 62
    7
 10
832.70336635067167
 20
950.3656355588214
 11
832.66242528940836
 21
950.45775239841305
  0
LINE
  8
_0-2_線色２__白__
  6
CONTINUOUS
 62
    7
 10
832.66242528940836
 20
950.45775239841305
 11
832.58401011672674
 21
950.61346670142484
  0
LINE
  8
_0-2_線色２__白__
  6
CONTINUOUS
 62
    7
 10
832.58401011672674
 20
950.61346670142484
 11
832.49690310240055
 21
950.76547030430675
  0
LINE
  8
_0-2_線色２__白__
  6
CONTINUOUS
 62
    7
 10
832.49690310240055
 20
950.76547030430675
 11
832.40251811325095
 21
950.91402282010677
  0
LINE
  8
_0-2_線色２__白__
  6
CONTINUOUS
 62
    7
 10
832.40251811325095
 20
950.91402282010677
 11
832.3022690161082
 21
951.05938386187745
  0
LINE
  8
_0-2_線色２__白__
  6
CONTINUOUS
 62
    7
 10
832.3022690161082
 20
951.05938386187745
 11
832.19756967779119
 21
951.20181304267362
  0
LINE
  8
_0-2_線色２__白__
  6
CONTINUOUS
 62
    7
 10
832.19756967779119
 20
951.20181304267362
 11
832.13536209811252
 21
951.28318088987953
  0
LINE
  8
_0-2_線色２__白__
  6
CONTINUOUS
 62
    7
 10
832.13536209811252
 20
951.28318088987953
 11
832.06114582417683
 21
951.37786448268116
  0
LINE
  8
_0-2_線色２__白__
  6
CONTINUOUS
 62
    7
 10
832.06114582417683
 20
951.37786448268116
 11
831.93092088407354
 21
951.53858327654461
  0
LINE
  8
_0-2_線色２__白__
  6
CONTINUOUS
 62
    7
 10
831.93092088407354
 20
951.53858327654461
 11
831.79806906485226
 21
951.69645003893265
  0
LINE
  8
_0-2_線色２__白__
  6
CONTINUOUS
 62
    7
 10
831.79806906485226
 20
951.69645003893265
 11
831.66287092672462
 21
951.85187053240043
  0
LINE
  8
_0-2_線色２__白__
  6
CONTINUOUS
 62
    7
 10
831.66287092672462
 20
951.85187053240043
 11
831.52560702990002
 21
952.00525051948716
  0
LINE
  8
_0-2_線色２__白__
  6
CONTINUOUS
 62
    7
 10
831.52560702990002
 20
952.00525051948716
 11
831.38655793459236
 21
952.15699576274346
  0
LINE
  8
_0-2_線色２__白__
  6
CONTINUOUS
 62
    7
 10
831.38655793459236
 20
952.15699576274346
 11
831.30520203668027
 21
952.24441885575061
  0
LINE
  8
_0-2_線色２__白__
  6
CONTINUOUS
 62
    7
 10
831.30520203668027
 20
952.24441885575061
 11
831.21956696326549
 21
952.33548903014935
  0
LINE
  8
_0-2_線色２__白__
  6
CONTINUOUS
 62
    7
 10
831.21956696326549
 20
952.33548903014935
 11
831.07036960495805
 21
952.49119077898058
  0
LINE
  8
_0-2_線色２__白__
  6
CONTINUOUS
 62
    7
 10
831.07036960495805
 20
952.49119077898058
 11
830.91861939138823
 21
952.64453675738196
  0
LINE
  8
_0-2_線色２__白__
  6
CONTINUOUS
 62
    7
 10
830.91861939138823
 20
952.64453675738196
 11
830.76363031188464
 21
952.79472439630126
  0
LINE
  8
_0-2_線色２__白__
  6
CONTINUOUS
 62
    7
 10
830.76363031188464
 20
952.79472439630126
 11
830.60471635577812
 21
952.94095112669766
  0
LINE
  8
_0-2_線色２__白__
  6
CONTINUOUS
 62
    7
 10
830.60471635577812
 20
952.94095112669766
 11
830.44119151239727
 21
953.08241437952574
  0
LINE
  8
_0-2_線色２__白__
  6
CONTINUOUS
 62
    7
 10
830.44119151239727
 20
953.08241437952574
 11
830.34396407080919
 21
953.16196418680647
  0
LINE
  8
_0-2_線色２__白__
  6
CONTINUOUS
 62
    7
 10
830.34396407080919
 20
953.16196418680647
 11
830.2563103712663
 21
953.2306895393026
  0
LINE
  8
_0-2_線色２__白__
  6
CONTINUOUS
 62
    7
 10
830.2563103712663
 20
953.2306895393026
 11
830.10169727134723
 21
953.34490230710344
  0
LINE
  8
_0-2_線色２__白__
  6
CONTINUOUS
 62
    7
 10
830.10169727134723
 20
953.34490230710344
 11
829.94273212815813
 21
953.45287499603501
  0
LINE
  8
_0-2_線色２__白__
  6
CONTINUOUS
 62
    7
 10
829.94273212815813
 20
953.45287499603501
 11
829.77948547093035
 21
953.55365022746128
  0
LINE
  8
_0-2_線色２__白__
  6
CONTINUOUS
 62
    7
 10
829.77948547093035
 20
953.55365022746128
 11
829.61202782889984
 21
953.64627062274621
  0
LINE
  8
_0-2_線色２__白__
  6
CONTINUOUS
 62
    7
 10
829.61202782889984
 20
953.64627062274621
 11
829.44042973129569
 21
953.72977880325834
  0
LINE
  8
_0-2_線色２__白__
  6
CONTINUOUS
 62
    7
 10
829.44042973129569
 20
953.72977880325834
 11
829.33903347012745
 21
953.77366107417856
  0
LINE
  8
_0-2_線色２__白__
  6
CONTINUOUS
 62
    7
 10
829.33903347012745
 20
953.77366107417856
 11
829.22512797738761
 21
953.8181897874415
  0
LINE
  8
_0-2_線色２__白__
  6
CONTINUOUS
 62
    7
 10
829.22512797738761
 20
953.8181897874415
 11
829.02523951953242
 21
953.88550041585631
  0
LINE
  8
_0-2_線色２__白__
  6
CONTINUOUS
 62
    7
 10
829.02523951953242
 20
953.88550041585631
 11
828.82153742067601
 21
953.94210396735389
  0
LINE
  8
_0-2_線色２__白__
  6
CONTINUOUS
 62
    7
 10
828.82153742067601
 20
953.94210396735389
 11
828.61473834386686
 21
953.98947884108566
  0
LINE
  8
_0-2_線色２__白__
  6
CONTINUOUS
 62
    7
 10
828.61473834386686
 20
953.98947884108566
 11
828.405558952158
 21
954.02910343619396
  0
LINE
  8
_0-2_線色２__白__
  6
CONTINUOUS
 62
    7
 10
828.405558952158
 20
954.02910343619396
 11
828.19471590860246
 21
954.06245615183025
  0
LINE
  8
_0-2_線色２__白__
  6
CONTINUOUS
 62
    7
 10
828.19471590860246
 20
954.06245615183025
 11
828.0719470605726
 21
954.07950951786461
  0
LINE
  8
_0-2_線色２__白__
  6
CONTINUOUS
 62
    7
 10
828.0719470605726
 20
954.07950951786461
 11
827.92349009048792
 21
954.09822651713284
  0
LINE
  8
_0-2_線色２__白__
  6
CONTINUOUS
 62
    7
 10
827.92349009048792
 20
954.09822651713284
 11
827.66716982520336
 21
954.12513327822126
  0
LINE
  8
_0-2_線色２__白__
  6
CONTINUOUS
 62
    7
 10
827.66716982520336
 20
954.12513327822126
 11
827.41077449662214
 21
954.14399152552051
  0
LINE
  8
_0-2_線色２__白__
  6
CONTINUOUS
 62
    7
 10
827.41077449662214
 20
954.14399152552051
 11
827.15474665999125
 21
954.15333761670581
  0
LINE
  8
_0-2_線色２__白__
  6
CONTINUOUS
 62
    7
 10
827.15474665999125
 20
954.15333761670581
 11
826.89952887055767
 21
954.15170790945922
  0
LINE
  8
_0-2_線色２__白__
  6
CONTINUOUS
 62
    7
 10
826.89952887055767
 20
954.15170790945922
 11
826.64556368356614
 21
954.13763876145595
  0
LINE
  8
_0-2_線色２__白__
  6
CONTINUOUS
 62
    7
 10
826.64556368356614
 20
954.13763876145595
 11
826.49901220732943
 21
954.12320215267755
  0
LINE
  8
_0-2_線色２__白__
  6
CONTINUOUS
 62
    7
 10
826.49901220732943
 20
954.12320215267755
 11
826.39166801576437
 21
954.1095123665923
  0
LINE
  8
_0-2_線色２__白__
  6
CONTINUOUS
 62
    7
 10
826.39166801576437
 20
954.1095123665923
 11
826.20721795499492
 21
954.08055273535183
  0
LINE
  8
_0-2_線色２__白__
  6
CONTINUOUS
 62
    7
 10
826.20721795499492
 20
954.08055273535183
 11
826.02324709755237
 21
954.04623725381271
  0
LINE
  8
_0-2_線色２__白__
  6
CONTINUOUS
 62
    7
 10
826.02324709755237
 20
954.04623725381271
 11
825.83939106169453
 21
954.00822242778531
  0
LINE
  8
_0-2_線色２__白__
  6
CONTINUOUS
 62
    7
 10
825.83939106169453
 20
954.00822242778531
 11
825.65528546567464
 21
953.96816476307777
  0
LINE
  8
_0-2_線色２__白__
  6
CONTINUOUS
 62
    7
 10
825.65528546567464
 20
953.96816476307777
 11
825.47056592774595
 21
953.92772076550273
  0
LINE
  8
_0-2_線色２__白__
  6
CONTINUOUS
 62
    7
 10
825.47056592774595
 20
953.92772076550273
 11
825.36300370221113
 21
953.90473897861511
  0
LINE
  8
_0-2_線色２__白__
  6
CONTINUOUS
 62
    7
 10
825.36300370221113
 20
953.90473897861511
 11
825.24089247088284
 21
953.87946525711641
  0
LINE
  8
_0-2_線色２__白__
  6
CONTINUOUS
 62
    7
 10
825.24089247088284
 20
953.87946525711641
 11
825.03009444731958
 21
953.83611574088263
  0
LINE
  8
_0-2_線色２__白__
  6
CONTINUOUS
 62
    7
 10
825.03009444731958
 20
953.83611574088263
 11
824.82038922348181
 21
953.78998258273214
  0
LINE
  8
_0-2_線色２__白__
  6
CONTINUOUS
 62
    7
 10
824.82038922348181
 20
953.78998258273214
 11
824.6134322742131
 21
953.73749654102994
  0
LINE
  8
_0-2_線色２__白__
  6
CONTINUOUS
 62
    7
 10
824.6134322742131
 20
953.73749654102994
 11
824.41087907435929
 21
953.67508837413197
  0
LINE
  8
_0-2_線色２__白__
  6
CONTINUOUS
 62
    7
 10
824.41087907435929
 20
953.67508837413197
 11
824.21438509875941
 21
953.59918884039644
  0
LINE
  8
_0-2_線色２__白__
  6
CONTINUOUS
 62
    7
 10
824.21438509875941
 20
953.59918884039644
 11
824.10384727263988
 21
953.54757889974053
  0
LINE
  8
_0-2_線色２__白__
  6
CONTINUOUS
 62
    7
 10
824.10384727263988
 20
953.54757889974053
 11
824.00452504145903
 21
953.49449342781782
  0
LINE
  8
_0-2_線色２__白__
  6
CONTINUOUS
 62
    7
 10
824.00452504145903
 20
953.49449342781782
 11
823.83910112627007
 21
953.39120714671708
  0
LINE
  8
_0-2_線色２__白__
  6
CONTINUOUS
 62
    7
 10
823.83910112627007
 20
953.39120714671708
 11
823.68104955491106
 21
953.27465751498721
  0
LINE
  8
_0-2_線色２__白__
  6
CONTINUOUS
 62
    7
 10
823.68104955491106
 20
953.27465751498721
 11
823.53037450849286
 21
953.14673084167225
  0
LINE
  8
_0-2_線色２__白__
  6
CONTINUOUS
 62
    7
 10
823.53037450849286
 20
953.14673084167225
 11
823.38708016812632
 21
953.00931343582533
  0
LINE
  8
_0-2_線色２__白__
  6
CONTINUOUS
 62
    7
 10
823.38708016812632
 20
953.00931343582533
 11
823.2511707149223
 21
952.86429160649504
  0
LINE
  8
_0-2_線色２__白__
  6
CONTINUOUS
 62
    7
 10
823.2511707149223
 20
952.86429160649504
 11
823.17572863493695
 21
952.77743790249815
  0
LINE
  8
_0-2_線色２__白__
  6
CONTINUOUS
 62
    7
 10
823.17572863493695
 20
952.77743790249815
 11
823.09143361056556
 21
952.67487051450644
  0
LINE
  8
_0-2_線色２__白__
  6
CONTINUOUS
 62
    7
 10
823.09143361056556
 20
952.67487051450644
 11
822.95326175129674
 21
952.49358550476927
  0
LINE
  8
_0-2_線色２__白__
  6
CONTINUOUS
 62
    7
 10
822.95326175129674
 20
952.49358550476927
 11
822.82315148427813
 21
952.30736083015017
  0
LINE
  8
_0-2_線色２__白__
  6
CONTINUOUS
 62
    7
 10
822.82315148427813
 20
952.30736083015017
 11
822.6999315822917
 21
952.11699476906006
  0
LINE
  8
_0-2_線色２__白__
  6
CONTINUOUS
 62
    7
 10
822.6999315822917
 20
952.11699476906006
 11
822.58243081812168
 21
951.92328559991665
  0
LINE
  8
_0-2_線色２__白__
  6
CONTINUOUS
 62
    7
 10
822.58243081812168
 20
951.92328559991665
 11
822.46947796455459
 21
951.72703160113542
  0
LINE
  8
_0-2_線色２__白__
  6
CONTINUOUS
 62
    7
 10
822.46947796455459
 20
951.72703160113542
 11
822.40558763769457
 21
951.61235280410665
  0
LINE
  8
_0-2_線色２__白__
  6
CONTINUOUS
 62
    7
 10
822.40558763769457
 20
951.61235280410665
 11
822.33832027018877
 21
951.48928621197001
  0
LINE
  8
_0-2_線色２__白__
  6
CONTINUOUS
 62
    7
 10
822.33832027018877
 20
951.48928621197001
 11
822.2243390289799
 21
951.27607945560158
  0
LINE
  8
_0-2_線色２__白__
  6
CONTINUOUS
 62
    7
 10
822.2243390289799
 20
951.27607945560158
 11
822.11222448061505
 21
951.06178245606543
  0
LINE
  8
_0-2_線色２__白__
  6
CONTINUOUS
 62
    7
 10
822.11222448061505
 20
951.06178245606543
 11
822.00120787136882
 21
950.84663319498986
  0
LINE
  8
_0-2_線色２__白__
  6
CONTINUOUS
 62
    7
 10
822.00120787136882
 20
950.84663319498986
 11
821.89052044750895
 21
950.63086965400998
  0
LINE
  8
_0-2_線色２__白__
  6
CONTINUOUS
 62
    7
 10
821.89052044750895
 20
950.63086965400998
 11
821.77939345531229
 21
950.41472981475408
  0
LINE
  8
_0-2_線色２__白__
  6
CONTINUOUS
 62
    7
 10
821.77939345531229
 20
950.41472981475408
 11
821.71443546068019
 21
950.28929006525459
  0
LINE
  8
_0-2_線色２__白__
  6
CONTINUOUS
 62
    7
 10
821.71443546068019
 20
950.28929006525459
 11
821.62602200650497
 21
950.12046188224531
  0
LINE
  8
_0-2_線色２__白__
  6
CONTINUOUS
 62
    7
 10
821.62602200650497
 20
950.12046188224531
 11
821.4695171905754
 21
949.83106611636003
  0
LINE
  8
_0-2_線色２__白__
  6
CONTINUOUS
 62
    7
 10
821.4695171905754
 20
949.83106611636003
 11
821.30529559734839
 21
949.54635794010755
  0
LINE
  8
_0-2_線色２__白__
  6
CONTINUOUS
 62
    7
 10
821.30529559734839
 20
949.54635794010755
 11
821.13037160996271
 21
949.26930451209046
  0
LINE
  8
_0-2_線色２__白__
  6
CONTINUOUS
 62
    7
 10
821.13037160996271
 20
949.26930451209046
 11
820.94175961156168
 21
949.00287299090223
  0
LINE
  8
_0-2_線色２__白__
  6
CONTINUOUS
 62
    7
 10
820.94175961156168
 20
949.00287299090223
 11
820.73647398528635
 21
948.75003053514547
  0
LINE
  8
_0-2_線色２__白__
  6
CONTINUOUS
 62
    7
 10
820.73647398528635
 20
948.75003053514547
 11
820.60859197746083
 21
948.61077763536514
  0
LINE
  8
_0-2_線色２__白__
  6
CONTINUOUS
 62
    7
 10
820.60859197746083
 20
948.61077763536514
 11
820.56237680515721
 21
948.56367262945469
  0
LINE
  8
_0-2_線色２__白__
  6
CONTINUOUS
 62
    7
 10
820.56237680515721
 20
948.56367262945469
 11
820.48067754361625
 21
948.48432753442012
  0
LINE
  8
_0-2_線色２__白__
  6
CONTINUOUS
 62
    7
 10
820.48067754361625
 20
948.48432753442012
 11
820.39647515128706
 21
948.40752742497898
  0
LINE
  8
_0-2_線色２__白__
  6
CONTINUOUS
 62
    7
 10
820.39647515128706
 20
948.40752742497898
 11
820.30982917579138
 21
948.33347852165161
  0
LINE
  8
_0-2_線色２__白__
  6
CONTINUOUS
 62
    7
 10
820.30982917579138
 20
948.33347852165161
 11
820.22079916475548
 21
948.26238704496291
  0
LINE
  8
_0-2_線色２__白__
  6
CONTINUOUS
 62
    7
 10
820.22079916475548
 20
948.26238704496291
 11
820.12944466580336
 21
948.1944592154332
  0
LINE
  8
_0-2_線色２__白__
  6
CONTINUOUS
 62
    7
 10
820.12944466580336
 20
948.1944592154332
 11
820.07541744090929
 21
948.15659191904388
  0
LINE
  8
_0-2_線色２__白__
  6
CONTINUOUS
 62
    7
 10
820.07541744090929
 20
948.15659191904388
 11
819.98581602982028
 21
948.09729922866381
  0
LINE
  8
_0-2_線色２__白__
  6
CONTINUOUS
 62
    7
 10
819.98581602982028
 20
948.09729922866381
 11
819.82762458564991
 21
948.0008859644704
  0
LINE
  8
_0-2_線色２__白__
  6
CONTINUOUS
 62
    7
 10
819.82762458564991
 20
948.0008859644704
 11
819.66621329861653
 21
947.90955755539926
  0
LINE
  8
_0-2_線色２__白__
  6
CONTINUOUS
 62
    7
 10
819.66621329861653
 20
947.90955755539926
 11
819.50329335032336
 21
947.82066684694882
  0
LINE
  8
_0-2_線色２__白__
  6
CONTINUOUS
 62
    7
 10
819.50329335032336
 20
947.82066684694882
 11
819.34057592237139
 21
947.73156668461297
  0
LINE
  8
_0-2_線色２__白__
  6
CONTINUOUS
 62
    7
 10
819.34057592237139
 20
947.73156668461297
 11
819.17977219635929
 21
947.63960991388785
  0
LINE
  8
_0-2_線色２__白__
  6
CONTINUOUS
 62
    7
 10
819.17977219635929
 20
947.63960991388785
 11
819.08805718803421
 21
947.58392297237378
  0
LINE
  8
_0-2_線色２__白__
  6
CONTINUOUS
 62
    7
 10
819.08805718803421
 20
947.58392297237378
 11
818.99564619563478
 21
947.52455820250361
  0
LINE
  8
_0-2_線色２__白__
  6
CONTINUOUS
 62
    7
 10
818.99564619563478
 20
947.52455820250361
 11
818.83970319347952
 21
947.41705644073591
  0
LINE
  8
_0-2_線色２__白__
  6
CONTINUOUS
 62
    7
 10
818.83970319347952
 20
947.41705644073591
 11
818.68738065125797
 21
947.30407325076612
  0
LINE
  8
_0-2_線色２__白__
  6
CONTINUOUS
 62
    7
 10
818.68738065125797
 20
947.30407325076612
 11
818.53790416252366
 21
947.1868131983706
  0
LINE
  8
_0-2_線色２__白__
  6
CONTINUOUS
 62
    7
 10
818.53790416252366
 20
947.1868131983706
 11
818.39049932083014
 21
947.0664808493234
  0
LINE
  8
_0-2_線色２__白__
  6
CONTINUOUS
 62
    7
 10
818.39049932083014
 20
947.0664808493234
 11
818.24439171973324
 21
946.94428076939857
  0
LINE
  8
_0-2_線色２__白__
  6
CONTINUOUS
 62
    7
 10
818.24439171973324
 20
946.94428076939857
 11
818.15993855033128
 21
946.87302359030582
  0
LINE
  8
_0-2_線色２__白__
  6
CONTINUOUS
 62
    7
 10
818.15993855033128
 20
946.87302359030582
 11
818.05409668671189
 21
946.78354300640422
  0
LINE
  8
_0-2_線色２__白__
  6
CONTINUOUS
 62
    7
 10
818.05409668671189
 20
946.78354300640422
 11
817.87252390840365
 21
946.62845995261023
  0
LINE
  8
_0-2_線色２__白__
  6
CONTINUOUS
 62
    7
 10
817.87252390840365
 20
946.62845995261023
 11
817.69334925577766
 21
946.47107078436875
  0
LINE
  8
_0-2_線色２__白__
  6
CONTINUOUS
 62
    7
 10
817.69334925577766
 20
946.47107078436875
 11
817.51801712955228
 21
946.30988058644334
  0
LINE
  8
_0-2_線色２__白__
  6
CONTINUOUS
 62
    7
 10
817.51801712955228
 20
946.30988058644334
 11
817.34797193044358
 21
946.14339444359302
  0
LINE
  8
_0-2_線色２__白__
  6
CONTINUOUS
 62
    7
 10
817.34797193044358
 20
946.14339444359302
 11
817.18465805916537
 21
945.97011744058364
  0
LINE
  8
_0-2_線色２__白__
  6
CONTINUOUS
 62
    7
 10
817.18465805916537
 20
945.97011744058364
 11
817.09358947722592
 21
945.8659161323726
  0
LINE
  8
_0-2_線色２__白__
  6
CONTINUOUS
 62
    7
 10
817.09358947722592
 20
945.8659161323726
 11
817.04193020458831
 21
945.80382885684912
  0
LINE
  8
_0-2_線色２__白__
  6
CONTINUOUS
 62
    7
 10
817.04193020458831
 20
945.80382885684912
 11
816.95560509428276
 21
945.69435611701238
  0
LINE
  8
_0-2_線色２__白__
  6
CONTINUOUS
 62
    7
 10
816.95560509428276
 20
945.69435611701238
 11
816.87324522215192
 21
945.58185485925378
  0
LINE
  8
_0-2_線色２__白__
  6
CONTINUOUS
 62
    7
 10
816.87324522215192
 20
945.58185485925378
 11
816.79542453140527
 21
945.4663739265402
  0
LINE
  8
_0-2_線色２__白__
  6
CONTINUOUS
 62
    7
 10
816.79542453140527
 20
945.4663739265402
 11
816.72271696526138
 21
945.34796216184759
  0
LINE
  8
_0-2_線色２__白__
  6
CONTINUOUS
 62
    7
 10
816.72271696526138
 20
945.34796216184759
 11
816.655696466932
 21
945.22666840814509
  0
LINE
  8
_0-2_線色２__白__
  6
CONTINUOUS
 62
    7
 10
816.655696466932
 20
945.22666840814509
 11
816.61965655584652
 21
945.15501675030237
  0
LINE
  8
_0-2_線色２__白__
  6
CONTINUOUS
 62
    7
 10
816.61965655584652
 20
945.15501675030237
 11
816.57300470248799
 21
945.05354085925319
  0
LINE
  8
_0-2_線色２__白__
  6
CONTINUOUS
 62
    7
 10
816.57300470248799
 20
945.05354085925319
 11
816.5015179441383
 21
944.87477648020104
  0
LINE
  8
_0-2_線色２__白__
  6
CONTINUOUS
 62
    7
 10
816.5015179441383
 20
944.87477648020104
 11
816.4395666055151
 21
944.69195606205403
  0
LINE
  8
_0-2_線色２__白__
  6
CONTINUOUS
 62
    7
 10
816.4395666055151
 20
944.69195606205403
 11
816.38506871724474
 21
944.50596520286354
  0
LINE
  8
_0-2_線色２__白__
  6
CONTINUOUS
 62
    7
 10
816.38506871724474
 20
944.50596520286354
 11
816.33594230995811
 21
944.31768950068772
  0
LINE
  8
_0-2_線色２__白__
  6
CONTINUOUS
 62
    7
 10
816.33594230995811
 20
944.31768950068772
 11
816.29010541427931
 21
944.12801455358476
  0
LINE
  8
_0-2_線色２__白__
  6
CONTINUOUS
 62
    7
 10
816.29010541427931
 20
944.12801455358476
 11
816.2642068648114
 21
944.01771092192348
  0
LINE
  8
_0-4_線色４__黄__
  6
CONTINUOUS
 62
    2
 10
827.01208272742576
 20
949.01771092192348
 11
827.01208272742576
 21
944.01771092192348
  0
LINE
  8
_0-4_線色４__黄__
  6
CONTINUOUS
 62
    2
 10
895.06880508991514
 20
949.01771092192348
 11
827.01208272742576
 21
949.01771092192348
  0
LINE
  8
_0-4_線色４__黄__
  6
CONTINUOUS
 62
    2
 10
895.06880508991514
 20
949.01771092192348
 11
899.12015366587354
 21
945.56656213499764
  0
LINE
  8
_0-4_線色４__黄__
  6
CONTINUOUS
 62
    2
 10
980.73527467667816
 20
945.56656213499764
 11
899.12015366587354
 21
945.56656213499764
  0
LINE
  8
_0-2_線色２__白__
  6
CONTINUOUS
 62
    7
 10
896.2642068648114
 20
941.43120279850791
 11
897.27921981762563
 21
940.56656213499764
  0
LINE
  8
_0-2_線色２__白__
  6
CONTINUOUS
 62
    7
 10
845.42870004187478
 20
942.81771092191093
 11
845.42870004187478
 21
940.56656213499764
  0
LINE
  8
_0-d_断熱__ハッチ
  6
CONTINUOUS
 62
    4
 10
865.40082209457921
 20
940.56656213499764
 11
866.2189663803241
 21
941.38470642074253
  0
LINE
  8
_0-d_断熱__ハッチ
  6
CONTINUOUS
 62
    4
 10
861.86528818864815
 20
940.56656213499764
 11
864.11643697556372
 21
942.8177109219132
  0
LINE
  8
_0-d_断熱__ハッチ
  6
CONTINUOUS
 62
    4
 10
858.32975428271482
 20
940.56656213499764
 11
860.58090306963038
 21
942.8177109219132
  0
LINE
  8
_0-d_断熱__ハッチ
  6
CONTINUOUS
 62
    4
 10
854.79422037678148
 20
940.56656213499764
 11
857.04536916369705
 21
942.81771092191548
  0
LINE
  8
_0-d_断熱__ハッチ
  6
CONTINUOUS
 62
    4
 10
851.25868647084815
 20
940.56656213499764
 11
853.50983525776371
 21
942.81771092191548
  0
LINE
  8
_0-d_断熱__ハッチ
  6
CONTINUOUS
 62
    4
 10
847.72315256491481
 20
940.56656213499764
 11
849.97430135183038
 21
942.81771092191548
  0
LINE
  8
_0-d_断熱__ハッチ
  6
CONTINUOUS
 62
    4
 10
845.4287000418725
 20
941.80764351789094
 11
846.43876744589477
 21
942.8177109219132
  0
LINE
  8
_0-d_断熱__ハッチ
  6
CONTINUOUS
 62
    4
 10
893.68509334203679
 20
940.56656213499764
 11
894.4871524239619
 21
941.36862121692275
  0
LINE
  8
_0-d_断熱__ハッチ
  6
CONTINUOUS
 62
    4
 10
890.14955943610119
 20
940.56656213499309
 11
892.40070822301902
 21
942.81771092191093
  0
LINE
  8
_0-d_断熱__ハッチ
  6
CONTINUOUS
 62
    4
 10
886.61402553016785
 20
940.56656213499309
 11
888.86517431708569
 21
942.81771092191093
  0
LINE
  8
_0-d_断熱__ハッチ
  6
CONTINUOUS
 62
    4
 10
883.07849162423452
 20
940.56656213499309
 11
885.32964041115235
 21
942.81771092191093
  0
LINE
  8
_0-d_断熱__ハッチ
  6
CONTINUOUS
 62
    4
 10
879.54295771830118
 20
940.56656213499537
 11
881.79410650521902
 21
942.81771092191093
  0
LINE
  8
_0-d_断熱__ハッチ
  6
CONTINUOUS
 62
    4
 10
876.00742381236785
 20
940.56656213499537
 11
878.25857259928569
 21
942.8177109219132
  0
LINE
  8
_0-a_文字
  6
CONTINUOUS
 62
    7
 10
918.33463374580958
 20
1050.7248863546215
 11
938.33463374580958
 21
1050.7248863546215
  0
TEXT
  8
_0-a_文字
 62
    7
 10
943.33463374580947
 20
1043.2248863546215
 40
15.000000000000302
 41
0.9999999999999814
 50
0
  1
特注塩ビ鋼板
  0
LINE
  8
_0-a_文字
  6
CONTINUOUS
 62
    7
 10
903.90087701606888
 20
1025.7248863546215
 11
938.33463374580958
 21
1025.7248863546215
  0
TEXT
  8
_0-a_文字
 62
    7
 10
943.33463374581106
 20
1018.2248863546215
 40
15.000000000000213
 41
0.9999999999999822
 50
0
  1
ロンシーラントＴＢ
  0
TEXT
  8
_0-a_文字
 62
    7
 10
943.3346337458122
 20
993.2248863546215
 40
15.000000000000213
 41
0.9999999999999834
 50
0
  1
亜鉛めっき鋼板 t=1.2以上（別途工事）
  0
LINE
  8
_0-a_文字
  6
CONTINUOUS
 62
    7
 10
889.46712028633044
 20
1000.7248863546215
 11
938.33463374580958
 21
1000.7248863546215
  0
LINE
  8
_0-a_文字
  6
CONTINUOUS
 62
    7
 10
875.03336355658973
 20
975.7248863546215
 11
938.33463374580958
 21
975.7248863546215
  0
TEXT
  8
_0-a_文字
 62
    7
 10
943.33463374580913
 20
968.22488635462093
 40
15.000000000000213
 41
0.9999999999999901
 50
0
  1
ブチルテープ（別途工事）
  0
LINE
  8
_0-a_文字
  6
CONTINUOUS
 62
    7
 10
896.68534190583784
 20
1075.7248863546215
 11
916.68534190583784
 21
1075.7248863546215
  0
TEXT
  8
_0-a_文字
 62
    7
 10
921.68534190583705
 20
1068.2248863546215
 40
15.000000000000213
 41
1.0000000000000009
 50
0
  1
プルーフシーラー
  0
LINE
  8
_0-a_文字
  6
CONTINUOUS
 62
    7
 10
853.30723884717997
 20
938.09413450634565
 11
918.33463374580958
 21
1050.7248863546215
  0
LINE
  8
_0-a_文字
  6
CONTINUOUS
 62
    7
 10
824.65747550502499
 20
950.9689621876305
 11
896.68534190583784
 21
1075.7248863546215
  0
LINE
  8
_0-d_断熱__ハッチ
  6
CONTINUOUS
 62
    4
 10
977.5352746766788
 20
573.69862898099882
 11
978.20320783067871
 21
574.36656213499759
  0
ARC
  8
_0-1_線色１__水色__
  6
CONTINUOUS
 62
    4
 10
981.85951951686036
 20
577.82489547421164
 40
1.2083333333333581
 50
307.52351320333912
 51
232.47648680464988
  0
ARC
  8
_0-1_線色１__水色__
  6
CONTINUOUS
 62
    4
 10
983.33147966133708
 20
575.90822880761266
 40
1.2083333333333177
 50
127.52351320610693
 51
52.47648680188081
  0
ARC
  8
_0-1_線色１__水色__
  6
CONTINUOUS
 62
    4
 10
978.91559922817748
 20
577.82489547400701
 40
1.2083333333333581
 50
307.52351320333912
 51
232.47648680464988
  0
ARC
  8
_0-1_線色１__水色__
  6
CONTINUOUS
 62
    4
 10
980.38755937265194
 20
575.90822880740689
 40
1.2083333333333177
 50
127.52351320610693
 51
52.47648680188081
  0
ARC
  8
_0-1_線色１__水色__
  6
CONTINUOUS
 62
    4
 10
984.80343980554551
 20
577.82489547257001
 40
1.2083333333333581
 50
307.52351320333912
 51
232.47648680464988
  0
ARC
  8
_0-1_線色１__水色__
  6
CONTINUOUS
 62
    4
 10
977.44363908396906
 20
575.90822880720225
 40
1.2083333333333177
 50
274.34927864426766
 51
52.476486801880824
  0
LINE
  8
_0-2_線色２__白__
  6
CONTINUOUS
 62
    7
 10
1035.8346661147352
 20
580.23120279850673
 11
1036.8496790675517
 21
579.36656213499759
  0
LINE
  8
_0-4_線色４__黄__
  6
CONTINUOUS
 62
    2
 10
1036.4801981880892
 20
592.81771092192344
 11
1040.5315467640453
 21
589.36656213499759
  0
LINE
  8
_0-4_線色４__黄__
  6
CONTINUOUS
 62
    2
 10
989.19458807130638
 20
592.81771092192344
 11
1036.4801981880892
 21
592.81771092192344
  0
LINE
  8
_0-4_線色４__黄__
  6
CONTINUOUS
 62
    2
 10
986.24016481226761
 20
595.2967663889217
 11
985.86717157561623
 21
597.41211615079237
  0
ARC
  8
_0-4_線色４__黄__
  6
CONTINUOUS
 62
    2
 10
989.19458807130638
 20
595.81771092192298
 40
3.0000000000000004
 50
190.00000000000517
 51
270
  0
ARC
  8
_0-2_線色２__白__
  6
CONTINUOUS
 62
    7
 10
989.19458807130638
 20
595.81771092192298
 40
8
 50
190.00000000000517
 51
270
  0
LINE
  8
_0-2_線色２__白__
  6
CONTINUOUS
 62
    7
 10
1040.5315467640453
 20
589.36656213499759
 11
1040.5497655515701
 21
589.49746708167822
  0
LINE
  8
_0-2_線色２__白__
  6
CONTINUOUS
 62
    7
 10
1040.5497655515701
 20
589.49746708167822
 11
1040.5828323312307
 21
589.72254101669705
  0
LINE
  8
_0-2_線色２__白__
  6
CONTINUOUS
 62
    7
 10
1040.5828323312307
 20
589.72254101669705
 11
1040.6204965470961
 21
589.94588092695494
  0
LINE
  8
_0-2_線色２__白__
  6
CONTINUOUS
 62
    7
 10
1040.6204965470961
 20
589.94588092695494
 11
1040.665667968919
 21
590.16638932842625
  0
LINE
  8
_0-2_線色２__白__
  6
CONTINUOUS
 62
    7
 10
1040.665667968919
 20
590.16638932842625
 11
1040.721256366448
 21
590.38296873708418
  0
LINE
  8
_0-2_線色２__白__
  6
CONTINUOUS
 62
    7
 10
1040.721256366448
 20
590.38296873708418
 11
1040.7901715094404
 21
590.59452166890424
  0
LINE
  8
_0-2_線色２__白__
  6
CONTINUOUS
 62
    7
 10
1040.7901715094404
 20
590.59452166890424
 11
1040.8373952077313
 21
590.71448677189665
  0
LINE
  8
_0-2_線色２__白__
  6
CONTINUOUS
 62
    7
 10
1040.8373952077313
 20
590.71448677189665
 11
1040.8783362689946
 21
590.80660361148603
  0
LINE
  8
_0-2_線色２__白__
  6
CONTINUOUS
 62
    7
 10
1040.8783362689946
 20
590.80660361148603
 11
1040.9567514416763
 21
590.96231791450009
  0
LINE
  8
_0-2_線色２__白__
  6
CONTINUOUS
 62
    7
 10
1040.9567514416763
 20
590.96231791450009
 11
1041.0438584560025
 21
591.11432151737972
  0
LINE
  8
_0-2_線色２__白__
  6
CONTINUOUS
 62
    7
 10
1041.0438584560025
 20
591.11432151737972
 11
1041.1382434451498
 21
591.26287403318088
  0
LINE
  8
_0-2_線色２__白__
  6
CONTINUOUS
 62
    7
 10
1041.1382434451498
 20
591.26287403318088
 11
1041.2384925422948
 21
591.4082350749527
  0
LINE
  8
_0-2_線色２__白__
  6
CONTINUOUS
 62
    7
 10
1041.2384925422948
 20
591.4082350749527
 11
1041.3431918806118
 21
591.55066425574887
  0
LINE
  8
_0-2_線色２__白__
  6
CONTINUOUS
 62
    7
 10
1041.3431918806118
 20
591.55066425574887
 11
1041.4053994602928
 21
591.63203210295364
  0
LINE
  8
_0-2_線色２__白__
  6
CONTINUOUS
 62
    7
 10
1041.4053994602928
 20
591.63203210295364
 11
1041.4796157342262
 21
591.72671569575641
  0
LINE
  8
_0-2_線色２__白__
  6
CONTINUOUS
 62
    7
 10
1041.4796157342262
 20
591.72671569575641
 11
1041.6098406743295
 21
591.88743448961759
  0
LINE
  8
_0-2_線色２__白__
  6
CONTINUOUS
 62
    7
 10
1041.6098406743295
 20
591.88743448961759
 11
1041.7426924935507
 21
592.0453012520079
  0
LINE
  8
_0-2_線色２__白__
  6
CONTINUOUS
 62
    7
 10
1041.7426924935507
 20
592.0453012520079
 11
1041.8778906316784
 21
592.20072174547454
  0
LINE
  8
_0-2_線色２__白__
  6
CONTINUOUS
 62
    7
 10
1041.8778906316784
 20
592.20072174547454
 11
1042.015154528503
 21
592.35410173256241
  0
LINE
  8
_0-2_線色２__白__
  6
CONTINUOUS
 62
    7
 10
1042.015154528503
 20
592.35410173256241
 11
1042.1542036238106
 21
592.50584697581644
  0
LINE
  8
_0-2_線色２__白__
  6
CONTINUOUS
 62
    7
 10
1042.1542036238106
 20
592.50584697581644
 11
1042.235559521725
 21
592.59327006882359
  0
LINE
  8
_0-2_線色２__白__
  6
CONTINUOUS
 62
    7
 10
1042.235559521725
 20
592.59327006882359
 11
1042.3211945951398
 21
592.68434024322232
  0
LINE
  8
_0-2_線色２__白__
  6
CONTINUOUS
 62
    7
 10
1042.3211945951398
 20
592.68434024322232
 11
1042.470391953445
 21
592.84004199205469
  0
LINE
  8
_0-2_線色２__白__
  6
CONTINUOUS
 62
    7
 10
1042.470391953445
 20
592.84004199205469
 11
1042.622142167017
 21
592.99338797045493
  0
LINE
  8
_0-2_線色２__白__
  6
CONTINUOUS
 62
    7
 10
1042.622142167017
 20
592.99338797045493
 11
1042.7771312465184
 21
593.14357560937538
  0
LINE
  8
_0-2_線色２__白__
  6
CONTINUOUS
 62
    7
 10
1042.7771312465184
 20
593.14357560937538
 11
1042.9360452026249
 21
593.2898023397729
  0
LINE
  8
_0-2_線色２__白__
  6
CONTINUOUS
 62
    7
 10
1042.9360452026249
 20
593.2898023397729
 11
1043.099570046008
 21
593.43126559260099
  0
LINE
  8
_0-2_線色２__白__
  6
CONTINUOUS
 62
    7
 10
1043.099570046008
 20
593.43126559260099
 11
1043.1967974875938
 21
593.51081539988172
  0
LINE
  8
_0-2_線色２__白__
  6
CONTINUOUS
 62
    7
 10
1043.1967974875938
 20
593.51081539988172
 11
1043.2844511871344
 21
593.57954075237785
  0
LINE
  8
_0-2_線色２__白__
  6
CONTINUOUS
 62
    7
 10
1043.2844511871344
 20
593.57954075237785
 11
1043.4390642870558
 21
593.69375352017755
  0
LINE
  8
_0-2_線色２__白__
  6
CONTINUOUS
 62
    7
 10
1043.4390642870558
 20
593.69375352017755
 11
1043.5980294302472
 21
593.80172620910798
  0
LINE
  8
_0-2_線色２__白__
  6
CONTINUOUS
 62
    7
 10
1043.5980294302472
 20
593.80172620910798
 11
1043.7612760874727
 21
593.90250144053425
  0
LINE
  8
_0-2_線色２__白__
  6
CONTINUOUS
 62
    7
 10
1043.7612760874727
 20
593.90250144053425
 11
1043.9287337295054
 21
593.99512183582146
  0
LINE
  8
_0-2_線色２__白__
  6
CONTINUOUS
 62
    7
 10
1043.9287337295054
 20
593.99512183582146
 11
1044.1003318271073
 21
594.07863001633245
  0
LINE
  8
_0-2_線色２__白__
  6
CONTINUOUS
 62
    7
 10
1044.1003318271073
 20
594.07863001633245
 11
1044.2017280882756
 21
594.12251228725268
  0
LINE
  8
_0-2_線色２__白__
  6
CONTINUOUS
 62
    7
 10
1044.2017280882756
 20
594.12251228725268
 11
1044.3156335810154
 21
594.16704100051675
  0
LINE
  8
_0-2_線色２__白__
  6
CONTINUOUS
 62
    7
 10
1044.3156335810154
 20
594.16704100051675
 11
1044.5155220388706
 21
594.23435162893043
  0
LINE
  8
_0-2_線色２__白__
  6
CONTINUOUS
 62
    7
 10
1044.5155220388706
 20
594.23435162893043
 11
1044.719224137727
 21
594.29095518042914
  0
LINE
  8
_0-2_線色２__白__
  6
CONTINUOUS
 62
    7
 10
1044.719224137727
 20
594.29095518042914
 11
1044.9260232145361
 21
594.33833005415863
  0
LINE
  8
_0-2_線色２__白__
  6
CONTINUOUS
 62
    7
 10
1044.9260232145361
 20
594.33833005415863
 11
1045.135202606245
 21
594.37795464926808
  0
LINE
  8
_0-2_線色２__白__
  6
CONTINUOUS
 62
    7
 10
1045.135202606245
 20
594.37795464926808
 11
1045.3460456498005
 21
594.41130736490436
  0
LINE
  8
_0-2_線色２__白__
  6
CONTINUOUS
 62
    7
 10
1045.3460456498005
 20
594.41130736490436
 11
1045.4688144978327
 21
594.42836073093872
  0
LINE
  8
_0-2_線色２__白__
  6
CONTINUOUS
 62
    7
 10
1045.4688144978327
 20
594.42836073093872
 11
1045.6172714679151
 21
594.44707773020582
  0
LINE
  8
_0-2_線色２__白__
  6
CONTINUOUS
 62
    7
 10
1045.6172714679151
 20
594.44707773020582
 11
1045.8735917331996
 21
594.47398449129537
  0
LINE
  8
_0-2_線色２__白__
  6
CONTINUOUS
 62
    7
 10
1045.8735917331996
 20
594.47398449129537
 11
1046.1299870617809
 21
594.49284273859462
  0
LINE
  8
_0-2_線色２__白__
  6
CONTINUOUS
 62
    7
 10
1046.1299870617809
 20
594.49284273859462
 11
1046.3860148984118
 21
594.50218882978106
  0
LINE
  8
_0-2_線色２__白__
  6
CONTINUOUS
 62
    7
 10
1046.3860148984118
 20
594.50218882978106
 11
1046.6412326878453
 21
594.50055912253447
  0
LINE
  8
_0-2_線色２__白__
  6
CONTINUOUS
 62
    7
 10
1046.6412326878453
 20
594.50055912253447
 11
1046.8951978748391
 21
594.4864899745312
  0
LINE
  8
_0-2_線色２__白__
  6
CONTINUOUS
 62
    7
 10
1046.8951978748391
 20
594.4864899745312
 11
1047.0417493510736
 21
594.47205336575053
  0
LINE
  8
_0-2_線色２__白__
  6
CONTINUOUS
 62
    7
 10
1047.0417493510736
 20
594.47205336575053
 11
1047.1490935426409
 21
594.45836357966527
  0
LINE
  8
_0-2_線色２__白__
  6
CONTINUOUS
 62
    7
 10
1047.1490935426409
 20
594.45836357966527
 11
1047.3335436034104
 21
594.42940394842481
  0
LINE
  8
_0-2_線色２__白__
  6
CONTINUOUS
 62
    7
 10
1047.3335436034104
 20
594.42940394842481
 11
1047.5175144608484
 21
594.39508846688568
  0
LINE
  8
_0-2_線色２__白__
  6
CONTINUOUS
 62
    7
 10
1047.5175144608484
 20
594.39508846688568
 11
1047.7013704967085
 21
594.35707364085829
  0
LINE
  8
_0-2_線色２__白__
  6
CONTINUOUS
 62
    7
 10
1047.7013704967085
 20
594.35707364085829
 11
1047.8854760927284
 21
594.31701597615302
  0
LINE
  8
_0-2_線色２__白__
  6
CONTINUOUS
 62
    7
 10
1047.8854760927284
 20
594.31701597615302
 11
1048.0701956306548
 21
594.27657197857684
  0
LINE
  8
_0-2_線色２__白__
  6
CONTINUOUS
 62
    7
 10
1048.0701956306548
 20
594.27657197857684
 11
1048.1777578561941
 21
594.25359019169036
  0
LINE
  8
_0-2_線色２__白__
  6
CONTINUOUS
 62
    7
 10
1048.1777578561941
 20
594.25359019169036
 11
1048.2998690875202
 21
594.22831647019166
  0
LINE
  8
_0-2_線色２__白__
  6
CONTINUOUS
 62
    7
 10
1048.2998690875202
 20
594.22831647019166
 11
1048.5106671110834
 21
594.18496695395675
  0
LINE
  8
_0-2_線色２__白__
  6
CONTINUOUS
 62
    7
 10
1048.5106671110834
 20
594.18496695395675
 11
1048.7203723349212
 21
594.13883379580739
  0
LINE
  8
_0-2_線色２__白__
  6
CONTINUOUS
 62
    7
 10
1048.7203723349212
 20
594.13883379580739
 11
1048.9273292841899
 21
594.08634775410405
  0
LINE
  8
_0-2_線色２__白__
  6
CONTINUOUS
 62
    7
 10
1048.9273292841899
 20
594.08634775410405
 11
1049.129882484046
 21
594.02393958720609
  0
LINE
  8
_0-2_線色２__白__
  6
CONTINUOUS
 62
    7
 10
1049.129882484046
 20
594.02393958720609
 11
1049.3263764596436
 21
593.94804005347169
  0
LINE
  8
_0-2_線色２__白__
  6
CONTINUOUS
 62
    7
 10
1049.3263764596436
 20
593.94804005347169
 11
1049.4369142857631
 21
593.89643011281464
  0
LINE
  8
_0-2_線色２__白__
  6
CONTINUOUS
 62
    7
 10
1049.4369142857631
 20
593.89643011281464
 11
1049.536236516944
 21
593.84334464089079
  0
LINE
  8
_0-2_線色２__白__
  6
CONTINUOUS
 62
    7
 10
1049.536236516944
 20
593.84334464089079
 11
1049.7016604321352
 21
593.74005835979233
  0
LINE
  8
_0-2_線色２__白__
  6
CONTINUOUS
 62
    7
 10
1049.7016604321352
 20
593.74005835979233
 11
1049.8597120034919
 21
593.62350872806019
  0
LINE
  8
_0-2_線色２__白__
  6
CONTINUOUS
 62
    7
 10
1049.8597120034919
 20
593.62350872806019
 11
1050.0103870499124
 21
593.49558205474636
  0
LINE
  8
_0-2_線色２__白__
  6
CONTINUOUS
 62
    7
 10
1050.0103870499124
 20
593.49558205474636
 11
1050.1536813902767
 21
593.35816464889945
  0
LINE
  8
_0-2_線色２__白__
  6
CONTINUOUS
 62
    7
 10
1050.1536813902767
 20
593.35816464889945
 11
1050.2895908434807
 21
593.21314281956916
  0
LINE
  8
_0-2_線色２__白__
  6
CONTINUOUS
 62
    7
 10
1050.2895908434807
 20
593.21314281956916
 11
1050.3650329234661
 21
593.12628911557226
  0
LINE
  8
_0-2_線色２__白__
  6
CONTINUOUS
 62
    7
 10
1050.3650329234661
 20
593.12628911557226
 11
1050.4493279478374
 21
593.02372172758169
  0
LINE
  8
_0-2_線色２__白__
  6
CONTINUOUS
 62
    7
 10
1050.4493279478374
 20
593.02372172758169
 11
1050.5874998071063
 21
592.84243671784452
  0
LINE
  8
_0-2_線色２__白__
  6
CONTINUOUS
 62
    7
 10
1050.5874998071063
 20
592.84243671784452
 11
1050.7176100741272
 21
592.65621204322429
  0
LINE
  8
_0-2_線色２__白__
  6
CONTINUOUS
 62
    7
 10
1050.7176100741272
 20
592.65621204322429
 11
1050.8408299761113
 21
592.46584598213531
  0
LINE
  8
_0-2_線色２__白__
  6
CONTINUOUS
 62
    7
 10
1050.8408299761113
 20
592.46584598213531
 11
1050.9583307402813
 21
592.2721368129919
  0
LINE
  8
_0-2_線色２__白__
  6
CONTINUOUS
 62
    7
 10
1050.9583307402813
 20
592.2721368129919
 11
1051.0712835938484
 21
592.0758828142084
  0
LINE
  8
_0-2_線色２__白__
  6
CONTINUOUS
 62
    7
 10
1051.0712835938484
 20
592.0758828142084
 11
1051.1351739207084
 21
591.96120401717963
  0
LINE
  8
_0-2_線色２__白__
  6
CONTINUOUS
 62
    7
 10
1051.1351739207084
 20
591.96120401717963
 11
1051.2024412882165
 21
591.83813742504412
  0
LINE
  8
_0-2_線色２__白__
  6
CONTINUOUS
 62
    7
 10
1051.2024412882165
 20
591.83813742504412
 11
1051.3164225294231
 21
591.62493066867569
  0
LINE
  8
_0-2_線色２__白__
  6
CONTINUOUS
 62
    7
 10
1051.3164225294231
 20
591.62493066867569
 11
1051.428537077788
 21
591.41063366913841
  0
LINE
  8
_0-2_線色２__白__
  6
CONTINUOUS
 62
    7
 10
1051.428537077788
 20
591.41063366913841
 11
1051.5395536870365
 21
591.19548440806511
  0
LINE
  8
_0-2_線色２__白__
  6
CONTINUOUS
 62
    7
 10
1051.5395536870365
 20
591.19548440806511
 11
1051.6502411108941
 21
590.9797208670841
  0
LINE
  8
_0-2_線色２__白__
  6
CONTINUOUS
 62
    7
 10
1051.6502411108941
 20
590.9797208670841
 11
1051.7613681030907
 21
590.7635810278282
  0
LINE
  8
_0-2_線色２__白__
  6
CONTINUOUS
 62
    7
 10
1051.7613681030907
 20
590.7635810278282
 11
1051.8263260977228
 21
590.63814127832757
  0
LINE
  8
_0-2_線色２__白__
  6
CONTINUOUS
 62
    7
 10
1051.8263260977228
 20
590.63814127832757
 11
1051.914739551898
 21
590.46931309532056
  0
LINE
  8
_0-2_線色２__白__
  6
CONTINUOUS
 62
    7
 10
1051.914739551898
 20
590.46931309532056
 11
1052.0712443678276
 21
590.17991732943301
  0
LINE
  8
_0-2_線色２__白__
  6
CONTINUOUS
 62
    7
 10
1052.0712443678276
 20
590.17991732943301
 11
1052.2354659610546
 21
589.8952091531828
  0
LINE
  8
_0-2_線色２__白__
  6
CONTINUOUS
 62
    7
 10
1052.2354659610546
 20
589.8952091531828
 11
1052.4103899484403
 21
589.61815572516457
  0
LINE
  8
_0-2_線色２__白__
  6
CONTINUOUS
 62
    7
 10
1052.4103899484403
 20
589.61815572516457
 11
1052.5990019468391
 21
589.35172420397748
  0
LINE
  8
_0-2_線色２__白__
  6
CONTINUOUS
 62
    7
 10
1052.5990019468391
 20
589.35172420397748
 11
1052.8042875731144
 21
589.09888174822072
  0
LINE
  8
_0-2_線色２__白__
  6
CONTINUOUS
 62
    7
 10
1052.8042875731144
 20
589.09888174822072
 11
1052.9321695809422
 21
588.95962884843925
  0
LINE
  8
_0-2_線色２__白__
  6
CONTINUOUS
 62
    7
 10
1052.9321695809422
 20
588.95962884843925
 11
1052.9783847532481
 21
588.91252384252994
  0
LINE
  8
_0-2_線色２__白__
  6
CONTINUOUS
 62
    7
 10
1052.9783847532481
 20
588.91252384252994
 11
1053.060084014789
 21
588.83317874749423
  0
LINE
  8
_0-2_線色２__白__
  6
CONTINUOUS
 62
    7
 10
1053.060084014789
 20
588.83317874749423
 11
1053.1442864071159
 21
588.75637863805196
  0
LINE
  8
_0-2_線色２__白__
  6
CONTINUOUS
 62
    7
 10
1053.1442864071159
 20
588.75637863805196
 11
1053.2309323826139
 21
588.68232973472686
  0
LINE
  8
_0-2_線色２__白__
  6
CONTINUOUS
 62
    7
 10
1053.2309323826139
 20
588.68232973472686
 11
1053.3199623936498
 21
588.61123825803702
  0
LINE
  8
_0-2_線色２__白__
  6
CONTINUOUS
 62
    7
 10
1053.3199623936498
 20
588.61123825803702
 11
1053.4113168925996
 21
588.54331042850731
  0
LINE
  8
_0-2_線色２__白__
  6
CONTINUOUS
 62
    7
 10
1053.4113168925996
 20
588.54331042850731
 11
1053.465344117496
 21
588.50544313211685
  0
LINE
  8
_0-2_線色２__白__
  6
CONTINUOUS
 62
    7
 10
1053.465344117496
 20
588.50544313211685
 11
1053.5549455285827
 21
588.44615044173906
  0
LINE
  8
_0-2_線色２__白__
  6
CONTINUOUS
 62
    7
 10
1053.5549455285827
 20
588.44615044173906
 11
1053.7131369727531
 21
588.34973717754337
  0
LINE
  8
_0-2_線色２__白__
  6
CONTINUOUS
 62
    7
 10
1053.7131369727531
 20
588.34973717754337
 11
1053.8745482597842
 21
588.25840876847337
  0
LINE
  8
_0-2_線色２__白__
  6
CONTINUOUS
 62
    7
 10
1053.8745482597842
 20
588.25840876847337
 11
1054.0374682080774
 21
588.1695180600218
  0
LINE
  8
_0-2_線色２__白__
  6
CONTINUOUS
 62
    7
 10
1054.0374682080774
 20
588.1695180600218
 11
1054.2001856360339
 21
588.08041789768595
  0
LINE
  8
_0-2_線色２__白__
  6
CONTINUOUS
 62
    7
 10
1054.2001856360339
 20
588.08041789768595
 11
1054.360989362046
 21
587.98846112696083
  0
LINE
  8
_0-2_線色２__白__
  6
CONTINUOUS
 62
    7
 10
1054.360989362046
 20
587.98846112696083
 11
1054.4527043703711
 21
587.93277418544903
  0
LINE
  8
_0-2_線色２__白__
  6
CONTINUOUS
 62
    7
 10
1054.4527043703711
 20
587.93277418544903
 11
1054.5451153627682
 21
587.87340941557773
  0
LINE
  8
_0-2_線色２__白__
  6
CONTINUOUS
 62
    7
 10
1054.5451153627682
 20
587.87340941557773
 11
1054.7010583649235
 21
587.76590765380888
  0
LINE
  8
_0-2_線色２__白__
  6
CONTINUOUS
 62
    7
 10
1054.7010583649235
 20
587.76590765380888
 11
1054.853380907145
 21
587.65292446384024
  0
LINE
  8
_0-2_線色２__白__
  6
CONTINUOUS
 62
    7
 10
1054.853380907145
 20
587.65292446384024
 11
1055.0028573958793
 21
587.53566441144585
  0
LINE
  8
_0-2_線色２__白__
  6
CONTINUOUS
 62
    7
 10
1055.0028573958793
 20
587.53566441144585
 11
1055.1502622375729
 21
587.41533206239751
  0
LINE
  8
_0-2_線色２__白__
  6
CONTINUOUS
 62
    7
 10
1055.1502622375729
 20
587.41533206239751
 11
1055.2963698386675
 21
587.29313198247155
  0
LINE
  8
_0-2_線色２__白__
  6
CONTINUOUS
 62
    7
 10
1055.2963698386675
 20
587.29313198247155
 11
1055.380823008074
 21
587.2218748033788
  0
LINE
  8
_0-2_線色２__白__
  6
CONTINUOUS
 62
    7
 10
1055.380823008074
 20
587.2218748033788
 11
1055.4866648716888
 21
587.13239421947833
  0
LINE
  8
_0-2_線色２__白__
  6
CONTINUOUS
 62
    7
 10
1055.4866648716888
 20
587.13239421947833
 11
1055.6682376499994
 21
586.9773111656832
  0
LINE
  8
_0-2_線色２__白__
  6
CONTINUOUS
 62
    7
 10
1055.6682376499994
 20
586.9773111656832
 11
1055.8474123026253
 21
586.81992199744172
  0
LINE
  8
_0-2_線色２__白__
  6
CONTINUOUS
 62
    7
 10
1055.8474123026253
 20
586.81992199744172
 11
1056.0227444288485
 21
586.65873179951632
  0
LINE
  8
_0-2_線色２__白__
  6
CONTINUOUS
 62
    7
 10
1056.0227444288485
 20
586.65873179951632
 11
1056.1927896279594
 21
586.49224565666714
  0
LINE
  8
_0-2_線色２__白__
  6
CONTINUOUS
 62
    7
 10
1056.1927896279594
 20
586.49224565666714
 11
1056.3561034992399
 21
586.31896865365661
  0
LINE
  8
_0-2_線色２__白__
  6
CONTINUOUS
 62
    7
 10
1056.3561034992399
 20
586.31896865365661
 11
1056.4471720811771
 21
586.21476734544672
  0
LINE
  8
_0-2_線色２__白__
  6
CONTINUOUS
 62
    7
 10
1056.4471720811771
 20
586.21476734544672
 11
1056.4988313538147
 21
586.15268006992324
  0
LINE
  8
_0-2_線色２__白__
  6
CONTINUOUS
 62
    7
 10
1056.4988313538147
 20
586.15268006992324
 11
1056.585156464118
 21
586.04320733008649
  0
LINE
  8
_0-2_線色２__白__
  6
CONTINUOUS
 62
    7
 10
1056.585156464118
 20
586.04320733008649
 11
1056.6675163362534
 21
585.93070607232676
  0
LINE
  8
_0-2_線色２__白__
  6
CONTINUOUS
 62
    7
 10
1056.6675163362534
 20
585.93070607232676
 11
1056.7453370269977
 21
585.81522513961545
  0
LINE
  8
_0-2_線色２__白__
  6
CONTINUOUS
 62
    7
 10
1056.7453370269977
 20
585.81522513961545
 11
1056.8180445931416
 21
585.69681337492284
  0
LINE
  8
_0-2_線色２__白__
  6
CONTINUOUS
 62
    7
 10
1056.8180445931416
 20
585.69681337492284
 11
1056.885065091471
 21
585.5755196212192
  0
LINE
  8
_0-2_線色２__白__
  6
CONTINUOUS
 62
    7
 10
1056.885065091471
 20
585.5755196212192
 11
1056.9211050025588
 21
585.50386796337648
  0
LINE
  8
_0-2_線色２__白__
  6
CONTINUOUS
 62
    7
 10
1056.9211050025588
 20
585.50386796337648
 11
1056.9677568559173
 21
585.40239207232617
  0
LINE
  8
_0-2_線色２__白__
  6
CONTINUOUS
 62
    7
 10
1056.9677568559173
 20
585.40239207232617
 11
1057.0392436142647
 21
585.22362769327628
  0
LINE
  8
_0-2_線色２__白__
  6
CONTINUOUS
 62
    7
 10
1057.0392436142647
 20
585.22362769327628
 11
1057.1011949528902
 21
585.04080727512701
  0
LINE
  8
_0-2_線色２__白__
  6
CONTINUOUS
 62
    7
 10
1057.1011949528902
 20
585.04080727512701
 11
1057.1556928411583
 21
584.85481641593765
  0
LINE
  8
_0-2_線色２__白__
  6
CONTINUOUS
 62
    7
 10
1057.1556928411583
 20
584.85481641593765
 11
1057.2048192484472
 21
584.66654071376297
  0
LINE
  8
_0-2_線色２__白__
  6
CONTINUOUS
 62
    7
 10
1057.2048192484472
 20
584.66654071376297
 11
1057.2506561441214
 21
584.47686576665888
  0
LINE
  8
_0-2_線色２__白__
  6
CONTINUOUS
 62
    7
 10
1057.2506561441214
 20
584.47686576665888
 11
1057.2765546935916
 21
584.36656213499759
  0
LINE
  8
_0-4_線色４__黄__
  6
CONTINUOUS
 62
    2
 10
1040.5315467640453
 20
589.36656213499759
 11
1046.5286788309795
 21
589.36656213499759
  0
LINE
  8
_0-2_線色２__白__
  6
CONTINUOUS
 62
    7
 10
990.91532260602605
 20
587.81771092192344
 11
990.91532260602605
 21
582.81771092192344
  0
LINE
  8
_0-2_線色２__白__
  6
CONTINUOUS
 62
    7
 10
989.19458807130638
 20
587.81771092192344
 11
1034.6392643398412
 21
587.81771092192344
  0
LINE
  8
_0-2_線色２__白__
  6
CONTINUOUS
 62
    7
 10
1034.6392643398412
 20
587.81771092192344
 11
1038.6906129157996
 21
584.36656213499759
  0
LINE
  8
_0-2_線色２__白__
  6
CONTINUOUS
 62
    7
 10
1038.6906129157996
 20
584.36656213499759
 11
1046.5286788309795
 21
584.36656213499759
  0
LINE
  8
_0-2_線色２__白__
  6
CONTINUOUS
 62
    7
 10
978.42320276475618
 20
600.62491827471831
 11
977.5352746766788
 21
601.60163917160162
  0
ARC
  8
_0-4_線色４__黄__
  6
CONTINUOUS
 62
    2
 10
975.32972861838687
 20
595.55408064975495
 40
10.700000000000003
 50
10.000000000005956
 51
42.273689006123831
  0
LINE
  8
_0-4_線色４__黄__
  6
CONTINUOUS
 62
    2
 10
1046.5286788309795
 20
589.36656213499759
 11
1046.5286788309795
 21
584.36656213499759
  0
LINE
  8
_0-4_線色４__黄__
  6
CONTINUOUS
 62
    2
 10
982.53527467668107
 20
603.53467354525947
 11
982.53527467668107
 21
907.14835520376255
  0
LINE
  8
_0-4_線色４__黄__
  6
CONTINUOUS
 62
    2
 10
983.24708740371932
 20
602.75167954551989
 11
982.53527467668107
 21
603.53467354525947
  0
LINE
  8
_0-a_文字
  6
CONTINUOUS
 62
    7
 10
1170.1687838049993
 20
659.36656213499759
 11
1190.1687838049993
 21
659.36656213499759
  0
TEXT
  8
_0-a_文字
 62
    7
 10
1195.1687838049997
 20
626.86656213499771
 40
14.999999999999858
 41
1.0000000000000171
 50
0
  1
ラジアルシートＬ６００
  0
LINE
  8
_0-a_文字
  6
CONTINUOUS
 62
    7
 10
1141.3012703455179
 20
609.36656213499759
 11
1190.1687838049993
 21
609.36656213499759
  0
LINE
  8
_0-a_文字
  6
CONTINUOUS
 62
    7
 10
1155.7350270752586
 20
634.36656213499759
 11
1190.1687838049993
 21
634.36656213499759
  0
TEXT
  8
_0-a_文字
 62
    7
 10
1195.168783805
 20
601.86656213499771
 40
14.999999999999858
 41
0.9999999999999759
 50
0
  1
断熱材
  0
TEXT
  8
_0-a_文字
 62
    7
 10
1127.1334422288692
 20
676.86656213499873
 40
14.999999999999858
 41
0.9999999999999981
 50
0
  1
プルーフシーラー
  0
LINE
  8
_0-a_文字
  6
CONTINUOUS
 62
    7
 10
1102.1334422288687
 20
684.36656213499873
 11
1122.1334422288687
 21
684.36656213499873
  0
TEXT
  8
_0-a_文字
 62
    7
 10
1195.1687838049986
 20
651.86656213499646
 40
14.999999999999858
 41
1.0000000000000144
 50
0
  1
塩ビシート機械的固定工法
  0
LINE
  8
_0-a_文字
  6
CONTINUOUS
 62
    7
 10
1083.1195196815197
 20
709.36656213499873
 11
1103.1195196815197
 21
709.36656213499873
  0
TEXT
  8
_0-a_文字
 62
    7
 10
1108.1195196815224
 20
701.86656213499873
 40
14.999999999999858
 41
1.0000000000000202
 50
0
  1
ＢＰ－Ｈ３Ｎ
  0
LINE
  8
_0-a_文字
  6
CONTINUOUS
 62
    7
 10
1110.9903812130638
 20
556.86656213499759
 11
1170.1687838049993
 21
659.36656213499759
  0
LINE
  8
_0-a_文字
  6
CONTINUOUS
 62
    7
 10
1048.4215923969937
 20
591.33490925768115
 11
1102.1334422288687
 21
684.36656213499873
  0
LINE
  8
_0-a_文字
  6
CONTINUOUS
 62
    7
 10
1010.0565063680159
 20
582.81771092192116
 11
1083.1195196815197
 21
709.36656213499873
  0
LINE
  8
_0-a_文字
  6
CONTINUOUS
 62
    7
 10
1012.5352746766856
 20
809.36656213499873
 11
1032.5352746766857
 21
809.36656213499873
  0
LINE
  8
_0-a_文字
  6
CONTINUOUS
 62
    7
 10
998.10151794694491
 20
784.36656213499873
 11
1032.5352746766857
 21
784.36656213499873
  0
TEXT
  8
_0-a_文字
 62
    7
 10
1037.5352746766848
 20
801.86656213499873
 40
14.999999999999858
 41
1.0000000000000173
 50
0
  1
塩ビシート機械的固定工法
  0
TEXT
  8
_0-a_文字
 62
    7
 10
1037.535274676686
 20
776.86656213499884
 40
14.999999999999503
 41
1.0000000000000295
 50
0
  1
硬質木毛セメント板 等（別途工事）
  0
LINE
  8
_0-a_文字
  6
CONTINUOUS
 62
    7
 10
969.24521103576524
 20
734.38597244603443
 11
1012.5352746766856
 21
809.36656213499873
  0
LINE
  8
_0-6_鋼板__アングル
  6
CONTINUOUS
 62
    2
 10
824.53527467667698
 20
940.56656213499764
 11
824.53527467667698
 21
939.36656213499646
  0
LINE
  8
_0-6_鋼板__アングル
  6
CONTINUOUS
 62
    2
 10
977.5352746766788
 20
939.36656213499646
 11
824.53527467667698
 21
939.36656213499646
  0
LINE
  8
_0-6_鋼板__アングル
  6
CONTINUOUS
 62
    2
 10
978.73527467667998
 20
940.56656213499764
 11
824.53527467667698
 21
940.56656213499764
  0
LINE
  8
_0-6_鋼板__アングル
  6
CONTINUOUS
 62
    2
 10
978.73527467667998
 20
910.56656213499764
 11
977.5352746766788
 21
910.56656213499764
  0
LINE
  8
_0-6_鋼板__アングル
  6
CONTINUOUS
 62
    2
 10
977.5352746766788
 20
939.36656213499646
 11
977.5352746766788
 21
910.56656213499764
  0
LINE
  8
_0-6_鋼板__アングル
  6
CONTINUOUS
 62
    2
 10
978.73527467667998
 20
940.56656213499764
 11
978.73527467667998
 21
910.56656213499764
  0
LINE
  8
_0-6_鋼板__アングル
  6
CONTINUOUS
 62
    2
 10
959.53527467667925
 20
539.36656213499759
 11
1160.7352746766783
 21
539.36656213499759
  0
LINE
  8
_0-6_鋼板__アングル
  6
CONTINUOUS
 62
    2
 10
960.73527467667816
 20
540.56656213499764
 11
1160.7352746766783
 21
540.56656213499764
  0
LINE
  8
_0-6_鋼板__アングル
  6
CONTINUOUS
 62
    2
 10
1160.7352746766783
 20
539.36656213499759
 11
1160.7352746766783
 21
540.56656213499764
  0
LINE
  8
_0-6_鋼板__アングル
  6
CONTINUOUS
 62
    2
 10
959.53527467667925
 20
539.36656213499759
 11
959.53527467667925
 21
640.5665621349965
  0
LINE
  8
_0-6_鋼板__アングル
  6
CONTINUOUS
 62
    2
 10
959.53527467667925
 20
640.5665621349965
 11
960.73527467667816
 21
640.5665621349965
  0
LINE
  8
_0-6_鋼板__アングル
  6
CONTINUOUS
 62
    2
 10
960.73527467667816
 20
540.56656213499764
 11
960.73527467667816
 21
640.5665621349965
  0
LINE
  8
_0-6_鋼板__アングル
  6
CONTINUOUS
 62
    2
 10
816.2642068648114
 20
894.01771092192348
 11
817.46420686481031
 21
894.01771092192348
  0
LINE
  8
_0-6_鋼板__アングル
  6
CONTINUOUS
 62
    2
 10
817.46420686481031
 20
894.01771092192348
 11
824.53527467667698
 21
901.08877873379015
  0
LINE
  8
_0-6_鋼板__アングル
  6
CONTINUOUS
 62
    2
 10
823.68674653925325
 20
901.9373068712116
 11
824.53527467667698
 21
901.08877873379015
  0
LINE
  8
_0-6_鋼板__アングル
  6
CONTINUOUS
 62
    2
 10
817.46420686481031
 20
895.71476719677094
 11
823.68674653925325
 21
901.9373068712116
  0
LINE
  8
_0-6_鋼板__アングル
  6
CONTINUOUS
 62
    2
 10
817.46420686481031
 20
942.81771092191093
 11
817.46420686481031
 21
895.71476719677094
  0
LINE
  8
_0-6_鋼板__アングル
  6
CONTINUOUS
 62
    2
 10
816.2642068648114
 20
944.01771092192348
 11
816.2642068648114
 21
894.01771092192348
  0
LINE
  8
_0-6_鋼板__アングル
  6
CONTINUOUS
 62
    2
 10
877.11719371081642
 20
943.52000849577507
 11
874.51420686480958
 21
941.51771092192348
  0
LINE
  8
_0-6_鋼板__アングル
  6
CONTINUOUS
 62
    2
 10
865.4112200188041
 20
943.52000849577507
 11
868.01420686481094
 21
941.51771092192348
  0
LINE
  8
_0-6_鋼板__アングル
  6
CONTINUOUS
 62
    4
 10
878.58049953685565
 20
944.01771092192348
 11
863.94791419276487
 21
944.01771092192348
  0
LINE
  8
_0-6_鋼板__アングル
  6
CONTINUOUS
 62
    4
 10
868.01420686481094
 20
941.51771092192348
 11
874.51420686480958
 21
941.51771092192348
  0
LINE
  8
_0-6_鋼板__アングル
  6
CONTINUOUS
 62
    2
 10
874.51420686480958
 20
941.51771092192348
 11
875.24585977783033
 21
940.56656213499764
  0
LINE
  8
_0-6_鋼板__アングル
  6
CONTINUOUS
 62
    2
 10
868.01420686481094
 20
941.51771092192348
 11
867.28255395179019
 21
940.56656213499764
  0
LINE
  8
_0-6_鋼板__アングル
  6
CONTINUOUS
 62
    4
 10
867.28255395179019
 20
940.56656213499764
 11
875.24585977783033
 21
940.56656213499764
  0
LINE
  8
_0-6_鋼板__アングル
  6
CONTINUOUS
 62
    2
 10
877.84884662383718
 20
942.56885970884923
 11
875.24585977783033
 21
940.56656213499764
  0
LINE
  8
_0-6_鋼板__アングル
  6
CONTINUOUS
 62
    2
 10
864.67956710578562
 20
942.56885970884923
 11
867.28255395179019
 21
940.56656213499764
  0
LINE
  8
ADD_LINE
  6
DOT
 62
    4
 10
871.2642068648114
 20
955.57049962277233
 11
871.2642068648114
 21
921.38614343270774
  0
ARC
  8
_0-6_鋼板__アングル
  6
CONTINUOUS
 62
    2
 10
878.58049953685565
 20
941.61771092192339
 40
1.2
 50
90
 51
127.56859202882507
  0
ARC
  8
_0-6_鋼板__アングル
  6
CONTINUOUS
 62
    2
 10
878.58049953685565
 20
941.61771092192339
 40
2.3999999999999999
 50
90
 51
127.56859202882603
  0
ARC
  8
_0-6_鋼板__アングル
  6
CONTINUOUS
 62
    2
 10
863.94791419276487
 20
941.61771092192339
 40
1.2
 50
52.431407971171978
 51
90
  0
ARC
  8
_0-6_鋼板__アングル
  6
CONTINUOUS
 62
    2
 10
863.94791419276487
 20
941.61771092192339
 40
2.3999999999999999
 50
52.431407971173961
 51
90
  0
LINE
  8
_0-6_鋼板__アングル
  6
CONTINUOUS
 62
    2
 10
893.20646664701769
 20
942.4595757676525
 11
895.48604711809219
 21
940.51771092192439
  0
ARC
  8
_0-6_鋼板__アングル
  6
CONTINUOUS
 62
    2
 10
892.23376696361754
 20
941.31771092192366
 40
2.7000000000000002
 50
49.573921259901446
 51
90
  0
ARC
  8
_0-6_鋼板__アングル
  6
CONTINUOUS
 62
    2
 10
892.23376696361754
 20
941.31771092192366
 40
1.5000000000000002
 50
49.573921259901446
 51
90
  0
LINE
  8
_0-6_鋼板__アングル
  6
CONTINUOUS
 62
    2
 10
893.9846263937369
 20
943.37306764423602
 11
896.2642068648114
 21
941.43120279850791
  0
LINE
  8
_0-6_鋼板__アングル
  6
CONTINUOUS
 62
    2
 10
896.2642068648114
 20
941.43120279850791
 11
895.48604711809219
 21
940.51771092192439
  0
LINE
  8
_0-6_鋼板__アングル
  6
CONTINUOUS
 62
    2
 10
878.58049953685565
 20
942.81771092191093
 11
892.23376696361754
 21
942.81771092191093
  0
LINE
  8
_0-6_鋼板__アングル
  6
CONTINUOUS
 62
    2
 10
878.58049953685565
 20
944.01771092192348
 11
892.23376696361754
 21
944.01771092192348
  0
LINE
  8
_0-6_鋼板__アングル
  6
CONTINUOUS
 62
    2
 10
816.2642068648114
 20
944.01771092192348
 11
863.94791419276487
 21
944.01771092192348
  0
LINE
  8
_0-6_鋼板__アングル
  6
CONTINUOUS
 62
    2
 10
817.46420686481031
 20
942.81771092191093
 11
863.94791419276487
 21
942.81771092191093
  0
ARC
  8
_0-6_鋼板__アングル
  6
CONTINUOUS
 62
    2
 10
990.91532260602605
 20
591.81771092192321
 40
10.199999999999999
 50
190.00000000000003
 51
270
  0
ARC
  8
_0-6_鋼板__アングル
  6
CONTINUOUS
 62
    2
 10
990.91532260602605
 20
591.81771092192321
 40
9
 50
190.00000000000003
 51
270
  0
LINE
  8
_0-6_鋼板__アングル
  6
CONTINUOUS
 62
    2
 10
979.76136350694048
 20
596.33549744925631
 11
980.87028352530012
 21
590.04649950972066
  0
LINE
  8
_0-6_鋼板__アングル
  6
CONTINUOUS
 62
    2
 10
980.94313281055463
 20
596.54387526245728
 11
982.05205282891654
 21
590.25487732292049
  0
ARC
  8
_0-6_鋼板__アングル
  6
CONTINUOUS
 62
    2
 10
975.32972861838687
 20
595.55408064975495
 40
5.700000000000002
 50
10.000000000000218
 51
42.27368900609229
  0
ARC
  8
_0-6_鋼板__アングル
  6
CONTINUOUS
 62
    2
 10
975.32972861838687
 20
595.55408064975495
 40
4.5
 50
10.000000000000014
 51
42.27368900609229
  0
LINE
  8
_0-6_鋼板__アングル
  6
CONTINUOUS
 62
    2
 10
978.65945894866798
 20
598.58110822273829
 11
977.53527467668107
 21
599.81771092192275
  0
LINE
  8
_0-6_鋼板__アングル
  6
CONTINUOUS
 62
    2
 10
978.42320276475618
 20
600.62491827471831
 11
977.53527467668107
 21
599.81771092192275
  0
LINE
  8
_0-6_鋼板__アングル
  6
CONTINUOUS
 62
    2
 10
979.54738703674309
 20
599.38831557553385
 11
978.42320276475618
 21
600.62491827471831
  0
LINE
  8
_0-6_鋼板__アングル
  6
CONTINUOUS
 62
    2
 10
1032.7769258969392
 20
581.25957576765359
 11
1035.056506368016
 21
579.31771092192321
  0
ARC
  8
_0-6_鋼板__アングル
  6
CONTINUOUS
 62
    2
 10
1031.8042262135414
 20
580.11771092192362
 40
2.7000000000000002
 50
49.573921259901446
 51
90
  0
ARC
  8
_0-6_鋼板__アングル
  6
CONTINUOUS
 62
    2
 10
1031.8042262135414
 20
580.11771092192248
 40
1.5000000000000002
 50
49.573921259901446
 51
90
  0
LINE
  8
_0-6_鋼板__アングル
  6
CONTINUOUS
 62
    2
 10
1033.555085643663
 20
582.17306764423711
 11
1035.8346661147352
 21
580.23120279850673
  0
LINE
  8
_0-6_鋼板__アングル
  6
CONTINUOUS
 62
    2
 10
1035.8346661147352
 20
580.23120279850673
 11
1035.056506368016
 21
579.31771092192321
  0
LINE
  8
ADD_LINE
  6
DOT
 62
    4
 10
1010.0565063680159
 20
548.63866692192346
 11
1010.0565063680159
 21
588.55285812192392
  0
LINE
  8
_0-6_鋼板__アングル
  6
CONTINUOUS
 62
    2
 10
1004.2035195220086
 20
582.32000849577389
 11
1006.8065063680177
 21
580.31771092192344
  0
ARC
  8
_0-6_鋼板__アングル
  6
CONTINUOUS
 62
    2
 10
1002.7402136959716
 20
580.41771092192334
 40
2.3999999999999999
 50
52.431407971173961
 51
90
  0
LINE
  8
_0-6_鋼板__アングル
  6
CONTINUOUS
 62
    2
 10
1015.9094932140232
 20
582.32000849577389
 11
1013.3065063680141
 21
580.31771092192344
  0
ARC
  8
_0-6_鋼板__アングル
  6
CONTINUOUS
 62
    2
 10
1017.3727990400602
 20
580.41771092192334
 40
2.3999999999999999
 50
90
 51
127.56859202882603
  0
LINE
  8
_0-6_鋼板__アングル
  6
CONTINUOUS
 62
    4
 10
1002.7402136959716
 20
582.81771092192344
 11
1017.3727990400602
 21
582.81771092192344
  0
LINE
  8
_0-6_鋼板__アングル
  6
CONTINUOUS
 62
    4
 10
1013.3065063680141
 20
580.31771092192344
 11
1006.8065063680177
 21
580.31771092192344
  0
LINE
  8
_0-6_鋼板__アングル
  6
CONTINUOUS
 62
    2
 10
1006.8065063680177
 20
580.31771092192344
 11
1006.0748534549947
 21
579.36656213499759
  0
LINE
  8
_0-6_鋼板__アングル
  6
CONTINUOUS
 62
    2
 10
1013.3065063680141
 20
580.31771092192344
 11
1014.0381592810371
 21
579.36656213499759
  0
LINE
  8
_0-6_鋼板__アングル
  6
CONTINUOUS
 62
    4
 10
1014.0381592810371
 20
579.36656213499759
 11
1006.0748534549947
 21
579.36656213499759
  0
LINE
  8
_0-6_鋼板__アングル
  6
CONTINUOUS
 62
    2
 10
1003.4718666089901
 20
581.36885970884805
 11
1006.0748534549947
 21
579.36656213499759
  0
ARC
  8
_0-6_鋼板__アングル
  6
CONTINUOUS
 62
    2
 10
1002.7402136959716
 20
580.41771092192334
 40
1.2
 50
52.431407971174927
 51
90
  0
LINE
  8
_0-6_鋼板__アングル
  6
CONTINUOUS
 62
    2
 10
1016.6411461270417
 20
581.36885970884805
 11
1014.0381592810371
 21
579.36656213499759
  0
ARC
  8
_0-6_鋼板__アングル
  6
CONTINUOUS
 62
    2
 10
1017.3727990400602
 20
580.41771092192334
 40
1.2
 50
89.999999999999943
 51
127.56859202882802
  0
LINE
  8
_0-6_鋼板__アングル
  6
CONTINUOUS
 62
    2
 10
990.91532260602605
 20
582.81771092192344
 11
1002.7402136959716
 21
582.81771092192344
  0
LINE
  8
_0-6_鋼板__アングル
  6
CONTINUOUS
 62
    2
 10
1017.3727990400602
 20
582.81771092192344
 11
1031.8042262135414
 21
582.81771092192344
  0
LINE
  8
_0-6_鋼板__アングル
  6
CONTINUOUS
 62
    2
 10
990.91532260602605
 20
581.61771092192339
 11
1002.7402136959716
 21
581.61771092192339
  0
LINE
  8
_0-6_鋼板__アングル
  6
CONTINUOUS
 62
    2
 10
1017.3727990400602
 20
581.61771092192339
 11
1031.8042262135414
 21
581.61771092192339
  0
POINT
  8
_0-b_寸法
 62
    1
 10
744.53527467667698
 20
574.3667613850107
  0
LINE
  8
_0-b_寸法
  6
CONTINUOUS
 62
    7
 10
744.53527467667698
 20
574.3667613850107
 11
814.53527467667698
 21
574.3667613850107
  0
POINT
  8
_0-b_寸法
 62
    1
 10
744.53527467667698
 20
939.3667613850107
  0
LINE
  8
_0-b_寸法
  6
CONTINUOUS
 62
    7
 10
744.53527467667698
 20
939.3667613850107
 11
744.53527467667698
 21
574.3667613850107
  0
LINE
  8
_0-b_寸法
  6
CONTINUOUS
 62
    7
 10
744.53527467667698
 20
939.3667613850107
 11
814.53527467667698
 21
939.3667613850107
  0
TEXT
  8
_0-b_寸法
 62
    7
 10
742.03527467667732
 20
719.3667613850107
 40
15.000000000000568
 41
0.9999999999999622
 50
90
  1
立上り高さ
  0
LINE
  8
ADD_LINE
  6
DOT
 62
    4
 10
989.53527549138869
 20
427.4125711384886
 11
989.53527549138869
 21
556.06692198169071
  0
LINE
  8
ADD_LINE
  6
DOT
 62
    4
 10
1189.5352754913888
 20
427.4125711384886
 11
1189.5352754913888
 21
556.06692198169071
  0
LINE
  8
_0-5_金属
  6
CONTINUOUS
 62
    7
 10
959.53527467667925
 20
593.66656213499709
 11
959.53527467667925
 21
374.06741237025699
  0
LINE
  8
_0-5_金属
  6
CONTINUOUS
 62
    7
 10
879.53527467667698
 20
589.36656213499646
 11
879.53527467667698
 21
374.06741237025699
  0
LINE
  8
_0-5_金属
  6
CONTINUOUS
 62
    7
 10
939.53527467667698
 20
589.36656213499646
 11
939.53527467667698
 21
374.06741237025699
  0
LINE
  8
_0-3_線色３__緑__
  6
CONTINUOUS
 62
    3
 10
824.53527467667698
 20
374.06741237025699
 11
824.53527467667698
 21
939.36656213499646
  0
LINE
  8
_0-2_線色２__白__
  6
CONTINUOUS
 62
    7
 10
859.53527467667698
 20
374.06741237025699
 11
859.53527467667698
 21
939.36656213499646
  0
LINE
  8
_0-d_断熱__ハッチ
  6
CONTINUOUS
 62
    4
 10
833.28527467667698
 20
937.36656213499828
 11
833.28527467667698
 21
374.06741237025699
  0
LINE
  8
_0-d_断熱__ハッチ
  6
CONTINUOUS
 62
    4
 10
850.78527467667698
 20
937.36656213499828
 11
850.78527467667698
 21
374.06741237025699
  0
LINE
  8
_0-d_断熱__ハッチ
  6
CONTINUOUS
 62
    4
 10
842.03527467667698
 20
937.36656213499828
 11
842.03527467667698
 21
374.06741237025699
  0
LINE
  8
_0-5_金属
  6
CONTINUOUS
 62
    7
 10
859.53527467667698
 20
593.66656213499709
 11
859.53527467667698
 21
374.06741237025699
  0
LINE
  8
_0-4_線色４__黄__
  6
CONTINUOUS
 62
    2
 10
1046.5286788309795
 20
584.36656213499759
 11
1289.5352530413875
 21
584.36656213499759
  0
LINE
  8
_0-2_線色２__白__
  6
CONTINUOUS
 62
    7
 10
977.5352746766788
 20
574.36656213499759
 11
1289.5352530413875
 21
574.36656213499759
  0
LINE
  8
_0-2_線色２__白__
  6
CONTINUOUS
 62
    7
 10
977.5352746766788
 20
579.36656213499759
 11
1289.5352530413875
 21
579.36656213499759
  0
ARC
  8
_0-1_線色１__水色__
  6
CONTINUOUS
 62
    4
 10
1249.7562657874
 20
577.82489547476303
 40
1.2083333333333581
 50
307.52351320333912
 51
232.47648680464988
  0
ARC
  8
_0-1_線色１__水色__
  6
CONTINUOUS
 62
    4
 10
1251.2282259318745
 20
575.9082288081629
 40
1.2083333333333177
 50
127.52351320610693
 51
52.47648680188081
  0
ARC
  8
_0-1_線色１__水色__
  6
CONTINUOUS
 62
    4
 10
1246.8123454987171
 20
577.82489547455725
 40
1.2083333333333581
 50
307.52351320333912
 51
232.47648680464988
  0
ARC
  8
_0-1_線色１__水色__
  6
CONTINUOUS
 62
    4
 10
1248.2843056431916
 20
575.90822880795827
 40
1.2083333333333177
 50
127.52351320610693
 51
52.47648680188081
  0
ARC
  8
_0-1_線色１__水色__
  6
CONTINUOUS
 62
    4
 10
1243.868425210032
 20
577.82489547435148
 40
1.2083333333333581
 50
307.52351320333912
 51
232.47648680464988
  0
ARC
  8
_0-1_線色１__水色__
  6
CONTINUOUS
 62
    4
 10
1245.3403853545087
 20
575.90822880775249
 40
1.2083333333333177
 50
127.52351320610693
 51
52.47648680188081
  0
ARC
  8
_0-1_線色１__水色__
  6
CONTINUOUS
 62
    4
 10
1240.9245049213514
 20
577.82489547414684
 40
1.2083333333333581
 50
307.52351320333912
 51
232.47648680464988
  0
ARC
  8
_0-1_線色１__水色__
  6
CONTINUOUS
 62
    4
 10
1242.3964650658259
 20
575.90822880754672
 40
1.2083333333333177
 50
127.52351320610693
 51
52.47648680188081
  0
ARC
  8
_0-1_線色１__水色__
  6
CONTINUOUS
 62
    4
 10
1235.0366643439834
 20
577.82489547373643
 40
1.2083333333333581
 50
307.52351320333912
 51
232.47648680464988
  0
ARC
  8
_0-1_線色１__水色__
  6
CONTINUOUS
 62
    4
 10
1237.9805846326663
 20
577.82489547394221
 40
1.2083333333333581
 50
307.52351320333912
 51
232.47648680464988
  0
ARC
  8
_0-1_線色１__水色__
  6
CONTINUOUS
 62
    4
 10
1236.5086244884578
 20
575.90822880713745
 40
1.2083333333333177
 50
127.52351320610693
 51
52.47648680188081
  0
ARC
  8
_0-1_線色１__水色__
  6
CONTINUOUS
 62
    4
 10
1239.452544777143
 20
575.90822880734208
 40
1.2083333333333177
 50
127.52351320610693
 51
52.47648680188081
  0
ARC
  8
_0-1_線色１__水色__
  6
CONTINUOUS
 62
    4
 10
1233.564704199775
 20
575.90822880693167
 40
1.2083333333333177
 50
127.52351320610693
 51
52.47648680188081
  0
ARC
  8
_0-1_線色１__水色__
  6
CONTINUOUS
 62
    4
 10
1232.0927440553005
 20
577.82489547353066
 40
1.2083333333333581
 50
307.52351320333912
 51
232.47648680464988
  0
ARC
  8
_0-1_線色１__水色__
  6
CONTINUOUS
 62
    4
 10
1270.3637078086531
 20
577.82489547583964
 40
1.2083333333333581
 50
307.52351320333912
 51
232.47648680464988
  0
ARC
  8
_0-1_線色１__水色__
  6
CONTINUOUS
 62
    4
 10
1271.8356679531275
 20
575.90822880923952
 40
1.2083333333333177
 50
127.52351320610693
 51
52.47648680188081
  0
ARC
  8
_0-1_線色１__水色__
  6
CONTINUOUS
 62
    4
 10
1267.4197875199679
 20
577.82489547563387
 40
1.2083333333333581
 50
307.52351320333912
 51
232.47648680464988
  0
ARC
  8
_0-1_線色１__水色__
  6
CONTINUOUS
 62
    4
 10
1268.8917476644447
 20
575.90822880903488
 40
1.2083333333333177
 50
127.52351320610693
 51
52.47648680188081
  0
ARC
  8
_0-1_線色１__水色__
  6
CONTINUOUS
 62
    4
 10
1264.4758672312851
 20
577.82489547542809
 40
1.2083333333333581
 50
307.52351320333912
 51
232.47648680464988
  0
ARC
  8
_0-1_線色１__水色__
  6
CONTINUOUS
 62
    4
 10
1265.9478273757595
 20
575.90822880882911
 40
1.2083333333333177
 50
127.52351320610693
 51
52.47648680188081
  0
ARC
  8
_0-1_線色１__水色__
  6
CONTINUOUS
 62
    4
 10
1261.5319469426022
 20
577.82489547522346
 40
1.2083333333333581
 50
307.52351320333912
 51
232.47648680464988
  0
ARC
  8
_0-1_線色１__水色__
  6
CONTINUOUS
 62
    4
 10
1263.0039070870789
 20
575.90822880862333
 40
1.2083333333333177
 50
127.52351320610693
 51
52.47648680188081
  0
ARC
  8
_0-1_線色１__水色__
  6
CONTINUOUS
 62
    4
 10
1255.6441063652364
 20
577.82489547481305
 40
1.2083333333333581
 50
307.52351320333912
 51
232.47648680464988
  0
ARC
  8
_0-1_線色１__水色__
  6
CONTINUOUS
 62
    4
 10
1258.588026653917
 20
577.82489547501882
 40
1.2083333333333581
 50
307.52351320333912
 51
232.47648680464988
  0
ARC
  8
_0-1_線色１__水色__
  6
CONTINUOUS
 62
    4
 10
1257.1160665097109
 20
575.90822880821406
 40
1.2083333333333177
 50
127.52351320610693
 51
52.47648680188081
  0
ARC
  8
_0-1_線色１__水色__
  6
CONTINUOUS
 62
    4
 10
1260.0599867983938
 20
575.9082288084187
 40
1.2083333333333177
 50
127.52351320610693
 51
52.47648680188081
  0
ARC
  8
_0-1_線色１__水色__
  6
CONTINUOUS
 62
    4
 10
1254.172146221028
 20
575.90822880800829
 40
1.2083333333333177
 50
127.52351320610693
 51
52.47648680188081
  0
ARC
  8
_0-1_線色１__水色__
  6
CONTINUOUS
 62
    4
 10
1252.7001860765513
 20
577.82489547460727
 40
1.2083333333333581
 50
307.52351320333912
 51
232.47648680464988
  0
ARC
  8
_0-1_線色１__水色__
  6
CONTINUOUS
 62
    4
 10
1288.027229541221
 20
577.82489547671048
 40
1.2083333333333581
 50
307.52351320333912
 51
232.47648680464988
  0
ARC
  8
_0-1_線色１__水色__
  6
CONTINUOUS
 62
    4
 10
1285.0833092525381
 20
577.82489547650471
 40
1.2083333333333581
 50
307.52351320333912
 51
232.47648680464988
  0
ARC
  8
_0-1_線色１__水色__
  6
CONTINUOUS
 62
    4
 10
1286.5552693970126
 20
575.90822880990572
 40
1.2083333333333177
 50
127.52351320610693
 51
52.47648680188081
  0
ARC
  8
_0-1_線色１__水色__
  6
CONTINUOUS
 62
    4
 10
1282.139388963853
 20
577.82489547630007
 40
1.2083333333333581
 50
307.52351320333912
 51
232.47648680464988
  0
ARC
  8
_0-1_線色１__水色__
  6
CONTINUOUS
 62
    4
 10
1283.6113491083297
 20
575.90822880969995
 40
1.2083333333333177
 50
127.52351320610693
 51
52.47648680188081
  0
ARC
  8
_0-1_線色１__水色__
  6
CONTINUOUS
 62
    4
 10
1276.2515483864872
 20
577.82489547588966
 40
1.2083333333333581
 50
307.52351320333912
 51
232.47648680464988
  0
ARC
  8
_0-1_線色１__水色__
  6
CONTINUOUS
 62
    4
 10
1279.1954686751701
 20
577.82489547609543
 40
1.2083333333333581
 50
307.52351320333912
 51
232.47648680464988
  0
ARC
  8
_0-1_線色１__水色__
  6
CONTINUOUS
 62
    4
 10
1277.723508530964
 20
575.90822880929068
 40
1.2083333333333177
 50
127.52351320610693
 51
52.47648680188081
  0
ARC
  8
_0-1_線色１__水色__
  6
CONTINUOUS
 62
    4
 10
1280.6674288196446
 20
575.90822880949531
 40
1.2083333333333177
 50
127.52351320610693
 51
52.47648680188081
  0
ARC
  8
_0-1_線色１__水色__
  6
CONTINUOUS
 62
    4
 10
1274.7795882422788
 20
575.9082288090849
 40
1.2083333333333177
 50
127.52351320610693
 51
52.47648680188081
  0
ARC
  8
_0-1_線色１__水色__
  6
CONTINUOUS
 62
    4
 10
1273.3076280978044
 20
577.82489547568389
 40
1.2083333333333581
 50
307.52351320333912
 51
232.47648680464988
  0
LINE
  8
_0-d_断熱__ハッチ
  6
CONTINUOUS
 62
    4
 10
1206.9945600025967
 20
574.36656213500214
 11
1241.994560002599
 21
539.366562135001
  0
LINE
  8
_0-d_断熱__ハッチ
  6
CONTINUOUS
 62
    4
 10
1197.7616490578312
 20
539.36656213500555
 11
1232.7616490578266
 21
574.36656213500214
  0
LINE
  8
_0-d_断熱__ハッチ
  6
CONTINUOUS
 62
    4
 10
1235.2788312500588
 20
574.36656213500669
 11
1270.2788312500611
 21
539.36656213500555
  0
LINE
  8
_0-d_断熱__ハッチ
  6
CONTINUOUS
 62
    4
 10
1226.0459203052933
 20
539.3665621350101
 11
1261.0459203052887
 21
574.36656213500669
  0
LINE
  8
_0-d_断熱__ハッチ
  6
CONTINUOUS
 62
    4
 10
1254.3301915527554
 20
539.36656213501522
 11
1289.3301915527509
 21
574.3665621350118
  0
ARC
  8
_0-1_線色１__水色__
  6
CONTINUOUS
 62
    4
 10
1289.4991896856955
 20
575.9082288101115
 40
1.2083333333333177
 50
127.52351320610693
 51
271.71027720628183
  0
LINE
  8
_0-d_断熱__ハッチ
  6
CONTINUOUS
 62
    4
 10
1263.563102497521
 20
574.3665621350118
 11
1289.5352530413875
 21
548.39441159114529
  0
LINE
  8
_0-d_断熱__ハッチ
  6
CONTINUOUS
 62
    4
 10
1282.6144628002176
 20
539.36656213502033
 11
1289.5352530413875
 21
546.28735237619139
  0
LINE
  8
_0-5_金属
  6
CONTINUOUS
 62
    7
 10
959.53527467667925
 20
439.36654213499764
 11
1289.5352530413875
 21
439.36654213499764
  0
LINE
  8
ADD_LINE
  6
DOT
 62
    4
 10
1010.0565063680159
 20
499.69834625997237
 11
1010.0565063680159
 21
589.31506600258899
  0
LINE
  8
_0-7_ビス
  6
CONTINUOUS
 62
    7
 10
1016.056506368015
 20
582.43309553730739
 11
1016.056506368015
 21
582.81771092192344
  0
LINE
  8
_0-7_ビス
  6
DASHED3
 62
    7
 10
1011.5239744842705
 20
580.26834139109553
 11
1012.6065222041638
 21
582.81771092192344
  0
LINE
  8
_0-7_ビス
  6
CONTINUOUS
 62
    7
 10
1004.0565063680145
 20
582.43309553730739
 11
1004.0565063680145
 21
582.81771092192344
  0
LINE
  8
_0-7_ビス
  6
DASHED3
 62
    7
 10
1008.589038251759
 20
580.26834139109553
 11
1007.5064905318658
 21
582.81771092192344
  0
LINE
  8
_0-7_ビス
  6
CONTINUOUS
 62
    7
 10
1016.056506368015
 20
582.43309553730739
 11
1004.0565063680145
 21
582.43309553730739
  0
LINE
  8
_0-7_ビス
  6
CONTINUOUS
 62
    7
 10
1016.056506368015
 20
582.81771092192344
 11
1004.0565063680145
 21
582.81771092192344
  0
ARC
  8
_0-7_ビス
  6
DASHED3
 62
    7
 10
1010.0565063680159
 20
581.37888448936224
 40
1.8403175392666382
 50
217.11750793457031
 51
322.88247680664062
  0
LINE
  8
_0-7_ビス
  6
CONTINUOUS
 62
    7
 10
1014.1422928056426
 20
580.5188819749344
 11
1016.056506368015
 21
582.43309553730739
  0
ARC
  8
_0-7_ビス
  6
CONTINUOUS
 62
    7
 10
1015.5565063680132
 20
579.10466841256152
 40
2
 50
135.00000000000153
 51
180.00000000000003
  0
LINE
  8
_0-7_ビス
  6
CONTINUOUS
 62
    7
 10
1005.9707199303892
 20
580.5188819749344
 11
1004.0565063680145
 21
582.43309553730739
  0
ARC
  8
_0-7_ビス
  6
CONTINUOUS
 62
    7
 10
1004.5565063680141
 20
579.10466841256152
 40
2
 50
0
 51
44.999999999998501
  0
LINE
  8
_0-7_ビス
  6
CONTINUOUS
 62
    7
 10
1013.556506368015
 20
578.81771092192309
 11
1006.5565063680145
 21
578.81771092192309
  0
LINE
  8
_0-7_ビス
  6
CONTINUOUS
 62
    7
 10
1006.5565063680145
 20
509.83843686408591
 11
1010.0565063680159
 21
507.81771092192344
  0
LINE
  8
_0-7_ビス
  6
CONTINUOUS
 62
    7
 10
1006.5565063680145
 20
579.10466841256152
 11
1006.5565063680145
 21
509.83843686408591
  0
LINE
  8
_0-7_ビス
  6
CONTINUOUS
 62
    7
 10
1013.556506368015
 20
513.31771092192298
 11
1006.5565063680145
 21
513.31771092192298
  0
LINE
  8
_0-7_ビス
  6
CONTINUOUS
 62
    7
 10
1013.556506368015
 20
509.83843686408704
 11
1010.0565063680159
 21
507.81771092192344
  0
LINE
  8
_0-7_ビス
  6
CONTINUOUS
 62
    7
 10
1013.556506368015
 20
579.10466841256152
 11
1013.556506368015
 21
509.83843686408704
  0
LINE
  8
_0-7_ビス
  6
CONTINUOUS
 62
    7
 10
1013.556506368015
 20
567.81771092192344
 11
1006.5565063680145
 21
567.81771092192344
  0
LINE
  8
_0-7_ビス
  6
CONTINUOUS
 62
    4
 10
1006.5565063680145
 20
566.61790756252913
 11
1011.0340868099564
 21
567.81771092192344
  0
LINE
  8
_0-7_ビス
  6
CONTINUOUS
 62
    4
 10
1006.5565063680145
 20
554.31168703315166
 11
1013.556506368015
 21
556.1873928132411
  0
LINE
  8
_0-7_ビス
  6
CONTINUOUS
 62
    4
 10
1006.5565063680145
 20
556.31168703315211
 11
1013.556506368015
 21
558.18739281324042
  0
LINE
  8
_0-7_ビス
  6
CONTINUOUS
 62
    4
 10
1006.5565063680145
 20
558.31168703315257
 11
1013.556506368015
 21
560.18739281324088
  0
LINE
  8
_0-7_ビス
  6
CONTINUOUS
 62
    4
 10
1006.5565063680145
 20
560.31168703315188
 11
1013.556506368015
 21
562.18739281324076
  0
LINE
  8
_0-7_ビス
  6
CONTINUOUS
 62
    4
 10
1006.5565063680145
 20
562.31168703315234
 11
1013.556506368015
 21
564.18739281324065
  0
LINE
  8
_0-7_ビス
  6
CONTINUOUS
 62
    4
 10
1006.5565063680145
 20
564.31168703315279
 11
1013.556506368015
 21
566.1873928132411
  0
LINE
  8
_0-7_ビス
  6
CONTINUOUS
 62
    4
 10
1006.5565063680145
 20
542.00546650377532
 11
1013.556506368015
 21
543.88117228386363
  0
LINE
  8
_0-7_ビス
  6
CONTINUOUS
 62
    4
 10
1006.5565063680145
 20
544.00546650377578
 11
1013.556506368015
 21
545.88117228386409
  0
LINE
  8
_0-7_ビス
  6
CONTINUOUS
 62
    4
 10
1006.5565063680145
 20
546.0054665037751
 11
1013.556506368015
 21
547.88117228386341
  0
LINE
  8
_0-7_ビス
  6
CONTINUOUS
 62
    4
 10
1006.5565063680145
 20
548.00546650377555
 11
1013.556506368015
 21
549.88117228386386
  0
LINE
  8
_0-7_ビス
  6
CONTINUOUS
 62
    4
 10
1006.5565063680145
 20
550.00546650377487
 11
1013.556506368015
 21
551.88117228386375
  0
LINE
  8
_0-7_ビス
  6
CONTINUOUS
 62
    4
 10
1006.5565063680145
 20
552.00546650377532
 11
1013.556506368015
 21
553.8811722838642
  0
LINE
  8
_0-7_ビス
  6
CONTINUOUS
 62
    4
 10
1006.5565063680145
 20
529.69924597439785
 11
1013.556506368015
 21
531.5749517544873
  0
LINE
  8
_0-7_ビス
  6
CONTINUOUS
 62
    4
 10
1006.5565063680145
 20
531.69924597439831
 11
1013.556506368015
 21
533.57495175448662
  0
LINE
  8
_0-7_ビス
  6
CONTINUOUS
 62
    4
 10
1006.5565063680145
 20
533.69924597439876
 11
1013.556506368015
 21
535.57495175448707
  0
LINE
  8
_0-7_ビス
  6
CONTINUOUS
 62
    4
 10
1006.5565063680145
 20
535.69924597439808
 11
1013.556506368015
 21
537.57495175448753
  0
LINE
  8
_0-7_ビス
  6
CONTINUOUS
 62
    4
 10
1006.5565063680145
 20
537.69924597439854
 11
1013.556506368015
 21
539.57495175448685
  0
LINE
  8
_0-7_ビス
  6
CONTINUOUS
 62
    4
 10
1006.5565063680145
 20
539.69924597439899
 11
1013.556506368015
 21
541.5749517544873
  0
LINE
  8
_0-7_ビス
  6
CONTINUOUS
 62
    4
 10
1006.5565063680145
 20
517.39302544502152
 11
1013.556506368015
 21
519.26873122510983
  0
LINE
  8
_0-7_ビス
  6
CONTINUOUS
 62
    4
 10
1006.5565063680145
 20
519.39302544502198
 11
1013.556506368015
 21
521.26873122511029
  0
LINE
  8
_0-7_ビス
  6
CONTINUOUS
 62
    4
 10
1006.5565063680145
 20
521.39302544502129
 11
1013.556506368015
 21
523.2687312251096
  0
LINE
  8
_0-7_ビス
  6
CONTINUOUS
 62
    4
 10
1006.5565063680145
 20
523.39302544502175
 11
1013.556506368015
 21
525.26873122511006
  0
LINE
  8
_0-7_ビス
  6
CONTINUOUS
 62
    4
 10
1006.5565063680145
 20
525.39302544502107
 11
1013.556506368015
 21
527.26873122511051
  0
LINE
  8
_0-7_ビス
  6
CONTINUOUS
 62
    4
 10
1006.5565063680145
 20
527.39302544502152
 11
1013.556506368015
 21
529.26873122511097
  0
LINE
  8
_0-7_ビス
  6
CONTINUOUS
 62
    4
 10
1006.5565063680145
 20
515.08680491564519
 11
1013.556506368015
 21
516.9625106957335
  0
LINE
  8
_0-7_ビス
  6
CONTINUOUS
 62
    4
 10
1007.4182310911073
 20
513.31771092192298
 11
1013.556506368015
 21
514.96251069573304
  0
LINE
  8
_0-5_金属
  6
CONTINUOUS
 62
    7
 10
969.53527467667925
 20
451.36656213499691
 11
1009.5352154913888
 21
451.36656213499691
  0
ARC
  8
_0-5_金属
  6
CONTINUOUS
 62
    7
 10
1027.8722954913901
 20
535.60296213499782
 40
2.9999997999999999
 50
90
 51
167.90458000000001
  0
ARC
  8
_0-5_金属
  6
CONTINUOUS
 62
    7
 10
1009.5352154913888
 20
451.36663213499787
 40
2.9999997999999999
 50
270
 51
347.90458000000001
  0
LINE
  8
_0-5_金属
  6
CONTINUOUS
 62
    7
 10
1009.5352154913888
 20
451.36656213499691
 11
1024.9388957177866
 21
536.23158329931584
  0
LINE
  8
_0-5_金属
  6
CONTINUOUS
 62
    7
 10
1027.8606454913888
 20
535.56657213499761
 11
1012.4686152649923
 21
450.73801097067985
  0
LINE
  8
_0-5_金属
  6
CONTINUOUS
 62
    7
 10
1169.5352855913889
 20
448.36660213499727
 11
1209.5351655913892
 21
448.36660213499727
  0
ARC
  8
_0-5_金属
  6
CONTINUOUS
 62
    7
 10
1227.887185591389
 20
535.56255213499753
 40
2.9999997999999999
 50
90
 51
167.90458000000001
  0
ARC
  8
_0-5_金属
  6
CONTINUOUS
 62
    7
 10
1151.1721055913877
 20
535.55799213499768
 40
2.9999997999999999
 50
12.095412999999999
 51
90.000000000000028
  0
LINE
  8
_0-5_金属
  6
CONTINUOUS
 62
    7
 10
1151.2097955913891
 20
535.56657213499761
 11
1027.8606454913888
 21
535.56657213499761
  0
ARC
  8
_0-5_金属
  6
CONTINUOUS
 62
    7
 10
1169.5352855913889
 20
451.36663213499787
 40
2.9999997999999999
 50
192.09540999999999
 51
270
  0
ARC
  8
_0-5_金属
  6
CONTINUOUS
 62
    7
 10
1209.5351655913892
 20
451.36663213499787
 40
2.9999997999999999
 50
270
 51
347.90458000000001
  0
LINE
  8
_0-5_金属
  6
CONTINUOUS
 62
    7
 10
1166.6018857080708
 20
450.73801148265375
 11
1151.2097955913891
 21
535.56657213499761
  0
LINE
  8
_0-5_金属
  6
CONTINUOUS
 62
    7
 10
1227.860595591389
 20
535.56657213499761
 11
1212.4685653649904
 21
450.73801097067985
  0
LINE
  8
_0-5_金属
  6
CONTINUOUS
 62
    7
 10
1154.1055054417911
 20
536.18661294093272
 11
1169.5352910851257
 21
451.36647193499812
  0
LINE
  8
_0-5_金属
  6
CONTINUOUS
 62
    7
 10
1169.5352910851257
 20
451.36647193499812
 11
1209.5351491956803
 21
451.36647193499812
  0
LINE
  8
_0-5_金属
  6
CONTINUOUS
 62
    7
 10
1209.5351491956803
 20
451.36647193499812
 11
1224.9537858177855
 21
536.19117329931555
  0
LINE
  8
_0-5_金属
  6
CONTINUOUS
 62
    7
 10
969.53527467667925
 20
451.36656213499691
 11
969.53527467667925
 21
448.36654213499742
  0
LINE
  8
_0-5_金属
  6
CONTINUOUS
 62
    7
 10
1289.5352530413875
 20
448.36654213499742
 11
959.53527467667925
 21
448.36654213499742
  0
LINE
  8
_0-5_金属
  6
CONTINUOUS
 62
    7
 10
1227.860595591389
 20
535.56657213499761
 11
1289.5352530413875
 21
535.56657213499761
  0
ARC
  8
_0-5_金属
  6
CONTINUOUS
 62
    7
 10
975.58523549138897
 20
465.4165121349979
 40
1.0499997999999999
 50
90
 51
270
  0
ARC
  8
_0-5_金属
  6
CONTINUOUS
 62
    7
 10
975.58523549138897
 20
465.4165121349979
 40
0.2499999
 50
90
 51
270
  0
ARC
  8
_0-5_金属
  6
CONTINUOUS
 62
    7
 10
1003.4853154913884
 20
465.4165121349979
 40
1.0499997999999999
 50
270
 51
90
  0
ARC
  8
_0-5_金属
  6
CONTINUOUS
 62
    7
 10
1003.4853154913884
 20
465.4165121349979
 40
0.2499999
 50
270
 51
90
  0
ARC
  8
_0-5_金属
  6
CONTINUOUS
 62
    7
 10
987.93532549138888
 20
467.26656213499723
 40
0.7999998999999997
 50
270
 51
0
  0
ARC
  8
_0-5_金属
  6
CONTINUOUS
 62
    7
 10
987.93532549138888
 20
467.26656213499723
 40
1.5999999
 50
270
 51
0
  0
ARC
  8
_0-5_金属
  6
CONTINUOUS
 62
    7
 10
991.1352254913885
 20
467.26656213499723
 40
0.7999998999999997
 50
180
 51
270
  0
ARC
  8
_0-5_金属
  6
CONTINUOUS
 62
    7
 10
991.1352254913885
 20
467.26656213499723
 40
1.5999999
 50
180
 51
270
  0
ARC
  8
_0-5_金属
  6
CONTINUOUS
 62
    7
 10
987.93532549138888
 20
536.96658213499745
 40
0.7999998999999997
 50
0
 51
90
  0
ARC
  8
_0-5_金属
  6
CONTINUOUS
 62
    7
 10
987.93532549138888
 20
536.96658213499745
 40
1.5999999
 50
0
 51
90
  0
ARC
  8
_0-5_金属
  6
CONTINUOUS
 62
    7
 10
991.1352254913885
 20
537.76656213499791
 40
0.7999998999999997
 50
90
 51
180
  0
ARC
  8
_0-5_金属
  6
CONTINUOUS
 62
    7
 10
991.1352254913885
 20
537.76656213499791
 40
1.5999999
 50
90
 51
180
  0
LINE
  8
_0-5_金属
  6
CONTINUOUS
 62
    7
 10
989.53527549138869
 20
534.51544213499801
 11
989.53527549138869
 21
524.07460213499689
  0
LINE
  8
_0-5_金属
  6
CONTINUOUS
 62
    7
 10
987.97021549138833
 20
525.63959213499743
 11
989.53527549138869
 21
524.07460213499689
  0
LINE
  8
_0-5_金属
  6
CONTINUOUS
 62
    7
 10
989.53527549138869
 20
534.51544213499801
 11
987.97021549138833
 21
525.63959213499743
  0
LINE
  8
_0-5_金属
  6
CONTINUOUS
 62
    7
 10
989.53527549138869
 20
524.07460213499689
 11
989.53527549138869
 21
467.26656213499723
  0
LINE
  8
_0-5_金属
  6
CONTINUOUS
 62
    7
 10
987.11005549138861
 20
525.36840213499772
 11
988.7353054913882
 21
523.74315213499813
  0
LINE
  8
_0-5_金属
  6
CONTINUOUS
 62
    7
 10
988.7353054913882
 20
523.74315213499813
 11
988.7353054913882
 21
467.26656213499723
  0
LINE
  8
_0-5_金属
  6
CONTINUOUS
 62
    7
 10
988.7353054913882
 20
534.58559213499711
 11
987.11005549138861
 21
525.36840213499772
  0
LINE
  8
_0-5_金属
  6
CONTINUOUS
 62
    7
 10
989.53527549138869
 20
537.76656213499791
 11
989.53527549138869
 21
534.51544213499801
  0
LINE
  8
_0-5_金属
  6
CONTINUOUS
 62
    7
 10
988.7353054913882
 20
536.96658213499745
 11
988.7353054913882
 21
534.58559213499711
  0
LINE
  8
_0-5_金属
  6
CONTINUOUS
 62
    7
 10
974.5352854913898
 20
537.76662213499776
 11
987.93532549138888
 21
537.76662213499776
  0
LINE
  8
_0-5_金属
  6
CONTINUOUS
 62
    7
 10
990.33524549138917
 20
537.76656213499791
 11
990.33524549138917
 21
467.26656213499723
  0
LINE
  8
_0-5_金属
  6
CONTINUOUS
 62
    7
 10
975.58523549138897
 20
465.66655213499757
 11
987.93532549138888
 21
465.66655213499757
  0
LINE
  8
_0-5_金属
  6
CONTINUOUS
 62
    7
 10
975.58523549138897
 20
465.1664821349982
 11
1003.4853154913884
 21
465.1664821349982
  0
LINE
  8
_0-5_金属
  6
CONTINUOUS
 62
    7
 10
975.58523549138897
 20
466.46646213499707
 11
987.93532549138888
 21
466.46646213499707
  0
LINE
  8
_0-5_金属
  6
CONTINUOUS
 62
    7
 10
991.1352254913885
 20
466.46646213499707
 11
1003.4853154913884
 21
466.46646213499707
  0
LINE
  8
_0-5_金属
  6
CONTINUOUS
 62
    7
 10
991.1352254913885
 20
465.66655213499757
 11
1003.4853154913884
 21
465.66655213499757
  0
LINE
  8
_0-5_金属
  6
CONTINUOUS
 62
    7
 10
975.58523549138897
 20
464.36651233499788
 11
1003.4853154913884
 21
464.36651233499788
  0
LINE
  8
_0-5_金属
  6
CONTINUOUS
 62
    7
 10
1187.9352755913892
 20
539.36656213499759
 11
990.98585549138932
 21
539.36656213499759
  0
ARC
  8
_0-5_金属
  6
CONTINUOUS
 62
    7
 10
1203.4852655913887
 20
465.4165121349979
 40
1.0499997999999999
 50
270
 51
90
  0
ARC
  8
_0-5_金属
  6
CONTINUOUS
 62
    7
 10
1203.4852655913887
 20
465.4165121349979
 40
0.2499999
 50
270
 51
90
  0
ARC
  8
_0-5_金属
  6
CONTINUOUS
 62
    7
 10
1175.5851855913893
 20
465.4165121349979
 40
1.0499997999999999
 50
90
 51
270
  0
ARC
  8
_0-5_金属
  6
CONTINUOUS
 62
    7
 10
1175.5851855913893
 20
465.4165121349979
 40
0.2499999
 50
90
 51
270
  0
ARC
  8
_0-5_金属
  6
CONTINUOUS
 62
    7
 10
1191.1351755913888
 20
467.26656213499723
 40
0.7999998999999997
 50
180
 51
270
  0
ARC
  8
_0-5_金属
  6
CONTINUOUS
 62
    7
 10
1191.1351755913888
 20
467.26656213499723
 40
1.5999999
 50
180
 51
270
  0
ARC
  8
_0-5_金属
  6
CONTINUOUS
 62
    7
 10
1187.9352755913892
 20
467.26656213499723
 40
0.7999998999999997
 50
270
 51
0
  0
ARC
  8
_0-5_金属
  6
CONTINUOUS
 62
    7
 10
1187.9352755913892
 20
467.26656213499723
 40
1.5999999
 50
270
 51
0
  0
ARC
  8
_0-5_金属
  6
CONTINUOUS
 62
    7
 10
1191.1351755913888
 20
537.76656213499791
 40
0.7999998999999997
 50
90
 51
180
  0
ARC
  8
_0-5_金属
  6
CONTINUOUS
 62
    7
 10
1191.1351755913888
 20
537.76656213499791
 40
1.5999999
 50
90
 51
180
  0
ARC
  8
_0-5_金属
  6
CONTINUOUS
 62
    7
 10
1187.9352755913892
 20
537.76656213499791
 40
0.7999998999999997
 50
0
 51
90
  0
ARC
  8
_0-5_金属
  6
CONTINUOUS
 62
    7
 10
1187.9352755913892
 20
537.76656213499791
 40
1.5999999
 50
0
 51
90
  0
LINE
  8
_0-5_金属
  6
CONTINUOUS
 62
    7
 10
1190.3351955913895
 20
537.76656213499791
 11
1190.3351955913895
 21
467.26656213499723
  0
LINE
  8
_0-5_金属
  6
CONTINUOUS
 62
    7
 10
1188.7352555913885
 20
537.76656213499791
 11
1188.7352555913885
 21
467.26656213499723
  0
LINE
  8
_0-5_金属
  6
CONTINUOUS
 62
    7
 10
1189.535225591389
 20
537.76656213499791
 11
1189.535225591389
 21
467.26656213499723
  0
LINE
  8
_0-5_金属
  6
CONTINUOUS
 62
    7
 10
1203.4852655913887
 20
465.66655213499757
 11
1191.1351755913888
 21
465.66655213499757
  0
LINE
  8
_0-5_金属
  6
CONTINUOUS
 62
    7
 10
1203.4852655913887
 20
465.1664821349982
 11
1175.5851855913893
 21
465.1664821349982
  0
LINE
  8
_0-5_金属
  6
CONTINUOUS
 62
    7
 10
1203.4852655913887
 20
466.46646213499707
 11
1191.1351755913888
 21
466.46646213499707
  0
LINE
  8
_0-5_金属
  6
CONTINUOUS
 62
    7
 10
1187.9352755913892
 20
466.46646213499707
 11
1175.5851855913893
 21
466.46646213499707
  0
LINE
  8
_0-5_金属
  6
CONTINUOUS
 62
    7
 10
1187.9352755913892
 20
465.66655213499757
 11
1175.5851855913893
 21
465.66655213499757
  0
LINE
  8
_0-5_金属
  6
CONTINUOUS
 62
    7
 10
1175.5851855913893
 20
464.36651233499788
 11
1203.4852655913887
 21
464.36651233499788
  0
LINE
  8
_0-5_金属
  6
CONTINUOUS
 62
    7
 10
1187.9352755913892
 20
538.56659213499711
 11
991.1352254913885
 21
538.56659213499711
  0
LINE
  8
_0-5_金属
  6
CONTINUOUS
 62
    7
 10
974.5352854913898
 20
538.56659213499711
 11
974.5352854913898
 21
537.76662213499776
  0
LINE
  8
_0-5_金属
  6
CONTINUOUS
 62
    7
 10
974.5352854913898
 20
538.56659213499711
 11
987.93532549138888
 21
538.56659213499711
  0
LINE
  8
_0-5_金属
  6
CONTINUOUS
 62
    7
 10
1289.5352530413875
 20
538.56659213499711
 11
1190.9953755913893
 21
538.56659213499711
  0
LINE
  8
_0-5_金属
  6
CONTINUOUS
 62
    7
 10
1191.1351755913888
 20
539.36656213499759
 11
1289.5352530413875
 21
539.36656213499759
  0
TEXT
  8
_0-a_文字
 62
    7
 10
1104.7097653772091
 20
331.86656213499759
 40
14.999999999999858
 41
1.0000000000000078
 50
0
  1
亜鉛めっき鋼板 t=1.2以上
  0
TEXT
  8
_0-a_文字
 62
    7
 10
1104.7097653772098
 20
311.86656213499759
 40
14.999999999999858
 41
1.0000000000000153
 50
0
  1
（別途工事）
  0
TEXT
  8
_0-a_文字
 62
    7
 10
1196.8823841748801
 20
356.86656213499759
 40
14.999999999999858
 41
1.0000000000000064
 50
0
  1
タイトフレーム（別途工事）
  0
LINE
  8
_0-a_文字
  6
CONTINUOUS
 62
    7
 10
1145.9016220613439
 20
409.36656213499759
 11
1191.8823841748799
 21
409.36656213499759
  0
LINE
  8
_0-a_文字
  6
CONTINUOUS
 62
    7
 10
1071.0770185141128
 20
538.96657713499735
 11
1171.8823841748799
 21
364.36656213499759
  0
LINE
  8
_0-a_文字
  6
CONTINUOUS
 62
    7
 10
1171.8823841748799
 20
364.36656213499759
 11
1191.8823841748799
 21
364.36656213499759
  0
LINE
  8
_0-a_文字
  6
CONTINUOUS
 62
    7
 10
1079.709765377208
 20
339.36656213499759
 11
1099.709765377208
 21
339.36656213499759
  0
LINE
  8
_0-a_文字
  6
CONTINUOUS
 62
    7
 10
963.96456233423294
 20
539.84313453781169
 11
1079.709765377208
 21
339.36656213499759
  0
TEXT
  8
_0-a_文字
 62
    7
 10
395
 20
1107.5000000000023
 40
14.999999999997726
 41
1.0000000000001703
 50
0
  1
　  水平方向は@900mm程度
  0
TEXT
  8
_0-a_文字
 62
    7
 10
395
 20
1127.5000000000023
 40
14.999999999997726
 41
1.0000000000001708
 50
0
  1
注）立上り高さが500mmを超える機械的固定工法の場合、中間をディスク板で固定する
  0
TEXT
  8
_0-a_文字
 62
    7
 10
1196.8823841748781
 20
401.86656213499759
 40
14.999999999999858
 41
1.0000000000000073
 50
0
  1
デッキプレート フラットタイプ H=75
  0
TEXT
  8
_0-a_文字
 62
    7
 10
1196.8823841748779
 20
381.86656213499759
 40
14.999999999999858
 41
1.0000000000000084
 50
0
  1
t=1.0 または t=1.2（別途工事）
  0
TEXT
  8
_f-0_
 62
    7
 10
405.30228976001922
 20
1163.75
 40
17.499999999999993
 41
1.0000000000000002
 50
0
  1
ＳＤ－Ｆ仕様 パラペット 立上り機械的固定工法（笠木なし）
  0
ENDSEC
  0
EOF
