  0
SECTION
  2
HEADER
  9
$ACADVER
  1
AC1009
  9
$INSBASE
 10
0
 20
0
 30
0
  9
$EXTMIN
 10
0
 20
0
  9
$EXTMAX
 10
2100
 20
1485
  9
$LIMMIN
 10
0
 20
0
  9
$LIMMAX
 10
2100
 20
1485
  9
$LTSCALE
 40
5
  0
ENDSEC
  0
SECTION
  2
TABLES
  0
TABLE
  2
LTYPE
 70
     9
  0
LTYPE
  2
CONTINUOUS
 70
    64
  3
実線
 72
    65
 73
     0
 40
0.0
  0
LTYPE
  2
DASHED1
 70
    64
  3
--  --  --  --  --  --  --  --  
 72
    65
 73
     2
 40
2.5
 49
1.25
 49
-1.25
  0
LTYPE
  2
DASHED2
 70
    64
  3
----    ----    ----    ----    
 72
    65
 73
     2
 40
5.0
 49
2.5
 49
-2.5
  0
LTYPE
  2
DASHED3
 70
    64
  3
------  ------  ------  ------  
 72
    65
 73
     2
 40
5.0
 49
3.75
 49
-1.25
  0
LTYPE
  2
CENTER1
 70
    64
  3
----- - ----- - ----- - ----- - 
 72
    65
 73
     4
 40
10.0
 49
6.25
 49
-1.25
 49
1.25
 49
-1.25
  0
LTYPE
  2
CENTER2
 70
    64
  3
----------  --  ----------  --  
 72
    65
 73
     4
 40
20.0
 49
12.5
 49
-2.5
 49
2.5
 49
-2.5
  0
LTYPE
  2
PHANTOM1
 70
    64
  3
--- - - --- - - --- - - --- - - 
 72
    65
 73
     6
 40
10.0
 49
3.25
 49
-1.25
 49
1.25
 49
-1.25
 49
1.25
 49
-1.25
  0
LTYPE
  2
PHANTOM2
 70
    64
  3
--------  -  -  --------  -  -  
 72
    65
 73
     6
 40
20.0
 49
10.0
 49
-2.5
 49
1.25
 49
-2.5
 49
1.25
 49
-2.5
  0
LTYPE
  2
DOT
 70
    64
  3
-   -   -   -   -   -   -   -   
 72
    65
 73
     2
 40
2.5
 49
0.625
 49
-1.875
  0
LTYPE
  2
DUMMY
 70
    64
  3
ダミー
 72
    65
 73
     0
 40
0.0
  0
LTYPE
  2
RAND1
 70
    64
  3
ランダム線1
 72
    65
 73
     4
 40
10.0
 49
1.0
 49
-2.0
 49
3.0
 49
-4.0
  0
LTYPE
  2
RAND2
 70
    64
  3
ランダム線2
 72
    65
 73
     4
 40
14.0
 49
2.0
 49
-3.0
 49
4.0
 49
-5.0
  0
LTYPE
  2
RAND3
 70
    64
  3
ランダム線3
 72
    65
 73
     4
 40
18.0
 49
3.0
 49
-4.0
 49
5.0
 49
-6.0
  0
LTYPE
  2
RAND4
 70
    64
  3
ランダム線4
 72
    65
 73
     4
 40
22.0
 49
4.0
 49
-5.0
 49
6.0
 49
-7.0
  0
LTYPE
  2
RAND5
 70
    64
  3
ランダム線5
 72
    65
 73
     4
 40
26.0
 49
5.0
 49
-6.0
 49
7.0
 49
-8.0
  0
LTYPE
  2
LONG1
 70
    64
  3
----------  --  ----------  --  
 72
    65
 73
     4
 40
40.0
 49
32.5
 49
-2.5
 49
2.5
 49
-2.5
  0
LTYPE
  2
LONG2
 70
    64
  3
--------  -  -  --------  -  -  
 72
    65
 73
     6
 40
40.0
 49
30.0
 49
-2.5
 49
1.25
 49
-2.5
 49
1.25
 49
-2.5
  0
LTYPE
  2
LONG3
 70
    64
  3
+++++++++++++++..+++++++++++++++
 72
    65
 73
     2
 40
40.0
 49
37.5
 49
-2.5
  0
LTYPE
  2
LONG4
 70
    64
  3
+++++++++++++++..+++++++++++++++
 72
    65
 73
     2
 40
80.0
 49
75.0
 49
-5.0
  0
LTYPE
  2
LONG5
 70
    64
  3
----------  --  ----------  --  
 72
    65
 73
     4
 40
60.0
 49
37.5
 49
-7.5
 49
7.5
 49
-7.5
  0
LTYPE
  2
dashed
 70
   64
  3
-------   -------------   ------
 72
   65
 73
    2
 40
7.5
 49
6
 49
-1.5
  0
LTYPE
  2
dashed_spaced
 70
   64
  3
----        --------        ----
 72
   65
 73
    2
 40
12
 49
6
 49
-6
  0
LTYPE
  2
long_dashed_dotted
 70
   64
  3
------------- --- --------------
 72
   65
 73
    4
 40
15.25
 49
12
 49
-1.5
 49
0.25
 49
-1.5
  0
LTYPE
  2
long_dashed_double-dotted
 70
   64
  3
----------- --- --- ------------
 72
   65
 73
    6
 40
17
 49
12
 49
-1.5
 49
0.25
 49
-1.5
 49
0.25
 49
-1.5
  0
LTYPE
  2
long_dashed_triplicate-dotted
 70
   64
  3
--------- --- --- --- ----------
 72
   65
 73
    8
 40
18.75
 49
12
 49
-1.5
 49
0.25
 49
-1.5
 49
0.25
 49
-1.5
 49
0.25
 49
-1.5
  0
LTYPE
  2
dotted
 70
   64
  3
   -       -       -       -    
 72
   65
 73
    2
 40
1.75
 49
0.25
 49
-1.5
  0
LTYPE
  2
chain
 70
   64
  3
-------------- -- --------------
 72
   65
 73
    4
 40
18.5
 49
12
 49
-1.5
 49
3.5
 49
-1.5
  0
LTYPE
  2
chain_double_dash
 70
   64
  3
------------ -- -- -------------
 72
   65
 73
    6
 40
23.5
 49
12
 49
-1.5
 49
3.5
 49
-1.5
 49
3.5
 49
-1.5
  0
LTYPE
  2
dashed_dotted
 70
   64
  3
-----------     -     ----------
 72
   65
 73
    4
 40
9.25
 49
6
 49
-1.5
 49
0.25
 49
-1.5
  0
LTYPE
  2
double-dashed_dotted
 70
   64
  3
------   -----------   -   -----
 72
   65
 73
    6
 40
16.75
 49
6
 49
-1.5
 49
6
 49
-1.5
 49
0.25
 49
-1.5
  0
LTYPE
  2
dashed_double-dotted
 70
   64
  3
---------    -    -    ---------
 72
   65
 73
    6
 40
11
 49
6
 49
-1.5
 49
0.25
 49
-1.5
 49
0.25
 49
-1.5
  0
LTYPE
  2
double-dashed_double-dotted
 70
   64
  3
-----   ---------   -   -   ----
 72
   65
 73
    8
 40
18.5
 49
6
 49
-1.5
 49
6
 49
-1.5
 49
0.25
 49
-1.5
 49
0.25
 49
-1.5
  0
LTYPE
  2
dashed_triplicate-dotted
 70
   64
  3
-------    -    -    -    ------
 72
   65
 73
    8
 40
12.75
 49
6
 49
-1.5
 49
0.25
 49
-1.5
 49
0.25
 49
-1.5
 49
0.25
 49
-1.5
  0
LTYPE
  2
double-dashed_triplicate-dotted
 70
   64
  3
-----  ---------  -  -  -  -----
 72
   65
 73
   10
 40
20.25
 49
6
 49
-1.5
 49
6
 49
-1.5
 49
0.25
 49
-1.5
 49
0.25
 49
-1.5
 49
0.25
 49
-1.5
  0
LTYPE
  2
undefined
 70
   64
  3
--------------------------------
 72
   65
 73
    0
 40
0
  0
ENDTAB
  0
TABLE
  2
STYLE
  5
3
100
AcDbSymbolTable
 70
     1
  0
STYLE
  5
10
100
AcDbSymbolTableRecord
100
AcDbTextStyleTableRecord
  2
STANDARD
 70
     0
 40
0.0
 41
1.0
 50
0.0
 71
     0
 42
0.2
  3
txt
  4
bigfont.shx
  0
STYLE
  5
26
100
AcDbSymbolTableRecord
100
AcDbTextStyleTableRecord
  2
TATEGAKI
 70
    68
 40
0.0
 41
1.0
 50
0.0
 71
     0
 42
1.0
  3
txt
  4
bigfont.shx
  0
ENDTAB
  0
TABLE
  2
LAYER
 70
   12
  0
LAYER
  2
_0-1_線色１__水色__
 70
   64
 62
    7
  6
CONTINUOUS
  0
LAYER
  2
_0-2_線色２__白__
 70
   64
 62
    7
  6
CONTINUOUS
  0
LAYER
  2
_0-4_線色４__黄__
 70
   64
 62
    7
  6
CONTINUOUS
  0
LAYER
  2
_0-5_金属
 70
   64
 62
    7
  6
CONTINUOUS
  0
LAYER
  2
_0-6_鋼板__アングル
 70
   64
 62
    7
  6
CONTINUOUS
  0
LAYER
  2
_0-7_ビス
 70
   64
 62
    7
  6
CONTINUOUS
  0
LAYER
  2
_0-8_笠木他
 70
   64
 62
    7
  6
CONTINUOUS
  0
LAYER
  2
_0-a_文字
 70
   64
 62
    7
  6
CONTINUOUS
  0
LAYER
  2
_0-d_断熱__ハッチ
 70
   64
 62
    7
  6
CONTINUOUS
  0
LAYER
  2
_f-0_
 70
   64
 62
    7
  6
CONTINUOUS
  0
LAYER
  2
_f-f_
 70
   64
 62
    7
  6
CONTINUOUS
  0
LAYER
  2
ADD_LINE
 70
   64
 62
    7
  6
CONTINUOUS
  0
ENDTAB
  0
ENDSEC
  0
SECTION
  2
BLOCKS
  0
ENDSEC
  0
SECTION
  2
ENTITIES
  0
LINE
  8
_f-0_
  6
CONTINUOUS
 62
  136
 10
1714.9999999999989
 20
1192.5
 11
385
 21
1192.5
  0
LINE
  8
_f-0_
  6
CONTINUOUS
 62
  136
 10
385
 20
277.50000000000341
 11
1714.9999999999989
 21
277.50000000000341
  0
LINE
  8
_f-0_
  6
CONTINUOUS
 62
  136
 10
385
 20
1192.5
 11
385
 21
277.50000000000341
  0
LINE
  8
_f-0_
  6
CONTINUOUS
 62
  136
 10
1714.9999999999989
 20
1192.5
 11
1714.9999999999989
 21
277.50000000000341
  0
LINE
  8
_f-0_
  6
CONTINUOUS
 62
    6
 10
1714.9999999999989
 20
1152.5
 11
385
 21
1152.5
  0
LINE
  8
_f-f_
  6
CONTINUOUS
 62
    9
 10
310
 20
217.5
 11
310
 21
1267.5
  0
LINE
  8
_f-f_
  6
CONTINUOUS
 62
    9
 10
1790
 20
217.5
 11
310
 21
217.5
  0
LINE
  8
_f-f_
  6
CONTINUOUS
 62
    9
 10
1790
 20
1267.5
 11
310
 21
1267.5
  0
LINE
  8
_f-f_
  6
CONTINUOUS
 62
    9
 10
1790
 20
1267.5
 11
1790
 21
217.5
  0
LINE
  8
ADD_LINE
  6
DOT
 62
  136
 10
1764.9999999999989
 20
1242.5
 11
335
 21
1242.5
  0
LINE
  8
ADD_LINE
  6
DOT
 62
  136
 10
335
 20
242.50000000000227
 11
335
 21
1242.5
  0
LINE
  8
ADD_LINE
  6
DOT
 62
  136
 10
1765
 20
1242.5
 11
1765
 21
242.5
  0
LINE
  8
ADD_LINE
  6
DOT
 62
  136
 10
1765
 20
242.5
 11
335.00000000000114
 21
242.5
  0
TEXT
  8
_0-a_文字
 62
    7
 10
404.99999999999972
 20
287.50000000000313
 40
15.000000000000568
 41
0.9999999999999666
 50
0
  1
※ 本図面は防水納まりの参考図であり、下地等の構造を保証するものではありません
  0
TEXT
  8
_0-a_文字
 62
    7
 10
404.99999999999972
 20
327.50000000000313
 40
15.000000000000568
 41
0.9999999999999666
 50
0
  1
※ ラジアルシートＬ６００は、断熱材の種類がポリスチレンフォームの場合のみ使用
  0
TEXT
  8
_0-a_文字
 62
    7
 10
404.99999999999943
 20
307.50000000000313
 40
15.000000000000568
 41
0.9999999999999668
 50
0
  1
※ デッキ端部などの開口部には、必要に応じ遮炎性を満たす処理をお願いします（別途工事）
  0
TEXT
  8
_f-0_
 62
    7
 10
405.30228976001922
 20
1163.75
 40
17.499999999999993
 41
1.0000000000000004
 50
0
  1
ＳＤ－Ｆ仕様 軒先
  0
LINE
  8
_0-a_文字
  6
CONTINUOUS
 62
    7
 10
850.74458130519872
 20
772.41818157827083
 11
824.19827053431902
 21
818.397740586949
  0
LINE
  8
_0-a_文字
  6
CONTINUOUS
 62
    7
 10
824.19827053431902
 20
818.397740586949
 11
804.19827053431902
 21
818.397740586949
  0
TEXT
  8
_0-a_文字
 62
    7
 10
619.19827053431902
 20
810.89774058694911
 40
14.999999999999858
 41
1.0000000000000109
 50
0
  1
亜鉛めっき鋼板 t=1.2以上
  0
TEXT
  8
_0-a_文字
 62
    7
 10
709.19827053431902
 20
790.897740586949
 40
14.999999999999858
 41
1.0000000000000087
 50
0
  1
（別途工事）
  0
LINE
  8
_0-a_文字
  6
CONTINUOUS
 62
    7
 10
1013.7264638689754
 20
805.89774058695014
 11
1072.9048664609099
 21
908.39774058695014
  0
LINE
  8
_0-a_文字
  6
CONTINUOUS
 62
    7
 10
882.1270558342195
 20
831.84888937387598
 11
911.88879895850334
 21
883.39774058695014
  0
TEXT
  8
_0-a_文字
 62
    7
 10
1097.9048664609099
 20
900.89774058695014
 40
15.000000000000213
 41
0.9999999999999852
 50
0
  1
塩ビシート機械的固定工法
  0
TEXT
  8
_0-a_文字
 62
    7
 10
1097.9048664609099
 20
850.89774058694979
 40
15.000000000000568
 41
0.9999999999999585
 50
0
  1
断熱材
  0
TEXT
  8
_0-a_文字
 62
    7
 10
1097.9048664609097
 20
875.89774058695014
 40
15.000000000000213
 41
0.9999999999999867
 50
0
  1
ラジアルシートＬ６００
  0
LINE
  8
_0-a_文字
  6
CONTINUOUS
 62
    7
 10
1044.0373530014285
 20
858.39774058695014
 11
1092.9048664609099
 21
858.39774058695014
  0
LINE
  8
_0-a_文字
  6
CONTINUOUS
 62
    7
 10
1058.4711097311692
 20
883.39774058695014
 11
1092.9048664609099
 21
883.39774058695014
  0
LINE
  8
_0-a_文字
  6
CONTINUOUS
 62
    7
 10
1072.9048664609099
 20
908.39774058695014
 11
1092.9048664609099
 21
908.39774058695014
  0
TEXT
  8
_0-a_文字
 62
    7
 10
936.88879895850346
 20
875.89774058695014
 40
15.000000000000213
 41
0.9999999999999816
 50
0
  1
特注塩ビ鋼板
  0
LINE
  8
_0-a_文字
  6
CONTINUOUS
 62
    7
 10
911.88879895850334
 20
883.39774058695014
 11
931.88879895850334
 21
883.39774058695014
  0
LINE
  8
_0-a_文字
  6
CONTINUOUS
 62
    7
 10
849.61900691173526
 20
704.36773361545249
 11
824.19827053431902
 21
748.397740586949
  0
TEXT
  8
_0-a_文字
 62
    7
 10
664.19827053431902
 20
740.897740586949
 40
14.999999999999858
 41
1.0000000000000111
 50
0
  1
ロンシーラントＴＢ
  0
LINE
  8
_0-a_文字
  6
CONTINUOUS
 62
    7
 10
824.19827053431902
 20
748.397740586949
 11
804.19827053431902
 21
748.397740586949
  0
LINE
  8
_0-a_文字
  6
CONTINUOUS
 62
    7
 10
839.47811518710239
 20
682.59676523649034
 11
815.92166108531558
 21
723.397740586949
  0
LINE
  8
_0-a_文字
  6
CONTINUOUS
 62
    7
 10
815.92166108531558
 20
723.397740586949
 11
795.92166108531558
 21
723.397740586949
  0
TEXT
  8
_0-a_文字
 62
    7
 10
670.92166108531683
 20
715.897740586949
 40
15.000000000000213
 41
0.9999999999999879
 50
0
  1
プルーフシーラー
  0
LINE
  8
_0-d_断熱__ハッチ
  6
CONTINUOUS
 62
    4
 10
1322.7639783917352
 20
788.39774058695468
 11
1323.1580031150547
 21
788.7917653102744
  0
LINE
  8
_0-d_断熱__ハッチ
  6
CONTINUOUS
 62
    4
 10
1309.2822752880841
 20
823.39774058695184
 11
1323.1580031150547
 21
809.52201275998107
  0
LINE
  8
_0-d_断熱__ハッチ
  6
CONTINUOUS
 62
    4
 10
1294.4797071442781
 20
788.39774058695411
 11
1323.1580031150547
 21
817.07603655772971
  0
ARC
  8
_0-1_線色１__水色__
  6
CONTINUOUS
 62
    4
 10
1323.1580031150547
 20
824.9394072606043
 40
1.2083333333333179
 50
127.52351320610693
 51
270
  0
LINE
  8
_0-2_線色２__白__
  6
CONTINUOUS
 62
    7
 10
848.49343251827293
 20
828.39774058695014
 11
1323.1580031150547
 21
828.39774058695014
  0
LINE
  8
_0-2_線色２__白__
  6
CONTINUOUS
 62
    7
 10
853.49343251827293
 20
823.39774058695014
 11
1323.1580031150547
 21
823.39774058695014
  0
LINE
  8
_0-4_線色４__黄__
  6
CONTINUOUS
 62
    2
 10
950.14937931933503
 20
833.39774058695014
 11
1323.1580031150547
 21
833.39774058695014
  0
LINE
  8
_0-5_金属
  6
DASHED1
 62
    4
 10
853.14458130519768
 20
787.39774058694877
 11
1323.1580031150547
 21
787.39774058694877
  0
LINE
  8
_0-5_金属
  6
CONTINUOUS
 62
    7
 10
853.14458130519768
 20
788.39774058695014
 11
1323.1580031150547
 21
788.39774058695014
  0
LINE
  8
_0-5_金属
  6
DASHED1
 62
    4
 10
1163.1445813051982
 20
715.39774058694832
 11
1323.1580031150547
 21
715.39774058694832
  0
LINE
  8
_0-5_金属
  6
DASHED1
 62
    4
 10
1163.1445813051982
 20
714.39774058694923
 11
1323.1580031150547
 21
714.39774058694923
  0
LINE
  8
_0-5_金属
  6
CONTINUOUS
 62
    7
 10
1163.1445813051982
 20
713.39774058695014
 11
1323.1580031150547
 21
713.39774058695014
  0
LINE
  8
_0-d_断熱__ハッチ
  6
CONTINUOUS
 62
    4
 10
1280.9980040406272
 20
823.39774058695127
 11
1315.9980040406249
 21
788.39774058695355
  0
LINE
  8
_0-d_断熱__ハッチ
  6
CONTINUOUS
 62
    4
 10
1266.195435896821
 20
788.39774058695355
 11
1301.1954358968201
 21
823.39774058695127
  0
LINE
  8
_0-d_断熱__ハッチ
  6
CONTINUOUS
 62
    4
 10
1252.71373279317
 20
823.3977405869507
 11
1287.7137327931678
 21
788.39774058695298
  0
LINE
  8
_0-d_断熱__ハッチ
  6
CONTINUOUS
 62
    4
 10
1237.9111646493641
 20
788.39774058695298
 11
1272.9111646493629
 21
823.3977405869507
  0
ARC
  8
_0-1_線色１__水色__
  6
CONTINUOUS
 62
    4
 10
1318.7421226818951
 20
826.85607392699978
 40
1.2083333333333581
 50
307.52351320333912
 51
232.47648680464988
  0
ARC
  8
_0-1_線色１__水色__
  6
CONTINUOUS
 62
    4
 10
1320.2140828263719
 20
824.93940726039966
 40
1.2083333333333179
 50
127.52351320610693
 51
52.47648680188081
  0
ARC
  8
_0-1_線色１__水色__
  6
CONTINUOUS
 62
    4
 10
1321.686042970578
 20
826.85607392720442
 40
1.2083333333333581
 50
307.52351320333912
 51
232.47648680464988
  0
ARC
  8
_0-1_線色１__水色__
  6
CONTINUOUS
 62
    4
 10
1304.0225212384557
 20
826.85607392660813
 40
1.2083333333333581
 50
307.52351320333912
 51
232.47648680464988
  0
ARC
  8
_0-1_線色１__水色__
  6
CONTINUOUS
 62
    4
 10
1315.7982023931895
 20
826.85607392681277
 40
1.2083333333333581
 50
307.52351320333912
 51
232.47648680464988
  0
ARC
  8
_0-1_線色１__水色__
  6
CONTINUOUS
 62
    4
 10
1317.270162537664
 20
824.93940726021265
 40
1.2083333333333179
 50
127.52351320610693
 51
52.47648680188081
  0
ARC
  8
_0-1_線色１__水色__
  6
CONTINUOUS
 62
    4
 10
1305.4944813829325
 20
824.93940726000801
 40
1.2083333333333179
 50
127.52351320610693
 51
52.47648680188081
  0
ARC
  8
_0-1_線色１__水色__
  6
CONTINUOUS
 62
    4
 10
1308.4384016716153
 20
824.93940726021265
 40
1.2083333333333179
 50
127.52351320610693
 51
52.47648680188081
  0
ARC
  8
_0-1_線色１__水色__
  6
CONTINUOUS
 62
    4
 10
1306.9664415271386
 20
826.85607392681277
 40
1.2083333333333581
 50
307.52351320333912
 51
232.47648680464988
  0
ARC
  8
_0-1_線色１__水色__
  6
CONTINUOUS
 62
    4
 10
1311.3823219602982
 20
824.93940726041728
 40
1.2083333333333179
 50
127.52351320610693
 51
52.47648680188081
  0
ARC
  8
_0-1_線色１__水色__
  6
CONTINUOUS
 62
    4
 10
1309.9103618158238
 20
826.85607392701741
 40
1.2083333333333581
 50
307.52351320333912
 51
232.47648680464988
  0
ARC
  8
_0-1_線色１__水色__
  6
CONTINUOUS
 62
    4
 10
1314.3262422489811
 20
824.93940726062192
 40
1.2083333333333179
 50
127.52351320610693
 51
52.47648680188081
  0
ARC
  8
_0-1_線色１__水色__
  6
CONTINUOUS
 62
    4
 10
1312.8542821045066
 20
826.85607392722204
 40
1.2083333333333581
 50
307.52351320333912
 51
232.47648680464988
  0
ARC
  8
_0-1_線色１__水色__
  6
CONTINUOUS
 62
    4
 10
1289.3029197950164
 20
826.85607392621648
 40
1.2083333333333581
 50
307.52351320333912
 51
232.47648680464988
  0
ARC
  8
_0-1_線色１__水色__
  6
CONTINUOUS
 62
    4
 10
1301.0786009497501
 20
826.85607392642112
 40
1.2083333333333581
 50
307.52351320333912
 51
232.47648680464988
  0
ARC
  8
_0-1_線色１__水色__
  6
CONTINUOUS
 62
    4
 10
1302.5505610942246
 20
824.939407259821
 40
1.2083333333333179
 50
127.52351320610693
 51
52.47648680188081
  0
ARC
  8
_0-1_線色１__水色__
  6
CONTINUOUS
 62
    4
 10
1290.7748799394931
 20
824.93940725961636
 40
1.2083333333333179
 50
127.52351320610693
 51
52.47648680188081
  0
ARC
  8
_0-1_線色１__水色__
  6
CONTINUOUS
 62
    4
 10
1293.718800228176
 20
824.939407259821
 40
1.2083333333333179
 50
127.52351320610693
 51
52.47648680188081
  0
ARC
  8
_0-1_線色１__水色__
  6
CONTINUOUS
 62
    4
 10
1292.2468400836992
 20
826.85607392642112
 40
1.2083333333333581
 50
307.52351320333912
 51
232.47648680464988
  0
ARC
  8
_0-1_線色１__水色__
  6
CONTINUOUS
 62
    4
 10
1296.6627205168588
 20
824.93940726002563
 40
1.2083333333333179
 50
127.52351320610693
 51
52.47648680188081
  0
ARC
  8
_0-1_線色１__水色__
  6
CONTINUOUS
 62
    4
 10
1295.1907603723844
 20
826.85607392662575
 40
1.2083333333333581
 50
307.52351320333912
 51
232.47648680464988
  0
ARC
  8
_0-1_線色１__水色__
  6
CONTINUOUS
 62
    4
 10
1299.6066408055417
 20
824.93940726023027
 40
1.2083333333333179
 50
127.52351320610693
 51
52.47648680188081
  0
ARC
  8
_0-1_線色１__水色__
  6
CONTINUOUS
 62
    4
 10
1298.1346806610673
 20
826.85607392683039
 40
1.2083333333333581
 50
307.52351320333912
 51
232.47648680464988
  0
ARC
  8
_0-1_線色１__水色__
  6
CONTINUOUS
 62
    4
 10
1274.583318351577
 20
826.85607392582483
 40
1.2083333333333581
 50
307.52351320333912
 51
232.47648680464988
  0
ARC
  8
_0-1_線色１__水色__
  6
CONTINUOUS
 62
    4
 10
1286.3589995063107
 20
826.85607392602947
 40
1.2083333333333581
 50
307.52351320333912
 51
232.47648680464988
  0
ARC
  8
_0-1_線色１__水色__
  6
CONTINUOUS
 62
    4
 10
1287.8309596507852
 20
824.93940725942934
 40
1.2083333333333179
 50
127.52351320610693
 51
52.47648680188081
  0
ARC
  8
_0-1_線色１__水色__
  6
CONTINUOUS
 62
    4
 10
1276.0552784960537
 20
824.93940725922471
 40
1.2083333333333179
 50
127.52351320610693
 51
52.47648680188081
  0
ARC
  8
_0-1_線色１__水色__
  6
CONTINUOUS
 62
    4
 10
1278.9991987847366
 20
824.93940725942934
 40
1.2083333333333179
 50
127.52351320610693
 51
52.47648680188081
  0
ARC
  8
_0-1_線色１__水色__
  6
CONTINUOUS
 62
    4
 10
1277.5272386402598
 20
826.85607392602947
 40
1.2083333333333581
 50
307.52351320333912
 51
232.47648680464988
  0
ARC
  8
_0-1_線色１__水色__
  6
CONTINUOUS
 62
    4
 10
1281.9431190734194
 20
824.93940725963398
 40
1.2083333333333179
 50
127.52351320610693
 51
52.47648680188081
  0
ARC
  8
_0-1_線色１__水色__
  6
CONTINUOUS
 62
    4
 10
1280.471158928945
 20
826.8560739262341
 40
1.2083333333333581
 50
307.52351320333912
 51
232.47648680464988
  0
ARC
  8
_0-1_線色１__水色__
  6
CONTINUOUS
 62
    4
 10
1284.8870393621023
 20
824.93940725983862
 40
1.2083333333333179
 50
127.52351320610693
 51
52.47648680188081
  0
ARC
  8
_0-1_線色１__水色__
  6
CONTINUOUS
 62
    4
 10
1283.4150792176279
 20
826.85607392643874
 40
1.2083333333333581
 50
307.52351320333912
 51
232.47648680464988
  0
LINE
  8
_0-5_金属
  6
CONTINUOUS
 62
    7
 10
1033.1445813051982
 20
597.39772058694882
 11
1033.1445813051982
 21
523.09834082047303
  0
LINE
  8
_0-5_金属
  6
CONTINUOUS
 62
    7
 10
973.14458130519824
 20
597.39772058694882
 11
973.14458130519824
 21
523.09834082047303
  0
LINE
  8
_0-7_ビス
  6
CENTER1
 62
    4
 10
973.7445813051977
 20
627.72853176835554
 11
923.7445813051977
 21
627.72853176835554
  0
LINE
  8
_0-7_ビス
  6
CENTER1
 62
    4
 10
923.7445813051977
 20
652.72853176835554
 11
973.7445813051977
 21
652.72853176835554
  0
ARC
  8
_0-8_笠木他
  6
CONTINUOUS
 62
    4
 10
771.44468130519726
 20
627.5284317683537
 40
3.0000000000000004
 50
270
 51
0
  0
LINE
  8
_0-8_笠木他
  6
CONTINUOUS
 62
    4
 10
774.44458130519706
 20
627.5284317683537
 11
774.44458130519706
 21
629.02853176835436
  0
LINE
  8
_0-8_笠木他
  6
CONTINUOUS
 62
    4
 10
774.44458130519706
 20
627.5284317683537
 11
779.44458130519706
 21
627.5284317683537
  0
LINE
  8
_0-8_笠木他
  6
CONTINUOUS
 62
    4
 10
779.44458130519706
 20
627.5284317683537
 11
779.44458130519706
 21
629.02853176835436
  0
LINE
  8
_0-8_笠木他
  6
CONTINUOUS
 62
    4
 10
757.44448130519686
 20
566.02843176835279
 11
757.44448130519686
 21
564.52843176835415
  0
LINE
  8
_0-8_笠木他
  6
CONTINUOUS
 62
    4
 10
759.44468130519681
 20
566.02843176835279
 11
757.44448130519686
 21
566.02843176835279
  0
ARC
  8
_0-8_笠木他
  6
CONTINUOUS
 62
    4
 10
759.44468130519681
 20
561.52843176835461
 40
4.5
 50
0
 51
90
  0
ARC
  8
_0-8_笠木他
  6
CONTINUOUS
 62
    4
 10
759.44468130519681
 20
561.52843176835461
 40
3.0000000000000004
 50
0
 51
90
  0
LINE
  8
_0-8_笠木他
  6
CONTINUOUS
 62
    4
 10
763.94458130519752
 20
548.52843176835279
 11
762.44448130519686
 21
548.52843176835279
  0
LINE
  8
_0-8_笠木他
  6
CONTINUOUS
 62
    4
 10
763.94458130519752
 20
561.52843176835461
 11
763.94458130519752
 21
548.52843176835279
  0
LINE
  8
_0-8_笠木他
  6
CONTINUOUS
 62
    4
 10
762.44448130519686
 20
548.52843176835279
 11
762.44448130519686
 21
561.52843176835461
  0
LINE
  8
_0-8_笠木他
  6
CONTINUOUS
 62
    4
 10
861.34048130519659
 20
633.52843176835506
 11
748.94458130519752
 21
633.52843176835506
  0
ARC
  8
_0-8_笠木他
  6
CONTINUOUS
 62
    4
 10
750.94448130519595
 20
571.02843176835279
 40
1.9999999000000002
 50
180
 51
270
  0
ARC
  8
_0-8_笠木他
  6
CONTINUOUS
 62
    4
 10
750.94448130519595
 20
622.5284317683537
 40
1.9999999000000002
 50
90
 51
180
  0
ARC
  8
_0-8_笠木他
  6
CONTINUOUS
 62
    4
 10
750.94448130519595
 20
622.5284317683537
 40
6.5000001000000029
 50
90
 51
180
  0
ARC
  8
_0-8_笠木他
  6
CONTINUOUS
 62
    4
 10
750.94448130519595
 20
571.02843176835279
 40
6.5000001000000029
 50
180
 51
270
  0
ARC
  8
_0-8_笠木他
  6
CONTINUOUS
 62
    4
 10
754.44468130519681
 20
566.02843176835279
 40
3.0000000000000004
 50
0
 51
90
  0
ARC
  8
_0-8_笠木他
  6
CONTINUOUS
 62
    4
 10
746.94458130519706
 20
663.0283317683535
 40
4.5
 50
90
 51
180
  0
ARC
  8
_0-8_笠木他
  6
CONTINUOUS
 62
    4
 10
748.94458130519752
 20
635.52843176835552
 40
1.9999999000000002
 50
180
 51
270
  0
ARC
  8
_0-8_笠木他
  6
CONTINUOUS
 62
    4
 10
748.94458130519752
 20
635.52843176835552
 40
6.5000001000000029
 50
180
 51
270
  0
ARC
  8
_0-8_笠木他
  6
CONTINUOUS
 62
    4
 10
748.44458130519797
 20
666.02843176835506
 40
3.0000000000000004
 50
270
 51
0
  0
LINE
  8
_0-8_笠木他
  6
CONTINUOUS
 62
    4
 10
748.90850790779723
 20
629.02853176835436
 11
862.49148130519643
 21
629.02853176835436
  0
LINE
  8
_0-8_笠木他
  6
CONTINUOUS
 62
    4
 10
754.44468130519681
 20
569.02853176835436
 11
750.94448130519595
 21
569.02853176835436
  0
LINE
  8
_0-8_笠木他
  6
CONTINUOUS
 62
    4
 10
771.44468130519726
 20
624.52843176835415
 11
750.94448130519595
 21
624.52843176835415
  0
LINE
  8
_0-8_笠木他
  6
CONTINUOUS
 62
    4
 10
759.44468130519681
 20
564.52843176835415
 11
750.94448130519595
 21
564.52843176835415
  0
LINE
  8
_0-8_笠木他
  6
CONTINUOUS
 62
    4
 10
748.94458130519752
 20
571.02843176835279
 11
748.94458130519752
 21
622.5284317683537
  0
LINE
  8
_0-8_笠木他
  6
CONTINUOUS
 62
    4
 10
744.44468130519681
 20
622.5284317683537
 11
744.44468130519681
 21
571.02843176835279
  0
LINE
  8
_0-8_笠木他
  6
CONTINUOUS
 62
    4
 10
746.94458130519706
 20
663.0283317683535
 11
746.94458130519706
 21
635.52843176835552
  0
LINE
  8
_0-8_笠木他
  6
CONTINUOUS
 62
    4
 10
756.44458130519752
 20
666.02843176835506
 11
751.44458130519752
 21
666.02843176835506
  0
LINE
  8
_0-8_笠木他
  6
CONTINUOUS
 62
    4
 10
746.94458130519706
 20
663.0283317683535
 11
748.44458130519797
 21
663.0283317683535
  0
LINE
  8
_0-8_笠木他
  6
CONTINUOUS
 62
    4
 10
751.44458130519752
 20
666.02843176835506
 11
751.44458130519752
 21
667.52853176835345
  0
LINE
  8
_0-8_笠木他
  6
CONTINUOUS
 62
    4
 10
756.44458130519752
 20
666.02843176835506
 11
756.44458130519752
 21
667.52853176835345
  0
LINE
  8
_0-8_笠木他
  6
CONTINUOUS
 62
    4
 10
756.44458130519752
 20
667.52853176835345
 11
746.94458130519706
 21
667.52853176835345
  0
ARC
  8
_0-8_笠木他
  6
CONTINUOUS
 62
    4
 10
899.94458130519888
 20
630.52843176835552
 40
1.5000000000000002
 50
180
 51
270
  0
ARC
  8
_0-8_笠木他
  6
CONTINUOUS
 62
    4
 10
892.44448130519686
 20
629.5285317683539
 40
0.9999999000000003
 50
90
 51
180
  0
ARC
  8
_0-8_笠木他
  6
CONTINUOUS
 62
    4
 10
885.94458130519797
 20
630.0284317683537
 40
0.9999999000000003
 50
270
 51
0
  0
ARC
  8
_0-8_笠木他
  6
CONTINUOUS
 62
    4
 10
885.94458130519797
 20
630.0284317683537
 40
2.4999999000000002
 50
270
 51
0
  0
LINE
  8
_0-8_笠木他
  6
CONTINUOUS
 62
    4
 10
901.44468130519726
 20
630.52843176835552
 11
892.44448130519686
 21
630.52843176835552
  0
LINE
  8
_0-8_笠木他
  6
CONTINUOUS
 62
    4
 10
901.44468130519726
 20
629.02853176835436
 11
899.94458130519888
 21
629.02853176835436
  0
LINE
  8
_0-8_笠木他
  6
CONTINUOUS
 62
    4
 10
862.71858130519831
 20
657.0285317683539
 11
869.95348130519687
 21
657.0285317683539
  0
ARC
  8
_0-8_笠木他
  6
CONTINUOUS
 62
    4
 10
895.44458130519615
 20
655.52853176835526
 40
4.5
 50
0
 51
90
  0
ARC
  8
_0-8_笠木他
  6
CONTINUOUS
 62
    4
 10
901.44468130519726
 20
655.02853176835345
 40
0.4999999
 50
0
 51
90
  0
ARC
  8
_0-8_笠木他
  6
CONTINUOUS
 62
    4
 10
901.44468130519726
 20
632.5284317683537
 40
0.4999999
 50
270
 51
0
  0
ARC
  8
_0-8_笠木他
  6
CONTINUOUS
 62
    4
 10
901.44468130519726
 20
655.02853176835345
 40
1.9999999000000002
 50
0
 51
90
  0
ARC
  8
_0-8_笠木他
  6
CONTINUOUS
 62
    4
 10
901.44468130519726
 20
655.02853176835345
 40
3.4999997999999999
 50
0
 51
90
  0
ARC
  8
_0-8_笠木他
  6
CONTINUOUS
 62
    4
 10
901.44468130519726
 20
632.5284317683537
 40
1.9999999000000002
 50
270
 51
0
  0
ARC
  8
_0-8_笠木他
  6
CONTINUOUS
 62
    4
 10
901.44468130519726
 20
632.5284317683537
 40
3.4999997999999999
 50
270
 51
0
  0
ARC
  8
_0-8_笠木他
  6
CONTINUOUS
 62
    4
 10
876.88158130519696
 20
650.52853176835526
 40
4.9999998000000101
 50
90
 51
165.00000000000099
  0
ARC
  8
_0-8_笠木他
  6
CONTINUOUS
 62
    4
 10
876.88158130519696
 20
650.52853176835526
 40
9.4999995000000101
 50
90
 51
165.00000000000003
  0
ARC
  8
_0-8_笠木他
  6
CONTINUOUS
 62
    4
 10
891.94468130519681
 20
630.0284317683537
 40
1.9999999000000002
 50
90
 51
180
  0
ARC
  8
_0-8_笠木他
  6
CONTINUOUS
 62
    4
 10
889.44468130519681
 20
633.02853176835526
 40
0.9999999000000003
 50
90
 51
180
  0
ARC
  8
_0-8_笠木他
  6
CONTINUOUS
 62
    4
 10
889.44468130519681
 20
633.02853176835526
 40
2.4999999000000002
 50
90
 51
180
  0
ARC
  8
_0-8_笠木他
  6
CONTINUOUS
 62
    4
 10
927.24458130519906
 20
604.22843176835443
 40
1.9999999000000002
 50
180
 51
270
  0
ARC
  8
_0-8_笠木他
  6
CONTINUOUS
 62
    4
 10
921.44468130519726
 20
663.22843176835534
 40
9.9999996000000007
 50
0
 51
90
  0
ARC
  8
_0-8_笠木他
  6
CONTINUOUS
 62
    4
 10
920.58658130519689
 20
663.22843176835534
 40
9.9999996000000007
 50
90
 51
135
  0
ARC
  8
_0-8_笠木他
  6
CONTINUOUS
 62
    4
 10
904.37358130519897
 20
668.22843176835534
 40
4.9999998000000101
 50
270
 51
315.00000000000102
  0
ARC
  8
_0-8_笠木他
  6
CONTINUOUS
 62
    4
 10
920.83768130519729
 20
662.62143176835536
 40
4.4099997999999996
 50
0
 51
137.22549000000001
  0
ARC
  8
_0-8_笠木他
  6
CONTINUOUS
 62
    4
 10
904.37358130519897
 20
668.22843176835534
 40
11.199999999999999
 50
270
 51
315.00000000000102
  0
LINE
  8
_0-8_笠木他
  6
CONTINUOUS
 62
    4
 10
901.94458130519706
 20
632.5284317683537
 11
901.94458130519706
 21
655.02853176835345
  0
LINE
  8
_0-8_笠木他
  6
CONTINUOUS
 62
    4
 10
901.44468130519726
 20
655.52853176835526
 11
876.88158130519696
 21
655.52853176835526
  0
LINE
  8
_0-8_笠木他
  6
CONTINUOUS
 62
    4
 10
895.44458130519615
 20
660.02853176835345
 11
876.88158130519696
 21
660.02853176835345
  0
LINE
  8
_0-8_笠木他
  6
CONTINUOUS
 62
    4
 10
903.44458130519797
 20
632.5284317683537
 11
903.44458130519797
 21
655.02853176835345
  0
LINE
  8
_0-8_笠木他
  6
CONTINUOUS
 62
    4
 10
904.94448130519686
 20
632.5284317683537
 11
904.94448130519686
 21
655.02853176835345
  0
LINE
  8
_0-8_笠木他
  6
CONTINUOUS
 62
    4
 10
901.44468130519726
 20
658.52843176835506
 11
898.79848130519804
 21
658.52843176835506
  0
LINE
  8
_0-8_笠木他
  6
CONTINUOUS
 62
    4
 10
901.44468130519726
 20
657.0285317683539
 11
899.68758130519745
 21
657.0285317683539
  0
LINE
  8
_0-8_笠木他
  6
CONTINUOUS
 62
    4
 10
893.44458130519797
 20
635.52843176835552
 11
893.44458130519797
 21
634.02853176835436
  0
LINE
  8
_0-8_笠木他
  6
CONTINUOUS
 62
    4
 10
886.94458130519706
 20
633.02853176835526
 11
886.94458130519706
 21
630.0284317683537
  0
LINE
  8
_0-8_笠木他
  6
CONTINUOUS
 62
    4
 10
888.44448130519595
 20
633.02853176835526
 11
888.44448130519595
 21
630.0284317683537
  0
LINE
  8
_0-8_笠木他
  6
CONTINUOUS
 62
    4
 10
893.44458130519797
 20
634.02853176835436
 11
889.44468130519681
 21
634.02853176835436
  0
LINE
  8
_0-8_笠木他
  6
CONTINUOUS
 62
    4
 10
893.44458130519797
 20
635.52843176835552
 11
889.44468130519681
 21
635.52843176835552
  0
LINE
  8
_0-8_笠木他
  6
CONTINUOUS
 62
    4
 10
931.44448130519777
 20
590.22853176835554
 11
931.44448130519777
 21
622.72853176835554
  0
LINE
  8
_0-8_笠木他
  6
CONTINUOUS
 62
    4
 10
931.44448130519777
 20
590.22853176835554
 11
929.94448130519686
 21
590.22853176835554
  0
LINE
  8
_0-8_笠木他
  6
CONTINUOUS
 62
    4
 10
931.44448130519777
 20
602.22853176835372
 11
927.24458130519906
 21
602.22853176835372
  0
LINE
  8
_0-8_笠木他
  6
CONTINUOUS
 62
    4
 10
929.94448130519686
 20
602.22853176835372
 11
929.94448130519686
 21
590.22853176835554
  0
LINE
  8
_0-8_笠木他
  6
CONTINUOUS
 62
    4
 10
921.44468130519726
 20
673.22843176835534
 11
920.58658130519689
 21
673.22843176835534
  0
LINE
  8
_0-8_笠木他
  6
CONTINUOUS
 62
    4
 10
923.7445813051977
 20
657.72853176835554
 11
931.94458130519706
 21
657.72853176835554
  0
LINE
  8
_0-8_笠木他
  6
CONTINUOUS
 62
    4
 10
923.7445813051977
 20
657.72853176835554
 11
923.7445813051977
 21
622.72853176835554
  0
LINE
  8
_0-8_笠木他
  6
CONTINUOUS
 62
    4
 10
931.94458130519706
 20
622.72853176835554
 11
931.94458130519706
 21
657.72853176835554
  0
LINE
  8
_0-8_笠木他
  6
CONTINUOUS
 62
    4
 10
931.94458130519706
 20
622.72853176835554
 11
923.7445813051977
 21
622.72853176835554
  0
LINE
  8
_0-8_笠木他
  6
CONTINUOUS
 62
    4
 10
925.24438130519684
 20
604.22843176835443
 11
925.24438130519684
 21
622.72853176835554
  0
LINE
  8
_0-8_笠木他
  6
CONTINUOUS
 62
    4
 10
931.44448130519777
 20
663.22843176835534
 11
931.44448130519777
 21
657.72853176835554
  0
LINE
  8
_0-8_笠木他
  6
CONTINUOUS
 62
    4
 10
925.24438130519684
 20
662.62143176835536
 11
925.24438130519684
 21
657.72853176835554
  0
LINE
  8
_0-8_笠木他
  6
CONTINUOUS
 62
    4
 10
930.44448130519868
 20
622.72853176835554
 11
930.44448130519868
 21
657.72853176835554
  0
LINE
  8
_0-8_笠木他
  6
CONTINUOUS
 62
    4
 10
913.51548130519859
 20
670.29943176835388
 11
907.90858130519609
 21
664.69253176835366
  0
LINE
  8
_0-8_笠木他
  6
CONTINUOUS
 62
    4
 10
917.60048130519863
 20
665.61643176835389
 11
912.29368130519788
 21
660.3084317683539
  0
LINE
  8
_0-8_笠木他
  6
CONTINUOUS
 62
    4
 10
904.37358130519897
 20
663.22843176835534
 11
862.71858130519831
 21
663.22843176835534
  0
ARC
  8
_0-8_笠木他
  6
CONTINUOUS
 62
    4
 10
839.94448130519686
 20
628.52853176835481
 40
0.4999999
 50
270
 51
90
  0
LINE
  8
_0-8_笠木他
  6
CONTINUOUS
 62
    4
 10
843.44448130519595
 20
629.02853176835436
 11
843.44448130519595
 21
627.52853176835345
  0
LINE
  8
_0-8_笠木他
  6
CONTINUOUS
 62
    4
 10
860.44458130519615
 20
627.0285317683539
 11
854.44468130519681
 21
627.0285317683539
  0
LINE
  8
_0-8_笠木他
  6
CONTINUOUS
 62
    4
 10
854.44468130519681
 20
627.0285317683539
 11
854.44468130519681
 21
627.52853176835345
  0
LINE
  8
_0-8_笠木他
  6
CONTINUOUS
 62
    4
 10
860.44458130519615
 20
627.0285317683539
 11
860.44458130519615
 21
627.52853176835345
  0
LINE
  8
_0-8_笠木他
  6
CONTINUOUS
 62
    4
 10
889.94458130519888
 20
612.0285317683539
 11
889.94458130519888
 21
630.0284317683537
  0
LINE
  8
_0-8_笠木他
  6
CONTINUOUS
 62
    4
 10
891.44458130519752
 20
629.5285317683539
 11
891.44458130519752
 21
612.0285317683539
  0
LINE
  8
_0-8_笠木他
  6
CONTINUOUS
 62
    4
 10
889.94458130519888
 20
612.0285317683539
 11
891.44458130519752
 21
612.0285317683539
  0
LINE
  8
_0-8_笠木他
  6
CONTINUOUS
 62
    4
 10
843.44448130519595
 20
627.52853176835345
 11
885.94458130519797
 21
627.52853176835345
  0
LINE
  8
_0-8_笠木他
  6
CONTINUOUS
 62
    4
 10
885.94458130519797
 20
629.02853176835436
 11
862.49148130519643
 21
629.02853176835436
  0
ARC
  8
_0-8_笠木他
  6
CONTINUOUS
 62
    4
 10
862.49148130519643
 20
633.52843176835506
 40
4.5
 50
270
 51
345
  0
ARC
  8
_0-8_笠木他
  6
CONTINUOUS
 62
    4
 10
861.34048130519659
 20
635.02853176835345
 40
1.5000000000000002
 50
270
 51
344.99999999999801
  0
ARC
  8
_0-8_笠木他
  6
CONTINUOUS
 62
    4
 10
824.22858130519671
 20
640.68043176835374
 40
6.0000000000000231
 50
30.029998000000205
 51
95.669997999999893
  0
ARC
  8
_0-8_笠木他
  6
CONTINUOUS
 62
    4
 10
831.58858130519775
 20
646.37243176835511
 40
9.9999996000000007
 50
195.32998000000001
 51
254.66999000000101
  0
ARC
  8
_0-8_笠木他
  6
CONTINUOUS
 62
    4
 10
844.66058130519741
 20
640.68043176835374
 40
6.0000000000000231
 50
84.329986000000702
 51
149.96998000000099
  0
ARC
  8
_0-8_笠木他
  6
CONTINUOUS
 62
    4
 10
837.30058130519865
 20
646.37243176835511
 40
9.9999996000000007
 50
285.32997999999998
 51
344.66999000000101
  0
ARC
  8
_0-8_笠木他
  6
CONTINUOUS
 62
    4
 10
844.10748130519778
 20
641.72843176835443
 40
11.199999999999999
 50
312.929990000001
 51
345.00000000000199
  0
ARC
  8
_0-8_笠木他
  6
CONTINUOUS
 62
    4
 10
844.10748130519778
 20
641.72843176835443
 40
4.9999998000000101
 50
270
 51
345.00000000000199
  0
ARC
  8
_0-8_笠木他
  6
CONTINUOUS
 62
    4
 10
862.71858130519831
 20
653.22843176835534
 40
3.7999997000000008
 50
90
 51
165.00000000000099
  0
ARC
  8
_0-8_笠木他
  6
CONTINUOUS
 62
    4
 10
862.71858130519831
 20
653.22843176835534
 40
9.9999996000000007
 50
90
 51
165.00000000000003
  0
ARC
  8
_0-8_笠木他
  6
CONTINUOUS
 62
    4
 10
828.94468130519726
 20
628.52853176835481
 40
0.4999999
 50
90
 51
270
  0
LINE
  8
_0-8_笠木他
  6
CONTINUOUS
 62
    4
 10
872.05248130519749
 20
651.82243176835357
 11
866.83858130519639
 21
632.36343176835419
  0
LINE
  8
_0-8_笠木他
  6
CONTINUOUS
 62
    4
 10
862.78948130519893
 20
634.64053176835534
 11
867.70558130519703
 21
652.98743176835444
  0
LINE
  8
_0-8_笠木他
  6
CONTINUOUS
 62
    4
 10
837.44448130519686
 20
645.02853176835345
 11
831.44458130519752
 21
645.02853176835345
  0
LINE
  8
_0-8_笠木他
  6
CONTINUOUS
 62
    4
 10
846.94458130519706
 20
643.72853176835463
 11
846.94458130519706
 21
646.72843176835443
  0
LINE
  8
_0-8_笠木他
  6
CONTINUOUS
 62
    4
 10
837.44448130519686
 20
640.72843176835534
 11
837.44448130519686
 21
645.02853176835345
  0
LINE
  8
_0-8_笠木他
  6
CONTINUOUS
 62
    4
 10
831.44458130519752
 20
640.72843176835534
 11
831.44458130519752
 21
645.02853176835345
  0
LINE
  8
_0-8_笠木他
  6
CONTINUOUS
 62
    4
 10
829.94448130519686
 20
640.72843176835534
 11
829.42358130519779
 21
643.68253176835481
  0
LINE
  8
_0-8_笠木他
  6
CONTINUOUS
 62
    4
 10
821.94458130519706
 20
646.72843176835443
 11
823.94458130519752
 21
646.72843176835443
  0
LINE
  8
_0-8_笠木他
  6
CONTINUOUS
 62
    4
 10
834.44468130519681
 20
640.72843176835534
 11
829.94448130519686
 21
640.72843176835534
  0
LINE
  8
_0-8_笠木他
  6
CONTINUOUS
 62
    4
 10
821.94458130519706
 20
646.72843176835443
 11
821.94458130519706
 21
643.72853176835463
  0
LINE
  8
_0-8_笠木他
  6
CONTINUOUS
 62
    4
 10
838.94448130519777
 20
640.72843176835534
 11
839.46558130519861
 21
643.68253176835481
  0
LINE
  8
_0-8_笠木他
  6
CONTINUOUS
 62
    4
 10
846.94458130519706
 20
646.72843176835443
 11
844.94438130519711
 21
646.72843176835443
  0
LINE
  8
_0-8_笠木他
  6
CONTINUOUS
 62
    4
 10
834.44468130519681
 20
640.72843176835534
 11
838.94448130519777
 21
640.72843176835534
  0
LINE
  8
_0-8_笠木他
  6
CONTINUOUS
 62
    4
 10
854.92638130519708
 20
638.82953176835429
 11
859.04758130519895
 21
654.21153176835389
  0
LINE
  8
_0-8_笠木他
  6
CONTINUOUS
 62
    4
 10
853.05958130519684
 20
655.81653176835346
 11
848.93748130519725
 21
640.43453176835385
  0
LINE
  8
_0-8_笠木他
  6
CONTINUOUS
 62
    4
 10
824.44468130519681
 20
636.72843176835443
 11
844.10748130519778
 21
636.72843176835443
  0
LINE
  8
_0-8_笠木他
  6
CONTINUOUS
 62
    4
 10
824.44468130519681
 20
636.72843176835443
 11
824.44468130519681
 21
633.52843176835506
  0
LINE
  8
_0-8_笠木他
  6
CONTINUOUS
 62
    4
 10
839.94448130519686
 20
628.02853176835526
 11
828.94468130519726
 21
628.02853176835526
  0
ARC
  8
_0-8_笠木他
  6
CONTINUOUS
 62
    4
 10
757.84438130519902
 20
561.62858166835406
 40
1.3999999999999999
 50
0
 51
90
  0
ARC
  8
_0-8_笠木他
  6
CONTINUOUS
 62
    4
 10
757.84438130519902
 20
561.62858166835406
 40
1.9999999000000002
 50
0
 51
90
  0
ARC
  8
_0-8_笠木他
  6
CONTINUOUS
 62
    4
 10
761.24438130519593
 20
548.22853166835387
 40
1.3999999999999999
 50
180
 51
270
  0
ARC
  8
_0-8_笠木他
  6
CONTINUOUS
 62
    4
 10
761.24438130519593
 20
548.22853166835387
 40
1.9999999000000002
 50
180
 51
270
  0
ARC
  8
_0-8_笠木他
  6
CONTINUOUS
 62
    4
 10
743.84448130519786
 20
565.0286116683543
 40
1.9999999000000002
 50
180
 51
270
  0
ARC
  8
_0-8_笠木他
  6
CONTINUOUS
 62
    4
 10
743.84448130519786
 20
565.0286116683543
 40
1.3999999999999999
 50
180
 51
270
  0
ARC
  8
_0-8_笠木他
  6
CONTINUOUS
 62
    4
 10
743.84448130519786
 20
666.22863166835543
 40
1.3999999999999999
 50
90
 51
180
  0
ARC
  8
_0-8_笠木他
  6
CONTINUOUS
 62
    4
 10
756.04438130519611
 20
666.22863166835543
 40
1.3999999999999999
 50
0
 51
90
  0
ARC
  8
_0-8_笠木他
  6
CONTINUOUS
 62
    4
 10
756.04438130519611
 20
666.22863166835543
 40
1.9999999000000002
 50
0
 51
90
  0
ARC
  8
_0-8_笠木他
  6
CONTINUOUS
 62
    4
 10
743.84448130519786
 20
666.22863166835543
 40
1.9999999000000002
 50
90
 51
180
  0
ARC
  8
_0-8_笠木他
  6
CONTINUOUS
 62
    4
 10
887.24438130519729
 20
548.22853166835387
 40
1.9999999000000002
 50
270
 51
0
  0
ARC
  8
_0-8_笠木他
  6
CONTINUOUS
 62
    4
 10
887.24438130519729
 20
548.22853166835387
 40
1.3999999999999999
 50
270
 51
0
  0
ARC
  8
_0-8_笠木他
  6
CONTINUOUS
 62
    4
 10
890.64438130519648
 20
651.22853166835341
 40
1.9999999000000002
 50
90
 51
180
  0
ARC
  8
_0-8_笠木他
  6
CONTINUOUS
 62
    4
 10
890.64438130519648
 20
651.22853166835341
 40
1.3999999999999999
 50
90
 51
180
  0
ARC
  8
_0-8_笠木他
  6
CONTINUOUS
 62
    4
 10
897.84438130519902
 20
651.22853166835341
 40
1.9999999000000002
 50
0
 51
90
  0
ARC
  8
_0-8_笠木他
  6
CONTINUOUS
 62
    4
 10
897.84438130519902
 20
651.22853166835341
 40
1.3999999999999999
 50
0
 51
90
  0
ARC
  8
_0-8_笠木他
  6
CONTINUOUS
 62
    4
 10
897.84438130519902
 20
634.02853166835541
 40
1.9999999000000002
 50
270
 51
0
  0
ARC
  8
_0-8_笠木他
  6
CONTINUOUS
 62
    4
 10
897.84438130519902
 20
634.02853166835541
 40
1.3999999999999999
 50
270
 51
0
  0
ARC
  8
_0-8_笠木他
  6
CONTINUOUS
 62
    4
 10
890.64438130519648
 20
630.62843166835421
 40
1.9999999000000002
 50
90
 51
180
  0
ARC
  8
_0-8_笠木他
  6
CONTINUOUS
 62
    4
 10
890.64438130519648
 20
630.62843166835421
 40
1.3999999999999999
 50
90
 51
180
  0
LINE
  8
_0-8_笠木他
  6
CONTINUOUS
 62
    4
 10
761.24438130519593
 20
546.22856166835447
 11
887.24438130519729
 21
546.22856166835447
  0
LINE
  8
_0-8_笠木他
  6
CONTINUOUS
 62
    4
 10
759.24438130519775
 20
561.62858166835406
 11
759.24438130519775
 21
548.22853166835387
  0
LINE
  8
_0-8_笠木他
  6
CONTINUOUS
 62
    4
 10
759.8443813051972
 20
548.22853166835387
 11
759.8443813051972
 21
561.62858166835406
  0
LINE
  8
_0-8_笠木他
  6
CONTINUOUS
 62
    4
 10
761.24438130519593
 20
546.82855166835282
 11
887.24438130519729
 21
546.82855166835282
  0
LINE
  8
_0-8_笠木他
  6
CONTINUOUS
 62
    4
 10
757.84438130519902
 20
563.62855166835345
 11
743.84448130519786
 21
563.62855166835345
  0
LINE
  8
_0-8_笠木他
  6
CONTINUOUS
 62
    4
 10
743.84448130519786
 20
563.02864166835491
 11
757.84438130519902
 21
563.02864166835491
  0
LINE
  8
_0-8_笠木他
  6
CONTINUOUS
 62
    4
 10
741.84428130519791
 20
666.22863166835543
 11
741.84428130519791
 21
565.0286116683543
  0
LINE
  8
_0-8_笠木他
  6
CONTINUOUS
 62
    4
 10
742.44448130519686
 20
565.0286116683543
 11
742.44448130519686
 21
666.22863166835543
  0
LINE
  8
_0-8_笠木他
  6
CONTINUOUS
 62
    4
 10
743.84448130519786
 20
667.62853166835441
 11
756.04438130519611
 21
667.62853166835441
  0
LINE
  8
_0-8_笠木他
  6
CONTINUOUS
 62
    4
 10
757.44438130519711
 20
666.22863166835543
 11
757.44438130519711
 21
657.62853166835441
  0
LINE
  8
_0-8_笠木他
  6
CONTINUOUS
 62
    4
 10
757.44438130519711
 20
657.62853166835441
 11
758.04438130519884
 21
657.62853166835441
  0
LINE
  8
_0-8_笠木他
  6
CONTINUOUS
 62
    4
 10
758.04438130519884
 20
657.62853166835441
 11
758.04438130519884
 21
666.22863166835543
  0
LINE
  8
_0-8_笠木他
  6
CONTINUOUS
 62
    4
 10
756.04438130519611
 20
668.22853166835387
 11
743.84448130519786
 21
668.22853166835387
  0
LINE
  8
_0-8_笠木他
  6
CONTINUOUS
 62
    4
 10
889.24438130519775
 20
630.62843166835421
 11
889.24438130519775
 21
548.22853166835387
  0
LINE
  8
_0-8_笠木他
  6
CONTINUOUS
 62
    4
 10
888.64438130519829
 20
548.22853166835387
 11
888.64438130519829
 21
630.62843166835421
  0
LINE
  8
_0-8_笠木他
  6
CONTINUOUS
 62
    4
 10
901.44468130519726
 20
632.0285317683539
 11
890.64438130519648
 21
632.02853166835496
  0
LINE
  8
_0-8_笠木他
  6
CONTINUOUS
 62
    4
 10
899.8443813051972
 20
651.22853166835341
 11
899.8443813051972
 21
634.02853166835541
  0
LINE
  8
_0-8_笠木他
  6
CONTINUOUS
 62
    4
 10
890.64438130519648
 20
653.22853166835387
 11
897.84438130519902
 21
653.22853166835387
  0
LINE
  8
_0-8_笠木他
  6
CONTINUOUS
 62
    4
 10
888.64438130519829
 20
642.62853166835441
 11
888.64438130519829
 21
651.22853166835341
  0
LINE
  8
_0-8_笠木他
  6
CONTINUOUS
 62
    4
 10
889.24438130519775
 20
642.62853166835441
 11
888.64438130519829
 21
642.62853166835441
  0
LINE
  8
_0-8_笠木他
  6
CONTINUOUS
 62
    4
 10
889.24438130519775
 20
651.22853166835341
 11
889.24438130519775
 21
642.62853166835441
  0
LINE
  8
_0-8_笠木他
  6
CONTINUOUS
 62
    4
 10
897.84438130519902
 20
652.62853166835441
 11
890.64438130519648
 21
652.62853166835441
  0
LINE
  8
_0-8_笠木他
  6
CONTINUOUS
 62
    4
 10
899.24438130519775
 20
634.02853166835541
 11
899.24438130519775
 21
651.22853166835341
  0
LINE
  8
_0-8_笠木他
  6
CONTINUOUS
 62
    4
 10
890.64438130519648
 20
632.62853166835441
 11
897.84438130519902
 21
632.62853166835441
  0
LINE
  8
_0-5_金属
  6
CONTINUOUS
 62
    7
 10
1051.9445813051975
 20
789.59774058695018
 11
1051.9445813051975
 21
788.39774058695014
  0
LINE
  8
_0-5_金属
  6
CONTINUOUS
 62
    7
 10
851.94458130519763
 20
789.59774058695018
 11
1051.9445813051975
 21
789.59774058695018
  0
LINE
  8
_0-5_金属
  6
CONTINUOUS
 62
    7
 10
931.94458130519763
 20
572.19774058695123
 11
933.14458130519768
 21
572.19774058695123
  0
LINE
  8
_0-5_金属
  6
CONTINUOUS
 62
    7
 10
933.14458130519768
 20
697.39772058694882
 11
953.14458130519768
 21
697.39772058694882
  0
LINE
  8
_0-5_金属
  6
DASHED1
 62
    4
 10
853.14458130519768
 20
715.39774058694832
 11
1123.1445813051982
 21
715.39774058694832
  0
LINE
  8
_0-5_金属
  6
DASHED1
 62
    4
 10
853.14458130519768
 20
714.39774058694923
 11
1123.1445813051982
 21
714.39774058694923
  0
LINE
  8
_0-5_金属
  6
CONTINUOUS
 62
    7
 10
853.14458130519768
 20
713.39774058695014
 11
1123.1445813051982
 21
713.39774058695014
  0
LINE
  8
_0-5_金属
  6
CONTINUOUS
 62
    7
 10
1053.1445813051982
 20
601.69772058694832
 11
1053.1445813051982
 21
523.09834082047303
  0
ARC
  8
_0-5_金属
  6
CONTINUOUS
 62
    7
 10
957.44458130519774
 20
643.09772058694818
 40
4.2999999999999998
 50
90
 51
180
  0
ARC
  8
_0-5_金属
  6
CONTINUOUS
 62
    7
 10
957.44458130519774
 20
601.69772058694832
 40
4.2999999999999998
 50
180
 51
270
  0
LINE
  8
_0-5_金属
  6
CONTINUOUS
 62
    7
 10
957.44458130519774
 20
597.39772058694882
 11
1048.8445813051981
 21
597.39772058694882
  0
ARC
  8
_0-5_金属
  6
CONTINUOUS
 62
    7
 10
1048.8445813051981
 20
601.69772058694832
 40
4.2999999999999998
 50
270
 51
0
  0
LINE
  8
_0-5_金属
  6
CONTINUOUS
 62
    7
 10
1053.1445813051982
 20
601.69772058694832
 11
1053.1445813051982
 21
643.09772058694818
  0
ARC
  8
_0-5_金属
  6
CONTINUOUS
 62
    7
 10
1048.8445813051981
 20
643.09772058694818
 40
4.2999999999999998
 50
0
 51
90
  0
ARC
  8
_0-5_金属
  6
CONTINUOUS
 62
    7
 10
1048.8445813051981
 20
643.09772058694818
 40
2
 50
0
 51
90
  0
LINE
  8
_0-5_金属
  6
CONTINUOUS
 62
    7
 10
1048.8445813051981
 20
645.09772058694864
 11
1033.1445813051982
 21
645.09772058694864
  0
LINE
  8
_0-5_金属
  6
CONTINUOUS
 62
    7
 10
1050.8445813051981
 20
643.09772058694818
 11
1050.8445813051981
 21
601.69772058694832
  0
ARC
  8
_0-5_金属
  6
CONTINUOUS
 62
    7
 10
1048.8445813051981
 20
601.69772058694832
 40
2
 50
270
 51
0
  0
LINE
  8
_0-5_金属
  6
CONTINUOUS
 62
    7
 10
1048.8445813051981
 20
599.697720586949
 11
957.44458130519774
 21
599.697720586949
  0
ARC
  8
_0-5_金属
  6
CONTINUOUS
 62
    7
 10
957.44458130519774
 20
601.69772058694832
 40
2
 50
180
 51
270
  0
LINE
  8
_0-5_金属
  6
CONTINUOUS
 62
    7
 10
955.44458130519843
 20
601.69772058694832
 11
955.44458130519843
 21
643.09772058694818
  0
ARC
  8
_0-5_金属
  6
CONTINUOUS
 62
    7
 10
957.44458130519774
 20
643.09772058694818
 40
2
 50
90
 51
180
  0
LINE
  8
_0-5_金属
  6
CONTINUOUS
 62
    7
 10
957.44458130519774
 20
645.09772058694864
 11
973.14458130519824
 21
645.09772058694864
  0
LINE
  8
_0-5_金属
  6
CONTINUOUS
 62
    7
 10
1033.1445813051982
 20
645.09772058694864
 11
1033.1445813051982
 21
647.39772058694882
  0
LINE
  8
_0-5_金属
  6
CONTINUOUS
 62
    7
 10
973.14458130519824
 20
645.09772058694864
 11
973.14458130519824
 21
647.39772058694882
  0
ARC
  8
_0-5_金属
  6
CONTINUOUS
 62
    7
 10
957.44458130519774
 20
651.69772058694832
 40
4.2999999999999998
 50
180
 51
270
  0
LINE
  8
_0-5_金属
  6
CONTINUOUS
 62
    7
 10
957.44458130519774
 20
647.39772058694882
 11
973.14458130519824
 21
647.39772058694882
  0
LINE
  8
_0-5_金属
  6
CONTINUOUS
 62
    7
 10
953.14458130519768
 20
523.09834082047303
 11
953.14458130519768
 21
697.39772058694882
  0
ARC
  8
_0-5_金属
  6
CONTINUOUS
 62
    7
 10
957.44458130519774
 20
693.09772058694818
 40
4.2999999999999998
 50
90
 51
180
  0
LINE
  8
_0-5_金属
  6
CONTINUOUS
 62
    7
 10
957.44458130519774
 20
697.39772058694882
 11
1048.8445813051981
 21
697.39772058694882
  0
ARC
  8
_0-5_金属
  6
CONTINUOUS
 62
    7
 10
1048.8445813051981
 20
693.09772058694818
 40
4.2999999999999998
 50
0
 51
90
  0
LINE
  8
_0-5_金属
  6
CONTINUOUS
 62
    7
 10
1053.1445813051982
 20
693.09772058694818
 11
1053.1445813051982
 21
651.69772058694832
  0
ARC
  8
_0-5_金属
  6
CONTINUOUS
 62
    7
 10
1048.8445813051981
 20
651.69772058694832
 40
4.2999999999999998
 50
270
 51
0
  0
LINE
  8
_0-5_金属
  6
CONTINUOUS
 62
    7
 10
1048.8445813051981
 20
647.39772058694882
 11
1033.1445813051982
 21
647.39772058694882
  0
ARC
  8
_0-5_金属
  6
CONTINUOUS
 62
    7
 10
1048.8445813051981
 20
651.69772058694832
 40
2
 50
270
 51
0
  0
LINE
  8
_0-5_金属
  6
CONTINUOUS
 62
    7
 10
1048.8445813051981
 20
649.69772058694787
 11
1033.1445813051982
 21
649.69772058694787
  0
LINE
  8
_0-5_金属
  6
CONTINUOUS
 62
    7
 10
1050.8445813051981
 20
651.69772058694832
 11
1050.8445813051981
 21
693.09772058694818
  0
ARC
  8
_0-5_金属
  6
CONTINUOUS
 62
    7
 10
1048.8445813051981
 20
693.09772058694818
 40
2
 50
0
 51
90.000000000000014
  0
LINE
  8
_0-5_金属
  6
CONTINUOUS
 62
    7
 10
1048.8445813051981
 20
695.09772058694864
 11
957.44458130519774
 21
695.09772058694864
  0
ARC
  8
_0-5_金属
  6
CONTINUOUS
 62
    7
 10
957.44458130519774
 20
693.09772058694818
 40
2
 50
90
 51
180
  0
LINE
  8
_0-5_金属
  6
CONTINUOUS
 62
    7
 10
955.44458130519843
 20
693.09772058694818
 11
955.44458130519843
 21
651.69772058694832
  0
ARC
  8
_0-5_金属
  6
CONTINUOUS
 62
    7
 10
957.44458130519774
 20
651.69772058694832
 40
2
 50
180
 51
270
  0
LINE
  8
_0-5_金属
  6
CONTINUOUS
 62
    7
 10
957.44458130519774
 20
649.69772058694787
 11
973.14458130519824
 21
649.69772058694787
  0
LINE
  8
_0-5_金属
  6
CONTINUOUS
 62
    7
 10
1033.1445813051982
 20
649.69772058694787
 11
1033.1445813051982
 21
647.39772058694882
  0
LINE
  8
_0-5_金属
  6
CONTINUOUS
 62
    7
 10
973.14458130519824
 20
649.69772058694787
 11
973.14458130519824
 21
647.39772058694882
  0
LINE
  8
_0-5_金属
  6
CONTINUOUS
 62
    7
 10
1068.1445813051982
 20
688.39772058694791
 11
1068.1445813051982
 21
697.39772058694882
  0
LINE
  8
_0-5_金属
  6
CONTINUOUS
 62
    7
 10
1123.1445813051982
 20
787.39774058694877
 11
1123.1445813051982
 21
697.39772058694882
  0
LINE
  8
_0-5_金属
  6
CONTINUOUS
 62
    7
 10
1163.1445813051982
 20
697.39772058694882
 11
1163.1445813051982
 21
787.39774058694877
  0
LINE
  8
_0-5_金属
  6
CONTINUOUS
 62
    7
 10
1163.1445813051982
 20
787.39774058694877
 11
1123.1445813051982
 21
787.39774058694877
  0
LINE
  8
_0-5_金属
  6
DASHED1
 62
    4
 10
1123.1445813051982
 20
713.39774058695014
 11
1163.1445813051982
 21
713.39774058695014
  0
LINE
  8
_0-5_金属
  6
CONTINUOUS
 62
    7
 10
1146.1445813051967
 20
523.09834082047303
 11
1146.1445813051967
 21
680.39772058694837
  0
LINE
  8
_0-5_金属
  6
CONTINUOUS
 62
    7
 10
1140.1445813051964
 20
680.39772058694837
 11
1140.1445813051964
 21
523.09834082047303
  0
LINE
  8
_0-5_金属
  6
DASHED1
 62
    4
 10
1123.1445813051982
 20
700.39772058694837
 11
1163.1445813051982
 21
700.39772058694837
  0
LINE
  8
_0-5_金属
  6
DASHED1
 62
    4
 10
1163.1445813051982
 20
784.39774058694923
 11
1123.1445813051982
 21
784.39774058694923
  0
LINE
  8
_0-5_金属
  6
CONTINUOUS
 62
    7
 10
1218.1445813051982
 20
688.39772058694791
 11
1218.1445813051982
 21
697.39772058694882
  0
LINE
  8
_0-5_金属
  6
CONTINUOUS
 62
    7
 10
1218.1445813051982
 20
697.39772058694882
 11
1068.1445813051982
 21
697.39772058694882
  0
ARC
  8
_0-5_金属
  6
CONTINUOUS
 62
    7
 10
1154.1445813051973
 20
680.39772058694837
 40
8
 50
90
 51
180
  0
ARC
  8
_0-5_金属
  6
CONTINUOUS
 62
    7
 10
1132.1445813051957
 20
680.39772058694837
 40
8
 50
0
 51
90
  0
LINE
  8
_0-5_金属
  6
CONTINUOUS
 62
    7
 10
1068.1445813051982
 20
688.39772058694791
 11
1132.1445813051957
 21
688.39772058694791
  0
LINE
  8
_0-5_金属
  6
CONTINUOUS
 62
    7
 10
1154.1445813051973
 20
688.39772058694791
 11
1218.1445813051982
 21
688.39772058694791
  0
ARC
  8
_0-1_線色１__水色__
  6
CONTINUOUS
 62
    4
 10
850.03509917958411
 20
791.01461741143396
 40
1.2083333333333581
 50
37.523513195350134
 51
190.33972135574572
  0
LINE
  8
_0-2_線色２__白__
  6
CONTINUOUS
 62
    7
 10
853.49343251827293
 20
823.39774058695014
 11
853.49343251827293
 21
790.79774058694795
  0
LINE
  8
_0-d_断熱__ハッチ
  6
CONTINUOUS
 62
    4
 10
998.15529156601372
 20
823.39774058695241
 11
1030.7552915660171
 21
790.79774058694795
  0
LINE
  8
_0-d_断熱__ハッチ
  6
CONTINUOUS
 62
    4
 10
969.87102031855727
 20
823.39774058695014
 11
1002.4710203185595
 21
790.79774058694795
  0
LINE
  8
_0-d_断熱__ハッチ
  6
CONTINUOUS
 62
    4
 10
941.58674907108946
 20
823.39774058695014
 11
974.18674907109278
 21
790.79774058694795
  0
LINE
  8
_0-d_断熱__ハッチ
  6
CONTINUOUS
 62
    4
 10
913.30247782363301
 20
823.39774058695014
 11
945.90247782363519
 21
790.79774058694795
  0
LINE
  8
_0-d_断熱__ハッチ
  6
CONTINUOUS
 62
    4
 10
885.01820657616634
 20
823.39774058695014
 11
917.61820657616852
 21
790.79774058694795
  0
LINE
  8
_0-d_断熱__ハッチ
  6
CONTINUOUS
 62
    4
 10
856.73393532870875
 20
823.39774058695014
 11
889.33393532871207
 21
790.79774058694795
  0
LINE
  8
_0-d_断熱__ハッチ
  6
CONTINUOUS
 62
    4
 10
872.6156384323582
 20
790.79774058694795
 11
905.21563843236152
 21
823.39774058695241
  0
LINE
  8
_0-d_断熱__ハッチ
  6
CONTINUOUS
 62
    4
 10
900.89990967982487
 20
790.79774058694795
 11
933.49990967982706
 21
823.39774058695014
  0
LINE
  8
_0-d_断熱__ハッチ
  6
CONTINUOUS
 62
    4
 10
929.18418092728245
 20
790.79774058694795
 11
961.78418092728577
 21
823.39774058695014
  0
LINE
  8
_0-d_断熱__ハッチ
  6
CONTINUOUS
 62
    4
 10
957.46845217474913
 20
790.79774058694795
 11
990.06845217475131
 21
823.39774058695014
  0
LINE
  8
_0-d_断熱__ハッチ
  6
CONTINUOUS
 62
    4
 10
985.75272342220671
 20
790.79774058694795
 11
1018.35272342221
 21
823.39774058695014
  0
LINE
  8
_0-d_断熱__ハッチ
  6
CONTINUOUS
 62
    4
 10
1014.0369946696734
 20
790.79774058694795
 11
1046.6369946696768
 21
823.39774058695014
  0
LINE
  8
_0-d_断熱__ハッチ
  6
CONTINUOUS
 62
    4
 10
1042.3212659171299
 20
790.79774058694795
 11
1074.921265917133
 21
823.39774058695014
  0
LINE
  8
_0-d_断熱__ハッチ
  6
CONTINUOUS
 62
    4
 10
853.49343251827293
 20
798.35397214991929
 11
861.04966408124483
 21
790.79774058694795
  0
LINE
  8
_0-6_鋼板__アングル
  6
CONTINUOUS
 62
    2
 10
851.94458130519763
 20
789.59774058694904
 11
1050.7445813051986
 21
789.59774058694904
  0
LINE
  8
_0-6_鋼板__アングル
  6
CONTINUOUS
 62
    2
 10
1050.7445813051986
 20
790.79774058694795
 11
1050.7445813051986
 21
789.59774058694904
  0
LINE
  8
_0-6_鋼板__アングル
  6
CONTINUOUS
 62
    2
 10
850.74458130519872
 20
790.79774058694795
 11
1050.7445813051986
 21
790.79774058694795
  0
LINE
  8
_0-6_鋼板__アングル
  6
CONTINUOUS
 62
    2
 10
847.29343251827288
 20
714.53259670182945
 11
847.29343251827288
 21
671.84888937387598
  0
LINE
  8
_0-6_鋼板__アングル
  6
CONTINUOUS
 62
    2
 10
848.49343251827293
 20
714.53259670182945
 11
848.49343251827293
 21
673.54594564872343
  0
ARC
  8
_0-6_鋼板__アングル
  6
CONTINUOUS
 62
    2
 10
849.69343251827297
 20
714.53259670182945
 40
2.3999999999999999
 50
142.43140797117397
 51
180
  0
ARC
  8
_0-6_鋼板__アングル
  6
CONTINUOUS
 62
    2
 10
849.69343251827297
 20
714.53259670182945
 40
1.2
 50
142.43140797117198
 51
180
  0
ARC
  8
_0-6_鋼板__アングル
  6
CONTINUOUS
 62
    2
 10
849.69343251827297
 20
729.16518204592023
 40
1.2
 50
180
 51
217.56859202882507
  0
LINE
  8
_0-6_鋼板__アングル
  6
CONTINUOUS
 62
    2
 10
848.49343251827293
 20
830.64888937386343
 11
848.49343251827293
 21
729.16518204592023
  0
ARC
  8
_0-6_鋼板__アングル
  6
CONTINUOUS
 62
    2
 10
849.69343251827297
 20
729.16518204592023
 40
2.3999999999999999
 50
180
 51
217.56859202882603
  0
LINE
  8
_0-6_鋼板__アングル
  6
CONTINUOUS
 62
    2
 10
847.29343251827288
 20
831.84888937387598
 11
847.29343251827288
 21
729.16518204592023
  0
LINE
  8
ADD_LINE
  6
DOT
 62
    4
 10
835.74064381742403
 20
721.84888937387598
 11
869.92500000748748
 21
721.84888937387598
  0
LINE
  8
_0-6_鋼板__アングル
  6
CONTINUOUS
 62
    2
 10
848.74228373134713
 20
715.2642496148502
 11
850.74458130519872
 21
717.86723646085477
  0
LINE
  8
_0-6_鋼板__アングル
  6
CONTINUOUS
 62
    2
 10
848.74228373134713
 20
728.43352913290175
 11
850.74458130519872
 21
725.83054228689491
  0
LINE
  8
_0-6_鋼板__アングル
  6
CONTINUOUS
 62
    4
 10
850.74458130519872
 20
717.86723646085477
 11
850.74458130519872
 21
725.83054228689491
  0
LINE
  8
_0-6_鋼板__アングル
  6
CONTINUOUS
 62
    2
 10
849.79343251827288
 20
718.59888937387552
 11
850.74458130519872
 21
717.86723646085477
  0
LINE
  8
_0-6_鋼板__アングル
  6
CONTINUOUS
 62
    2
 10
849.79343251827288
 20
725.09888937387643
 11
850.74458130519872
 21
725.83054228689491
  0
LINE
  8
_0-6_鋼板__アングル
  6
CONTINUOUS
 62
    4
 10
849.79343251827288
 20
718.59888937387552
 11
849.79343251827288
 21
725.09888937387643
  0
LINE
  8
_0-6_鋼板__アングル
  6
CONTINUOUS
 62
    4
 10
847.29343251827288
 20
729.16518204592023
 11
847.29343251827288
 21
714.53259670182945
  0
LINE
  8
_0-6_鋼板__アングル
  6
CONTINUOUS
 62
    2
 10
847.79113494442129
 20
715.99590252786868
 11
849.79343251827288
 21
718.59888937387552
  0
LINE
  8
_0-6_鋼板__アングル
  6
CONTINUOUS
 62
    2
 10
847.79113494442242
 20
727.701876219881
 11
849.79343251827288
 21
725.09888937387643
  0
LINE
  8
_0-6_鋼板__アングル
  6
CONTINUOUS
 62
    2
 10
848.49343251827293
 20
673.54594564872343
 11
854.71597219271473
 21
679.7684853231641
  0
LINE
  8
_0-6_鋼板__アングル
  6
CONTINUOUS
 62
    2
 10
854.71597219271473
 20
679.7684853231641
 11
855.56450033013846
 21
678.91995718574037
  0
LINE
  8
_0-6_鋼板__アングル
  6
CONTINUOUS
 62
    2
 10
848.49343251827293
 20
671.84888937387598
 11
855.56450033013846
 21
678.91995718574037
  0
LINE
  8
_0-6_鋼板__アングル
  6
CONTINUOUS
 62
    2
 10
847.29343251827288
 20
671.84888937387598
 11
848.49343251827293
 21
671.84888937387598
  0
LINE
  8
_0-7_ビス
  6
CONTINUOUS
 62
    7
 10
870.61259000318671
 20
718.34888937387461
 11
872.63331594535032
 21
721.84888937387598
  0
LINE
  8
_0-7_ビス
  6
CONTINUOUS
 62
    7
 10
851.00647502763479
 20
718.34888937387461
 11
870.61259000318671
 21
718.34888937387461
  0
LINE
  8
_0-7_ビス
  6
CONTINUOUS
 62
    7
 10
870.61259000318671
 20
725.34888937387507
 11
872.63331594535032
 21
721.84888937387598
  0
LINE
  8
_0-7_ビス
  6
CONTINUOUS
 62
    7
 10
851.00647502763479
 20
725.34888937387507
 11
870.61259000318671
 21
725.34888937387507
  0
LINE
  8
_0-7_ビス
  6
CONTINUOUS
 62
    4
 10
855.79945640704352
 20
718.34888937387461
 11
853.92375062695521
 21
725.34888937387507
  0
LINE
  8
_0-7_ビス
  6
CONTINUOUS
 62
    4
 10
857.79945640704398
 20
718.34888937387461
 11
855.92375062695567
 21
725.34888937387507
  0
LINE
  8
_0-7_ビス
  6
CONTINUOUS
 62
    4
 10
859.79945640704329
 20
718.34888937387461
 11
857.92375062695498
 21
725.34888937387507
  0
LINE
  8
_0-7_ビス
  6
CONTINUOUS
 62
    4
 10
861.79945640704375
 20
718.34888937387461
 11
859.92375062695544
 21
725.34888937387507
  0
LINE
  8
_0-7_ビス
  6
CONTINUOUS
 62
    4
 10
863.79945640704307
 20
718.34888937387461
 11
861.92375062695476
 21
725.34888937387507
  0
LINE
  8
_0-7_ビス
  6
CONTINUOUS
 62
    4
 10
865.79945640704352
 20
718.34888937387461
 11
863.92375062695521
 21
725.34888937387507
  0
LINE
  8
_0-7_ビス
  6
CONTINUOUS
 62
    4
 10
853.49323587766719
 20
718.34888937387461
 11
852.29343251827288
 21
722.82646981581649
  0
LINE
  8
_0-7_ビス
  6
CONTINUOUS
 62
    4
 10
867.13331594535077
 20
720.8348779981867
 11
865.92375062695567
 21
725.34888937387507
  0
LINE
  8
_0-7_ビス
  6
CONTINUOUS
 62
    7
 10
852.29343251827288
 20
725.34888937387507
 11
852.29343251827288
 21
718.34888937387461
  0
LINE
  8
_0-7_ビス
  6
CONTINUOUS
 62
    7
 10
867.13331594535077
 20
725.34888937387507
 11
867.13331594535077
 21
718.34888937387461
  0
LINE
  8
_0-7_ビス
  6
CONTINUOUS
 62
    7
 10
851.29343251827265
 20
725.34888937387507
 11
851.29343251827265
 21
718.34888937387461
  0
ARC
  8
_0-7_ビス
  6
CONTINUOUS
 62
    7
 10
851.00647502763479
 20
716.34888937387643
 40
2
 50
90
 51
134.99999999999849
  0
LINE
  8
_0-7_ビス
  6
CONTINUOUS
 62
    7
 10
849.59226146526191
 20
717.76310293624931
 11
847.67804790288835
 21
715.84888937387461
  0
ARC
  8
_0-7_ビス
  6
CONTINUOUS
 62
    7
 10
851.00647502763479
 20
727.34888937387552
 40
2
 50
225.00000000000153
 51
270
  0
LINE
  8
_0-7_ビス
  6
CONTINUOUS
 62
    7
 10
849.59226146526191
 20
725.93467581150264
 11
847.67804790288835
 21
727.84888937387507
  0
ARC
  8
_0-7_ビス
  6
DASHED3
 62
    7
 10
848.73225895083408
 20
721.84888937387598
 40
1.8403175392666382
 50
307.11750793457031
 51
52.882476806640639
  0
LINE
  8
ADD_LINE
  6
DOT
 62
    4
 10
880.41279718022395
 20
721.84888937387598
 11
840.79607743760619
 21
721.84888937387598
  0
LINE
  8
_0-7_ビス
  6
CONTINUOUS
 62
    7
 10
847.29343251827288
 20
727.84888937387507
 11
847.29343251827288
 21
715.84888937387689
  0
LINE
  8
_0-7_ビス
  6
CONTINUOUS
 62
    7
 10
847.67804790288835
 20
727.84888937387507
 11
847.67804790288835
 21
715.84888937387689
  0
LINE
  8
_0-7_ビス
  6
DASHED3
 62
    7
 10
849.84280204910021
 20
720.38142125762135
 11
847.29343251827288
 21
719.29887353772813
  0
LINE
  8
_0-7_ビス
  6
CONTINUOUS
 62
    7
 10
847.67804790288835
 20
715.84888937387689
 11
847.29343251827288
 21
715.84888937387689
  0
LINE
  8
_0-7_ビス
  6
DASHED3
 62
    7
 10
849.84280204910021
 20
723.3163574901306
 11
847.29343251827288
 21
724.39890521002383
  0
LINE
  8
_0-7_ビス
  6
CONTINUOUS
 62
    7
 10
847.67804790288835
 20
727.84888937387507
 11
847.29343251827288
 21
727.84888937387507
  0
LINE
  8
_0-4_線色４__黄__
  6
CONTINUOUS
 62
    2
 10
842.29343251827288
 20
833.84888937387643
 11
842.29343251827288
 21
682.59676523649034
  0
LINE
  8
_0-4_線色４__黄__
  6
CONTINUOUS
 62
    2
 10
842.29343251827288
 20
682.59676523649034
 11
847.29343251827288
 21
682.59676523649034
  0
LINE
  8
_0-2_線色２__白__
  6
CONTINUOUS
 62
    7
 10
847.1831288866116
 20
671.87478792334616
 11
847.29343251827288
 21
671.84888937387598
  0
LINE
  8
_0-2_線色２__白__
  6
CONTINUOUS
 62
    7
 10
846.9934539395075
 20
671.92062481902269
 11
847.1831288866116
 21
671.87478792334616
  0
LINE
  8
_0-2_線色２__白__
  6
CONTINUOUS
 62
    7
 10
846.80517823733283
 20
671.96975122630931
 11
846.9934539395075
 21
671.92062481902269
  0
LINE
  8
_0-2_線色２__白__
  6
CONTINUOUS
 62
    7
 10
846.61918737814233
 20
672.02424911457967
 11
846.80517823733283
 21
671.96975122630931
  0
LINE
  8
_0-2_線色２__白__
  6
CONTINUOUS
 62
    7
 10
846.43636695999419
 20
672.08620045320288
 11
846.61918737814233
 21
672.02424911457967
  0
LINE
  8
_0-2_線色２__白__
  6
CONTINUOUS
 62
    7
 10
846.25760258094317
 20
672.15768721155257
 11
846.43636695999419
 21
672.08620045320288
  0
LINE
  8
_0-2_線色２__白__
  6
CONTINUOUS
 62
    7
 10
846.15612668989286
 20
672.2043390649111
 11
846.25760258094317
 21
672.15768721155257
  0
LINE
  8
_0-2_線色２__白__
  6
CONTINUOUS
 62
    7
 10
846.08447503205127
 20
672.24037897599658
 11
846.15612668989286
 21
672.2043390649111
  0
LINE
  8
_0-2_線色２__白__
  6
CONTINUOUS
 62
    7
 10
845.96318127834763
 20
672.30739947432596
 11
846.08447503205127
 21
672.24037897599658
  0
LINE
  8
_0-2_線色２__白__
  6
CONTINUOUS
 62
    7
 10
845.84476951365502
 20
672.38010704047213
 11
845.96318127834763
 21
672.30739947432596
  0
LINE
  8
_0-2_線色２__白__
  6
CONTINUOUS
 62
    7
 10
845.72928858094372
 20
672.4579277312165
 11
845.84476951365502
 21
672.38010704047213
  0
LINE
  8
_0-2_線色２__白__
  6
CONTINUOUS
 62
    7
 10
845.61678732318398
 20
672.54028760334961
 11
845.72928858094372
 21
672.4579277312165
  0
LINE
  8
_0-2_線色２__白__
  6
CONTINUOUS
 62
    7
 10
845.5073145833461
 20
672.62661271365289
 11
845.61678732318398
 21
672.54028760334961
  0
LINE
  8
_0-2_線色２__白__
  6
CONTINUOUS
 62
    7
 10
845.44522730782376
 20
672.6782719862905
 11
845.5073145833461
 21
672.62661271365289
  0
LINE
  8
_0-2_線色２__白__
  6
CONTINUOUS
 62
    7
 10
845.34102599961273
 20
672.76934056822995
 11
845.44522730782376
 21
672.6782719862905
  0
LINE
  8
_0-2_線色２__白__
  6
CONTINUOUS
 62
    7
 10
845.16774899660334
 20
672.93265443950816
 11
845.34102599961273
 21
672.76934056822995
  0
LINE
  8
_0-2_線色２__白__
  6
CONTINUOUS
 62
    7
 10
845.00126285375416
 20
673.10269963861913
 11
845.16774899660334
 21
672.93265443950816
  0
LINE
  8
_0-2_線色２__白__
  6
CONTINUOUS
 62
    7
 10
844.84007265582761
 20
673.27803176484224
 11
845.00126285375416
 21
673.10269963861913
  0
LINE
  8
_0-2_線色２__白__
  6
CONTINUOUS
 62
    7
 10
844.68268348758613
 20
673.45720641746823
 11
844.84007265582761
 21
673.27803176484224
  0
LINE
  8
_0-2_線色２__白__
  6
CONTINUOUS
 62
    7
 10
844.52760043379101
 20
673.63877919577874
 11
844.68268348758613
 21
673.45720641746823
  0
LINE
  8
_0-2_線色２__白__
  6
CONTINUOUS
 62
    7
 10
844.43811984989054
 20
673.74462105939585
 11
844.52760043379101
 21
673.63877919577874
  0
LINE
  8
_0-2_線色２__白__
  6
CONTINUOUS
 62
    7
 10
844.36686267079779
 20
673.8290742288001
 11
844.43811984989054
 21
673.74462105939585
  0
LINE
  8
_0-2_線色２__白__
  6
CONTINUOUS
 62
    7
 10
844.24466259087296
 20
673.97518182989472
 11
844.36686267079779
 21
673.8290742288001
  0
LINE
  8
_0-2_線色２__白__
  6
CONTINUOUS
 62
    7
 10
844.12433024182462
 20
674.12258667158824
 11
844.24466259087296
 21
673.97518182989472
  0
LINE
  8
_0-2_線色２__白__
  6
CONTINUOUS
 62
    7
 10
844.0070701894291
 20
674.27206316032482
 11
844.12433024182462
 21
674.12258667158824
  0
LINE
  8
_0-2_線色２__白__
  6
CONTINUOUS
 62
    7
 10
843.89408699946046
 20
674.42438570254637
 11
844.0070701894291
 21
674.27206316032482
  0
LINE
  8
_0-2_線色２__白__
  6
CONTINUOUS
 62
    7
 10
843.78658523769275
 20
674.58032870469935
 11
843.89408699946046
 21
674.42438570254637
  0
LINE
  8
_0-2_線色２__白__
  6
CONTINUOUS
 62
    7
 10
843.7272204678203
 20
674.67273969709879
 11
843.78658523769275
 21
674.58032870469935
  0
LINE
  8
_0-2_線色２__白__
  6
CONTINUOUS
 62
    7
 10
843.67153352630964
 20
674.76445470542387
 11
843.7272204678203
 21
674.67273969709879
  0
LINE
  8
_0-2_線色２__白__
  6
CONTINUOUS
 62
    7
 10
843.57957675558339
 20
674.92525843143596
 11
843.67153352630964
 21
674.76445470542387
  0
LINE
  8
_0-2_線色２__白__
  6
CONTINUOUS
 62
    7
 10
843.49047659324754
 20
675.08797585939021
 11
843.57957675558339
 21
674.92525843143596
  0
LINE
  8
_0-2_線色２__白__
  6
CONTINUOUS
 62
    7
 10
843.4015858847971
 20
675.25089580768338
 11
843.49047659324754
 21
675.08797585939021
  0
LINE
  8
_0-2_線色２__白__
  6
CONTINUOUS
 62
    7
 10
843.31025747572596
 20
675.41230709471449
 11
843.4015858847971
 21
675.25089580768338
  0
LINE
  8
_0-2_線色２__白__
  6
CONTINUOUS
 62
    7
 10
843.21384421153141
 20
675.57049853888486
 11
843.31025747572596
 21
675.41230709471449
  0
LINE
  8
_0-2_線色２__白__
  6
CONTINUOUS
 62
    7
 10
843.15455152115362
 20
675.66009994997387
 11
843.21384421153141
 21
675.57049853888486
  0
LINE
  8
_0-2_線色２__白__
  6
CONTINUOUS
 62
    7
 10
843.11668422476316
 20
675.71412717486794
 11
843.15455152115362
 21
675.66009994997387
  0
LINE
  8
_0-2_線色２__白__
  6
CONTINUOUS
 62
    7
 10
843.04875639523345
 20
675.80548167382005
 11
843.11668422476316
 21
675.71412717486794
  0
LINE
  8
_0-2_線色２__白__
  6
CONTINUOUS
 62
    7
 10
842.97766491854361
 20
675.89451168485596
 11
843.04875639523345
 21
675.80548167382005
  0
LINE
  8
_0-2_線色２__白__
  6
CONTINUOUS
 62
    7
 10
842.90361601521738
 20
675.98115766035164
 11
842.97766491854361
 21
675.89451168485596
  0
LINE
  8
_0-2_線色２__白__
  6
CONTINUOUS
 62
    7
 10
842.82681590577624
 20
676.06536005268083
 11
842.90361601521738
 21
675.98115766035164
  0
LINE
  8
_0-2_線色２__白__
  6
CONTINUOUS
 62
    7
 10
842.74747081074054
 20
676.14705931422179
 11
842.82681590577624
 21
676.06536005268083
  0
LINE
  8
_0-2_線色２__白__
  6
CONTINUOUS
 62
    7
 10
842.70036580483008
 20
676.19327448652541
 11
842.74747081074054
 21
676.14705931422179
  0
LINE
  8
_0-2_線色２__白__
  6
CONTINUOUS
 62
    7
 10
842.56111290504975
 20
676.3211564943532
 11
842.70036580483008
 21
676.19327448652541
  0
LINE
  8
_0-2_線色２__白__
  6
CONTINUOUS
 62
    7
 10
842.30827044929185
 20
676.52644212062853
 11
842.56111290504975
 21
676.3211564943532
  0
LINE
  8
_0-2_線色２__白__
  6
CONTINUOUS
 62
    7
 10
842.0418389281059
 20
676.71505411902729
 11
842.30827044929185
 21
676.52644212062853
  0
LINE
  8
_0-2_線色２__白__
  6
CONTINUOUS
 62
    7
 10
841.76478550008767
 20
676.88997810641297
 11
842.0418389281059
 21
676.71505411902729
  0
LINE
  8
_0-2_線色２__白__
  6
CONTINUOUS
 62
    7
 10
841.48007732383633
 20
677.05419969963998
 11
841.76478550008767
 21
676.88997810641297
  0
LINE
  8
_0-2_線色２__白__
  6
CONTINUOUS
 62
    7
 10
841.19068155794878
 20
677.21070451556955
 11
841.48007732383633
 21
677.05419969963998
  0
LINE
  8
_0-2_線色２__白__
  6
CONTINUOUS
 62
    7
 10
841.02185337494291
 20
677.29911796974704
 11
841.19068155794878
 21
677.21070451556955
  0
LINE
  8
_0-2_線色２__白__
  6
CONTINUOUS
 62
    7
 10
840.89641362544228
 20
677.36407596437687
 11
841.02185337494291
 21
677.29911796974704
  0
LINE
  8
_0-2_線色２__白__
  6
CONTINUOUS
 62
    7
 10
840.68027378618638
 20
677.47520295657353
 11
840.89641362544228
 21
677.36407596437687
  0
LINE
  8
_0-2_線色２__白__
  6
CONTINUOUS
 62
    7
 10
840.46451024520536
 20
677.5858903804334
 11
840.68027378618638
 21
677.47520295657353
  0
LINE
  8
_0-2_線色２__白__
  6
CONTINUOUS
 62
    7
 10
840.24936098413093
 20
677.69690698967963
 11
840.46451024520536
 21
677.5858903804334
  0
LINE
  8
_0-2_線色２__白__
  6
CONTINUOUS
 62
    7
 10
840.03506398459479
 20
677.80902153804448
 11
840.24936098413093
 21
677.69690698967963
  0
LINE
  8
_0-2_線色２__白__
  6
CONTINUOUS
 62
    7
 10
839.82185722822635
 20
677.92300277925335
 11
840.03506398459479
 21
677.80902153804448
  0
LINE
  8
_0-2_線色２__白__
  6
CONTINUOUS
 62
    7
 10
839.69879063608971
 20
677.99027014675914
 11
839.82185722822635
 21
677.92300277925335
  0
LINE
  8
_0-2_線色２__白__
  6
CONTINUOUS
 62
    7
 10
839.58411183906094
 20
678.05416047361916
 11
839.69879063608971
 21
677.99027014675914
  0
LINE
  8
_0-2_線色２__白__
  6
CONTINUOUS
 62
    7
 10
839.38785784027857
 20
678.16711332718626
 11
839.58411183906094
 21
678.05416047361916
  0
LINE
  8
_0-2_線色２__白__
  6
CONTINUOUS
 62
    7
 10
839.19414867113517
 20
678.28461409135627
 11
839.38785784027857
 21
678.16711332718626
  0
LINE
  8
_0-2_線色２__白__
  6
CONTINUOUS
 62
    7
 10
839.00378261004505
 20
678.40783399334271
 11
839.19414867113517
 21
678.28461409135627
  0
LINE
  8
_0-2_線色２__白__
  6
CONTINUOUS
 62
    7
 10
838.81755793542482
 20
678.53794426036131
 11
839.00378261004505
 21
678.40783399334271
  0
LINE
  8
_0-2_線色２__白__
  6
CONTINUOUS
 62
    7
 10
838.63627292568879
 20
678.67611611963014
 11
838.81755793542482
 21
678.53794426036131
  0
LINE
  8
_0-2_線色２__白__
  6
CONTINUOUS
 62
    7
 10
838.53370553769821
 20
678.76041114400152
 11
838.63627292568879
 21
678.67611611963014
  0
LINE
  8
_0-2_線色２__白__
  6
CONTINUOUS
 62
    7
 10
838.44685183370018
 20
678.83585322398687
 11
838.53370553769821
 21
678.76041114400152
  0
LINE
  8
_0-2_線色２__白__
  6
CONTINUOUS
 62
    7
 10
838.30183000437103
 20
678.97176267719317
 11
838.44685183370018
 21
678.83585322398687
  0
LINE
  8
_0-2_線色２__白__
  6
CONTINUOUS
 62
    7
 10
838.16441259852411
 20
679.11505701755743
 11
838.30183000437103
 21
678.97176267719317
  0
LINE
  8
_0-2_線色２__白__
  6
CONTINUOUS
 62
    7
 10
838.03648592520915
 20
679.26573206397563
 11
838.16441259852411
 21
679.11505701755743
  0
LINE
  8
_0-2_線色２__白__
  6
CONTINUOUS
 62
    7
 10
837.91993629347814
 20
679.42378363533464
 11
838.03648592520915
 21
679.26573206397563
  0
LINE
  8
_0-2_線色２__白__
  6
CONTINUOUS
 62
    7
 10
837.81665001237855
 20
679.58920755052588
 11
837.91993629347814
 21
679.42378363533464
  0
LINE
  8
_0-2_線色２__白__
  6
CONTINUOUS
 62
    7
 10
837.76356454045469
 20
679.68852978170446
 11
837.81665001237855
 21
679.58920755052588
  0
LINE
  8
_0-2_線色２__白__
  6
CONTINUOUS
 62
    7
 10
837.71195459979879
 20
679.79906760782399
 11
837.76356454045469
 21
679.68852978170446
  0
LINE
  8
_0-2_線色２__白__
  6
CONTINUOUS
 62
    7
 10
837.63605506606439
 20
679.99556158342386
 11
837.71195459979879
 21
679.79906760782399
  0
LINE
  8
_0-2_線色２__白__
  6
CONTINUOUS
 62
    7
 10
837.57364689916528
 20
680.19811478327995
 11
837.63605506606439
 21
679.99556158342386
  0
LINE
  8
_0-2_線色２__白__
  6
CONTINUOUS
 62
    7
 10
837.52116085746195
 20
680.40507173254639
 11
837.57364689916528
 21
680.19811478327995
  0
LINE
  8
_0-2_線色２__白__
  6
CONTINUOUS
 62
    7
 10
837.47502769931373
 20
680.61477695638416
 11
837.52116085746195
 21
680.40507173254639
  0
LINE
  8
_0-2_線色２__白__
  6
CONTINUOUS
 62
    7
 10
837.43167818307882
 20
680.82557497994742
 11
837.47502769931373
 21
680.61477695638416
  0
LINE
  8
_0-2_線色２__白__
  6
CONTINUOUS
 62
    7
 10
837.40640446158011
 20
680.94768621127571
 11
837.43167818307882
 21
680.82557497994742
  0
LINE
  8
_0-2_線色２__白__
  6
CONTINUOUS
 62
    7
 10
837.38342267469363
 20
681.0552484368128
 11
837.40640446158011
 21
680.94768621127571
  0
LINE
  8
_0-2_線色２__白__
  6
CONTINUOUS
 62
    7
 10
837.34297867711746
 20
681.23996797473922
 11
837.38342267469363
 21
681.0552484368128
  0
LINE
  8
_0-2_線色２__白__
  6
CONTINUOUS
 62
    7
 10
837.30292101241105
 20
681.42407357076138
 11
837.34297867711746
 21
681.23996797473922
  0
LINE
  8
_0-2_線色２__白__
  6
CONTINUOUS
 62
    7
 10
837.26490618638366
 20
681.60792960661922
 11
837.30292101241105
 21
681.42407357076138
  0
LINE
  8
_0-2_線色２__白__
  6
CONTINUOUS
 62
    7
 10
837.23059070484567
 20
681.79190046405949
 11
837.26490618638366
 21
681.60792960661922
  0
LINE
  8
_0-2_線色２__白__
  6
CONTINUOUS
 62
    7
 10
837.20163107360406
 20
681.97635052482894
 11
837.23059070484567
 21
681.79190046405949
  0
LINE
  8
_0-2_線色２__白__
  6
CONTINUOUS
 62
    7
 10
837.18794128751881
 20
682.08369471639401
 11
837.20163107360406
 21
681.97635052482894
  0
LINE
  8
_0-2_線色２__白__
  6
CONTINUOUS
 62
    7
 10
837.17350467873928
 20
682.23024619263072
 11
837.18794128751881
 21
682.08369471639401
  0
LINE
  8
_0-2_線色２__白__
  6
CONTINUOUS
 62
    7
 10
837.159435530736
 20
682.48421137962225
 11
837.17350467873928
 21
682.23024619263072
  0
LINE
  8
_0-2_線色２__白__
  6
CONTINUOUS
 62
    7
 10
837.15780582348941
 20
682.73942916905582
 11
837.159435530736
 21
682.48421137962225
  0
LINE
  8
_0-2_線色２__白__
  6
CONTINUOUS
 62
    7
 10
837.16715191467586
 20
682.99545700568672
 11
837.15780582348941
 21
682.73942916905582
  0
LINE
  8
_0-2_線色２__白__
  6
CONTINUOUS
 62
    7
 10
837.1860101619751
 20
683.25185233426794
 11
837.16715191467586
 21
682.99545700568672
  0
LINE
  8
_0-2_線色２__白__
  6
CONTINUOUS
 62
    7
 10
837.21291692306465
 20
683.50817259955249
 11
837.1860101619751
 21
683.25185233426794
  0
LINE
  8
_0-2_線色２__白__
  6
CONTINUOUS
 62
    7
 10
837.23163392233175
 20
683.65662956963718
 11
837.21291692306465
 21
683.50817259955249
  0
LINE
  8
_0-2_線色２__白__
  6
CONTINUOUS
 62
    7
 10
837.24868728836611
 20
683.77939841766704
 11
837.23163392233175
 21
683.65662956963718
  0
LINE
  8
_0-2_線色２__白__
  6
CONTINUOUS
 62
    7
 10
837.28204000400126
 20
683.99024146122258
 11
837.24868728836611
 21
683.77939841766704
  0
LINE
  8
_0-2_線色２__白__
  6
CONTINUOUS
 62
    7
 10
837.3216645991107
 20
684.19942085293144
 11
837.28204000400126
 21
683.99024146122258
  0
LINE
  8
_0-2_線色２__白__
  6
CONTINUOUS
 62
    7
 10
837.36903947284134
 20
684.40621992974059
 11
837.3216645991107
 21
684.19942085293144
  0
LINE
  8
_0-2_線色２__白__
  6
CONTINUOUS
 62
    7
 10
837.42564302434005
 20
684.60992202859927
 11
837.36903947284134
 21
684.40621992974059
  0
LINE
  8
_0-2_線色２__白__
  6
CONTINUOUS
 62
    7
 10
837.49295365275373
 20
684.80981048645219
 11
837.42564302434005
 21
684.60992202859927
  0
LINE
  8
_0-2_線色２__白__
  6
CONTINUOUS
 62
    7
 10
837.53748236601666
 20
684.92371597919202
 11
837.49295365275373
 21
684.80981048645219
  0
LINE
  8
_0-2_線色２__白__
  6
CONTINUOUS
 62
    7
 10
837.58136463693802
 20
685.02511224036027
 11
837.53748236601666
 21
684.92371597919202
  0
LINE
  8
_0-2_線色２__白__
  6
CONTINUOUS
 62
    7
 10
837.66487281744901
 20
685.19671033796442
 11
837.58136463693802
 21
685.02511224036027
  0
LINE
  8
_0-2_線色２__白__
  6
CONTINUOUS
 62
    7
 10
837.75749321273508
 20
685.36416797999493
 11
837.66487281744901
 21
685.19671033796442
  0
LINE
  8
_0-2_線色２__白__
  6
CONTINUOUS
 62
    7
 10
837.85826844416135
 20
685.52741463722271
 11
837.75749321273508
 21
685.36416797999493
  0
LINE
  8
_0-2_線色２__白__
  6
CONTINUOUS
 62
    7
 10
837.96624113309292
 20
685.68637978041181
 11
837.85826844416135
 21
685.52741463722271
  0
LINE
  8
_0-2_線色２__白__
  6
CONTINUOUS
 62
    7
 10
838.08045390089262
 20
685.84099288033315
 11
837.96624113309292
 21
685.68637978041181
  0
LINE
  8
_0-2_線色２__白__
  6
CONTINUOUS
 62
    7
 10
838.14917925338875
 20
685.92864657987377
 11
838.08045390089262
 21
685.84099288033315
  0
LINE
  8
_0-2_線色２__白__
  6
CONTINUOUS
 62
    7
 10
838.22872906066948
 20
686.02587402146185
 11
838.14917925338875
 21
685.92864657987377
  0
LINE
  8
_0-2_線色２__白__
  6
CONTINUOUS
 62
    7
 10
838.37019231349757
 20
686.1893988648427
 11
838.22872906066948
 21
686.02587402146185
  0
LINE
  8
_0-2_線色２__白__
  6
CONTINUOUS
 62
    7
 10
838.5164190438951
 20
686.34831282094922
 11
838.37019231349757
 21
686.1893988648427
  0
LINE
  8
_0-2_線色２__白__
  6
CONTINUOUS
 62
    7
 10
838.66660668281554
 20
686.50330190045281
 11
838.5164190438951
 21
686.34831282094922
  0
LINE
  8
_0-2_線色２__白__
  6
CONTINUOUS
 62
    7
 10
838.81995266121464
 20
686.65505211402262
 11
838.66660668281554
 21
686.50330190045281
  0
LINE
  8
_0-2_線色２__白__
  6
CONTINUOUS
 62
    7
 10
838.97565441004815
 20
686.80424947233007
 11
838.81995266121464
 21
686.65505211402262
  0
LINE
  8
_0-2_線色２__白__
  6
CONTINUOUS
 62
    7
 10
839.06672458444689
 20
686.88988454574485
 11
838.97565441004815
 21
686.80424947233007
  0
LINE
  8
_0-2_線色２__白__
  6
CONTINUOUS
 62
    7
 10
839.1541476774529
 20
686.97124044365694
 11
839.06672458444689
 21
686.88988454574485
  0
LINE
  8
_0-2_線色２__白__
  6
CONTINUOUS
 62
    7
 10
839.30589292070806
 20
687.11028953896459
 11
839.1541476774529
 21
686.97124044365694
  0
LINE
  8
_0-2_線色２__白__
  6
CONTINUOUS
 62
    7
 10
839.45927290779593
 20
687.2475534357892
 11
839.30589292070806
 21
687.11028953896459
  0
LINE
  8
_0-2_線色２__白__
  6
CONTINUOUS
 62
    7
 10
839.61469340126143
 20
687.38275157391683
 11
839.45927290779593
 21
687.2475534357892
  0
LINE
  8
_0-2_線色２__白__
  6
CONTINUOUS
 62
    7
 10
839.77256016365288
 20
687.51560339313812
 11
839.61469340126143
 21
687.38275157391683
  0
LINE
  8
_0-2_線色２__白__
  6
CONTINUOUS
 62
    7
 10
839.93327895751406
 20
687.64582833324141
 11
839.77256016365288
 21
687.51560339313812
  0
LINE
  8
_0-2_線色２__白__
  6
CONTINUOUS
 62
    7
 10
840.02796255031683
 20
687.7200446071771
 11
839.93327895751406
 21
687.64582833324141
  0
LINE
  8
_0-2_線色２__白__
  6
CONTINUOUS
 62
    7
 10
840.1093303975216
 20
687.78225218685577
 11
840.02796255031683
 21
687.7200446071771
  0
LINE
  8
_0-2_線色２__白__
  6
CONTINUOUS
 62
    7
 10
840.25175957831777
 20
687.88695152517278
 11
840.1093303975216
 21
687.78225218685577
  0
LINE
  8
_0-2_線色２__白__
  6
CONTINUOUS
 62
    7
 10
840.39712062008959
 20
687.9872006223178
 11
840.25175957831777
 21
687.88695152517278
  0
LINE
  8
_0-2_線色２__白__
  6
CONTINUOUS
 62
    7
 10
840.54567313588961
 20
688.08158561146513
 11
840.39712062008959
 21
687.9872006223178
  0
LINE
  8
_0-2_線色２__白__
  6
CONTINUOUS
 62
    7
 10
840.69767673877038
 20
688.16869262579132
 11
840.54567313588961
 21
688.08158561146513
  0
LINE
  8
_0-2_線色２__白__
  6
CONTINUOUS
 62
    7
 10
840.85339104178331
 20
688.24710779847294
 11
840.69767673877038
 21
688.16869262579132
  0
LINE
  8
_0-2_線色２__白__
  6
CONTINUOUS
 62
    7
 10
840.94550788137383
 20
688.28804885973625
 11
840.85339104178331
 21
688.24710779847294
  0
LINE
  8
_0-2_線色２__白__
  6
CONTINUOUS
 62
    7
 10
841.06547298436624
 20
688.33527255802949
 11
840.94550788137383
 21
688.28804885973625
  0
LINE
  8
_0-2_線色２__白__
  6
CONTINUOUS
 62
    7
 10
841.27702591618515
 20
688.40418770101962
 11
841.06547298436624
 21
688.33527255802949
  0
LINE
  8
_0-2_線色２__白__
  6
CONTINUOUS
 62
    7
 10
841.49360532484309
 20
688.45977609854856
 11
841.27702591618515
 21
688.40418770101962
  0
LINE
  8
_0-2_線色２__白__
  6
CONTINUOUS
 62
    7
 10
841.71411372631439
 20
688.50494752037378
 11
841.49360532484309
 21
688.45977609854856
  0
LINE
  8
_0-2_線色２__白__
  6
CONTINUOUS
 62
    7
 10
841.93745363657229
 20
688.54261173623911
 11
841.71411372631439
 21
688.50494752037378
  0
LINE
  8
_0-2_線色２__白__
  6
CONTINUOUS
 62
    7
 10
842.16252757159111
 20
688.57567851589977
 11
841.93745363657229
 21
688.54261173623911
  0
LINE
  8
_0-2_線色２__白__
  6
CONTINUOUS
 62
    7
 10
842.29343251827288
 20
688.5938973034223
 11
842.16252757159111
 21
688.57567851589977
  0
LINE
  8
_0-6_鋼板__アングル
  6
CONTINUOUS
 62
    2
 10
848.49343251827293
 20
830.64888937386343
 11
914.97713984622749
 21
830.64888937386343
  0
LINE
  8
_0-6_鋼板__アングル
  6
CONTINUOUS
 62
    2
 10
847.29343251827288
 20
831.84888937387598
 11
914.97713984622749
 21
831.84888937387598
  0
LINE
  8
_0-6_鋼板__アングル
  6
CONTINUOUS
 62
    2
 10
929.60972519031827
 20
831.84888937387598
 11
943.26299261707902
 21
831.84888937387598
  0
LINE
  8
_0-6_鋼板__アングル
  6
CONTINUOUS
 62
    2
 10
929.60972519031827
 20
830.64888937386343
 11
943.26299261707902
 21
830.64888937386343
  0
LINE
  8
_0-6_鋼板__アングル
  6
CONTINUOUS
 62
    2
 10
947.29343251827288
 20
829.26238125046041
 11
946.51527277155367
 21
828.34888937387689
  0
LINE
  8
_0-6_鋼板__アングル
  6
CONTINUOUS
 62
    2
 10
945.01385204719838
 20
831.20424609619079
 11
947.29343251827288
 21
829.26238125046041
  0
ARC
  8
_0-6_鋼板__アングル
  6
CONTINUOUS
 62
    2
 10
943.26299261707902
 20
829.14888937387616
 40
1.5000000000000002
 50
49.573921259901446
 51
90
  0
ARC
  8
_0-6_鋼板__アングル
  6
CONTINUOUS
 62
    2
 10
943.26299261707902
 20
829.14888937387616
 40
2.7000000000000002
 50
49.573921259901446
 51
90
  0
LINE
  8
_0-6_鋼板__アングル
  6
CONTINUOUS
 62
    2
 10
944.23569230047917
 20
830.29075421960499
 11
946.51527277155367
 21
828.34888937387689
  0
ARC
  8
_0-6_鋼板__アングル
  6
CONTINUOUS
 62
    2
 10
914.97713984622749
 20
829.44888937387589
 40
2.3999999999999999
 50
52.431407971173961
 51
90
  0
ARC
  8
_0-6_鋼板__アングル
  6
CONTINUOUS
 62
    2
 10
914.97713984622749
 20
829.44888937387589
 40
1.2
 50
52.431407971171978
 51
90
  0
ARC
  8
_0-6_鋼板__アングル
  6
CONTINUOUS
 62
    2
 10
929.60972519031827
 20
829.44888937387589
 40
2.3999999999999999
 50
90
 51
127.56859202882603
  0
ARC
  8
_0-6_鋼板__アングル
  6
CONTINUOUS
 62
    2
 10
929.60972519031827
 20
829.44888937387589
 40
1.2
 50
90
 51
127.56859202882507
  0
LINE
  8
ADD_LINE
  6
DOT
 62
    4
 10
922.29343251827288
 20
843.40167807472483
 11
922.29343251827288
 21
809.21732188466024
  0
LINE
  8
_0-6_鋼板__アングル
  6
CONTINUOUS
 62
    2
 10
915.7087927592471
 20
830.40003816080173
 11
918.31177960525281
 21
828.39774058695014
  0
LINE
  8
_0-6_鋼板__アングル
  6
CONTINUOUS
 62
    2
 10
928.87807227729866
 20
830.40003816080173
 11
926.27508543129181
 21
828.39774058695014
  0
LINE
  8
_0-6_鋼板__アングル
  6
CONTINUOUS
 62
    4
 10
918.31177960525281
 20
828.39774058695014
 11
926.27508543129181
 21
828.39774058695014
  0
LINE
  8
_0-6_鋼板__アングル
  6
CONTINUOUS
 62
    2
 10
919.04343251827243
 20
829.34888937387598
 11
918.31177960525281
 21
828.39774058695014
  0
LINE
  8
_0-6_鋼板__アングル
  6
CONTINUOUS
 62
    2
 10
925.5434325182722
 20
829.34888937387598
 11
926.27508543129181
 21
828.39774058695014
  0
LINE
  8
_0-6_鋼板__アングル
  6
CONTINUOUS
 62
    4
 10
919.04343251827243
 20
829.34888937387598
 11
925.5434325182722
 21
829.34888937387598
  0
LINE
  8
_0-6_鋼板__アングル
  6
CONTINUOUS
 62
    4
 10
929.60972519031827
 20
831.84888937387598
 11
914.97713984622749
 21
831.84888937387598
  0
LINE
  8
_0-6_鋼板__アングル
  6
CONTINUOUS
 62
    2
 10
916.44044567226672
 20
831.35118694772757
 11
919.04343251827243
 21
829.34888937387598
  0
LINE
  8
_0-6_鋼板__アングル
  6
CONTINUOUS
 62
    2
 10
928.14641936427904
 20
831.35118694772757
 11
925.5434325182722
 21
829.34888937387598
  0
LINE
  8
_0-4_線色４__黄__
  6
CONTINUOUS
 62
    2
 10
946.0980307433789
 20
836.84888937387598
 11
950.14937931933503
 21
833.39774058695014
  0
ARC
  8
_0-4_線色４__黄__
  6
CONTINUOUS
 62
    2
 10
845.29343251827243
 20
833.84888937387643
 40
3.0000000000000004
 50
90
 51
180
  0
LINE
  8
_0-4_線色４__黄__
  6
CONTINUOUS
 62
    2
 10
845.29343251827243
 20
836.84888937387598
 11
946.0980307433789
 21
836.84888937387598
  0
LINE
  8
_0-2_線色２__白__
  6
CONTINUOUS
 62
    7
 10
947.29343251827288
 20
829.26238125046041
 11
948.30844547108825
 21
828.39774058695014
  0
LINE
  8
_0-7_ビス
  6
CONTINUOUS
 62
    4
 10
919.65515724136424
 20
762.34888937387552
 11
925.79343251827197
 21
763.99368914768559
  0
LINE
  8
_0-7_ビス
  6
CONTINUOUS
 62
    4
 10
918.79343251827265
 20
764.11798336759659
 11
925.79343251827197
 21
765.99368914768604
  0
LINE
  8
_0-7_ビス
  6
CONTINUOUS
 62
    4
 10
918.79343251827265
 20
776.42420389697293
 11
925.79343251827197
 21
778.29990967706237
  0
LINE
  8
_0-7_ビス
  6
CONTINUOUS
 62
    4
 10
918.79343251827265
 20
774.42420389697247
 11
925.79343251827197
 21
776.29990967706192
  0
LINE
  8
_0-7_ビス
  6
CONTINUOUS
 62
    4
 10
918.79343251827265
 20
772.42420389697429
 11
925.79343251827197
 21
774.29990967706146
  0
LINE
  8
_0-7_ビス
  6
CONTINUOUS
 62
    4
 10
918.79343251827265
 20
770.42420389697384
 11
925.79343251827197
 21
772.29990967706101
  0
LINE
  8
_0-7_ビス
  6
CONTINUOUS
 62
    4
 10
918.79343251827265
 20
768.42420389697338
 11
925.79343251827197
 21
770.29990967706283
  0
LINE
  8
_0-7_ビス
  6
CONTINUOUS
 62
    4
 10
918.79343251827265
 20
766.42420389697293
 11
925.79343251827197
 21
768.29990967706237
  0
LINE
  8
_0-7_ビス
  6
CONTINUOUS
 62
    4
 10
918.79343251827265
 20
788.73042442635153
 11
925.79343251827197
 21
790.60613020643871
  0
LINE
  8
_0-7_ビス
  6
CONTINUOUS
 62
    4
 10
918.79343251827265
 20
786.73042442635108
 11
925.79343251827197
 21
788.60613020643825
  0
LINE
  8
_0-7_ビス
  6
CONTINUOUS
 62
    4
 10
918.79343251827265
 20
784.73042442635062
 11
925.79343251827197
 21
786.60613020644007
  0
LINE
  8
_0-7_ビス
  6
CONTINUOUS
 62
    4
 10
918.79343251827265
 20
782.73042442635017
 11
925.79343251827197
 21
784.60613020643962
  0
LINE
  8
_0-7_ビス
  6
CONTINUOUS
 62
    4
 10
918.79343251827265
 20
780.73042442634971
 11
925.79343251827197
 21
782.60613020643916
  0
LINE
  8
_0-7_ビス
  6
CONTINUOUS
 62
    4
 10
918.79343251827265
 20
778.73042442635153
 11
925.79343251827197
 21
780.60613020643871
  0
LINE
  8
_0-7_ビス
  6
CONTINUOUS
 62
    4
 10
918.79343251827265
 20
801.03664495572787
 11
925.79343251827197
 21
802.91235073581731
  0
LINE
  8
_0-7_ビス
  6
CONTINUOUS
 62
    4
 10
918.79343251827265
 20
799.03664495572741
 11
925.79343251827197
 21
800.91235073581686
  0
LINE
  8
_0-7_ビス
  6
CONTINUOUS
 62
    4
 10
918.79343251827265
 20
797.03664495572696
 11
925.79343251827197
 21
798.9123507358164
  0
LINE
  8
_0-7_ビス
  6
CONTINUOUS
 62
    4
 10
918.79343251827265
 20
795.0366449557265
 11
925.79343251827197
 21
796.91235073581595
  0
LINE
  8
_0-7_ビス
  6
CONTINUOUS
 62
    4
 10
918.79343251827265
 20
793.03664495572832
 11
925.79343251827197
 21
794.91235073581549
  0
LINE
  8
_0-7_ビス
  6
CONTINUOUS
 62
    4
 10
918.79343251827265
 20
791.03664495572787
 11
925.79343251827197
 21
792.91235073581504
  0
LINE
  8
_0-7_ビス
  6
CONTINUOUS
 62
    4
 10
918.79343251827265
 20
813.3428654851042
 11
925.79343251827197
 21
815.21857126519365
  0
LINE
  8
_0-7_ビス
  6
CONTINUOUS
 62
    4
 10
918.79343251827265
 20
811.34286548510374
 11
925.79343251827197
 21
813.21857126519319
  0
LINE
  8
_0-7_ビス
  6
CONTINUOUS
 62
    4
 10
918.79343251827265
 20
809.34286548510329
 11
925.79343251827197
 21
811.21857126519274
  0
LINE
  8
_0-7_ビス
  6
CONTINUOUS
 62
    4
 10
918.79343251827265
 20
807.34286548510511
 11
925.79343251827197
 21
809.21857126519228
  0
LINE
  8
_0-7_ビス
  6
CONTINUOUS
 62
    4
 10
918.79343251827265
 20
805.34286548510465
 11
925.79343251827197
 21
807.21857126519183
  0
LINE
  8
_0-7_ビス
  6
CONTINUOUS
 62
    4
 10
918.79343251827265
 20
803.3428654851042
 11
925.79343251827197
 21
805.21857126519365
  0
LINE
  8
_0-7_ビス
  6
CONTINUOUS
 62
    4
 10
918.79343251827265
 20
815.64908601448053
 11
923.2710129602134
 21
816.84888937387598
  0
LINE
  8
_0-7_ビス
  6
CONTINUOUS
 62
    7
 10
925.79343251827197
 20
816.84888937387598
 11
918.79343251827265
 21
816.84888937387598
  0
LINE
  8
_0-7_ビス
  6
CONTINUOUS
 62
    7
 10
925.79343251827197
 20
828.13584686451406
 11
925.79343251827197
 21
758.86961531603959
  0
LINE
  8
_0-7_ビス
  6
CONTINUOUS
 62
    7
 10
925.79343251827197
 20
758.86961531603959
 11
922.29343251827288
 21
756.84888937387598
  0
LINE
  8
_0-7_ビス
  6
CONTINUOUS
 62
    7
 10
925.79343251827197
 20
762.34888937387552
 11
918.79343251827265
 21
762.34888937387552
  0
LINE
  8
_0-7_ビス
  6
CONTINUOUS
 62
    7
 10
918.79343251827265
 20
828.13584686451406
 11
918.79343251827265
 21
758.86961531603731
  0
LINE
  8
_0-7_ビス
  6
CONTINUOUS
 62
    7
 10
918.79343251827265
 20
758.86961531603731
 11
922.29343251827288
 21
756.84888937387598
  0
LINE
  8
_0-7_ビス
  6
CONTINUOUS
 62
    7
 10
925.79343251827197
 20
827.84888937387507
 11
918.79343251827265
 21
827.84888937387507
  0
ARC
  8
_0-7_ビス
  6
CONTINUOUS
 62
    7
 10
916.7934325182722
 20
828.13584686451406
 40
2
 50
0
 51
44.999999999998501
  0
LINE
  8
_0-7_ビス
  6
CONTINUOUS
 62
    7
 10
918.20764608064621
 20
829.55006042688694
 11
916.29343251827265
 21
831.46427398925937
  0
ARC
  8
_0-7_ビス
  6
CONTINUOUS
 62
    7
 10
927.79343251827243
 20
828.13584686451406
 40
2
 50
135.00000000000153
 51
180.00000000000003
  0
LINE
  8
_0-7_ビス
  6
CONTINUOUS
 62
    7
 10
926.37921895589955
 20
829.55006042688694
 11
928.29343251827197
 21
831.46427398925937
  0
ARC
  8
_0-7_ビス
  6
DASHED3
 62
    7
 10
922.29343251827288
 20
830.41006294131478
 40
1.8403175392666382
 50
217.11750793457031
 51
322.88247680664062
  0
LINE
  8
_0-7_ビス
  6
CONTINUOUS
 62
    7
 10
928.29343251827311
 20
831.84888937387598
 11
916.29343251827265
 21
831.84888937387598
  0
LINE
  8
_0-7_ビス
  6
CONTINUOUS
 62
    7
 10
928.29343251827311
 20
831.46427398925937
 11
916.29343251827265
 21
831.46427398925937
  0
LINE
  8
_0-7_ビス
  6
DASHED3
 62
    7
 10
920.82596440201826
 20
829.29951984304864
 11
919.74341668212389
 21
831.84888937387598
  0
LINE
  8
_0-7_ビス
  6
CONTINUOUS
 62
    7
 10
916.29343251827265
 20
831.46427398925937
 11
916.29343251827265
 21
831.84888937387598
  0
LINE
  8
_0-7_ビス
  6
DASHED3
 62
    7
 10
923.7609006345275
 20
829.29951984304864
 11
924.84344835442187
 21
831.84888937387598
  0
LINE
  8
_0-7_ビス
  6
CONTINUOUS
 62
    7
 10
928.29343251827311
 20
831.46427398925937
 11
928.29343251827311
 21
831.84888937387598
  0
LINE
  8
ADD_LINE
  6
DOT
 62
    4
 10
922.29343251827288
 20
748.72952471192377
 11
922.29343251827288
 21
838.3462444545404
  0
ARC
  8
_0-1_線色１__水色__
  6
CONTINUOUS
 62
    4
 10
850.03509917937947
 20
823.39774058695014
 40
1.2083333333333581
 50
180
 51
322.47648679666082
  0
ARC
  8
_0-1_線色１__水色__
  6
CONTINUOUS
 62
    4
 10
850.03509918081534
 20
817.50990000958438
 40
1.2083333333333581
 50
37.523513195350134
 51
322.47648679666082
  0
ARC
  8
_0-1_線色１__水色__
  6
CONTINUOUS
 62
    4
 10
851.95176584741546
 20
816.03793986510766
 40
1.2083333333333177
 50
217.52351319811916
 51
142.47648679389312
  0
ARC
  8
_0-1_線色１__水色__
  6
CONTINUOUS
 62
    4
 10
851.95176584700505
 20
810.15009928774191
 40
1.2083333333333177
 50
217.52351319811916
 51
142.47648679389312
  0
ARC
  8
_0-1_線色１__水色__
  6
CONTINUOUS
 62
    4
 10
851.95176584720969
 20
813.09401957642478
 40
1.2083333333333177
 50
217.52351319811916
 51
142.47648679389312
  0
ARC
  8
_0-1_線色１__水色__
  6
CONTINUOUS
 62
    4
 10
850.03509918040493
 20
811.62205943221636
 40
1.2083333333333581
 50
37.523513195350134
 51
322.47648679666082
  0
ARC
  8
_0-1_線色１__水色__
  6
CONTINUOUS
 62
    4
 10
850.0350991806107
 20
814.56597972089924
 40
1.2083333333333581
 50
37.523513195350134
 51
322.47648679666082
  0
ARC
  8
_0-1_線色１__水色__
  6
CONTINUOUS
 62
    4
 10
851.95176584679928
 20
807.20617899905903
 40
1.2083333333333177
 50
217.52351319811916
 51
142.47648679389312
  0
ARC
  8
_0-1_線色１__水色__
  6
CONTINUOUS
 62
    4
 10
850.03509918020029
 20
808.67813914353349
 40
1.2083333333333581
 50
37.523513195350134
 51
322.47648679666082
  0
ARC
  8
_0-1_線色１__水色__
  6
CONTINUOUS
 62
    4
 10
851.95176584659464
 20
804.26225871037389
 40
1.2083333333333177
 50
217.52351319811916
 51
142.47648679389312
  0
ARC
  8
_0-1_線色１__水色__
  6
CONTINUOUS
 62
    4
 10
850.03509917999452
 20
805.73421885485061
 40
1.2083333333333581
 50
37.523513195350134
 51
322.47648679666082
  0
ARC
  8
_0-1_線色１__水色__
  6
CONTINUOUS
 62
    4
 10
851.95176584638887
 20
801.31833842169101
 40
1.2083333333333177
 50
217.52351319811916
 51
142.47648679389312
  0
ARC
  8
_0-1_線色１__水色__
  6
CONTINUOUS
 62
    4
 10
850.03509917978988
 20
802.79029856616773
 40
1.2083333333333581
 50
37.523513195350134
 51
322.47648679666082
  0
ARC
  8
_0-1_線色１__水色__
  6
CONTINUOUS
 62
    4
 10
851.95176584618423
 20
798.37441813300813
 40
1.2083333333333177
 50
217.52351319811916
 51
142.47648679389312
  0
ARC
  8
_0-1_線色１__水色__
  6
CONTINUOUS
 62
    4
 10
850.03509917958411
 20
799.84637827748259
 40
1.2083333333333581
 50
37.523513195350134
 51
322.47648679666082
  0
ARC
  8
_0-1_線色１__水色__
  6
CONTINUOUS
 62
    4
 10
851.95176584597846
 20
795.43049784432526
 40
1.2083333333333177
 50
217.52351319811916
 51
142.47648679389312
  0
ARC
  8
_0-1_線色１__水色__
  6
CONTINUOUS
 62
    4
 10
850.03509917937947
 20
796.90245798879971
 40
1.2083333333333581
 50
37.523513195350134
 51
322.47648679666082
  0
ARC
  8
_0-1_線色１__水色__
  6
CONTINUOUS
 62
    4
 10
851.95176584597846
 20
821.92578044247568
 40
1.2083333333333177
 50
217.52351319811916
 51
142.47648679389312
  0
ARC
  8
_0-1_線色１__水色__
  6
CONTINUOUS
 62
    4
 10
851.95176584577382
 20
818.98186015379281
 40
1.2083333333333177
 50
217.52351319811916
 51
142.47648679389312
  0
ARC
  8
_0-1_線色１__水色__
  6
CONTINUOUS
 62
    4
 10
850.0350991791737
 20
820.45382029826726
 40
1.2083333333333581
 50
37.523513195350134
 51
322.47648679666082
  0
ARC
  8
_0-1_線色１__水色__
  6
CONTINUOUS
 62
    4
 10
849.18683663703689
 20
824.93940725549521
 40
1.2083333333333179
 50
234.9807454390741
 51
52.476486801880853
  0
ARC
  8
_0-1_線色１__水色__
  6
CONTINUOUS
 62
    4
 10
847.71487649256244
 20
826.85607392209533
 40
1.2083333333333581
 50
310.11487746991298
 51
49.885122530086988
  0
ARC
  8
_0-1_線色１__水色__
  6
CONTINUOUS
 62
    4
 10
874.21015909068785
 20
826.85607392065833
 40
1.2083333333333581
 50
307.52351320333912
 51
232.47648680464988
  0
ARC
  8
_0-1_線色１__水色__
  6
CONTINUOUS
 62
    4
 10
875.68211923516458
 20
824.93940725406048
 40
1.2083333333333179
 50
127.52351320610693
 51
52.47648680188081
  0
ARC
  8
_0-1_線色１__水色__
  6
CONTINUOUS
 62
    4
 10
881.56995981253033
 20
824.93940725446976
 40
1.2083333333333179
 50
127.52351320610693
 51
52.47648680188081
  0
ARC
  8
_0-1_線色１__水色__
  6
CONTINUOUS
 62
    4
 10
878.62603952384745
 20
824.93940725426512
 40
1.2083333333333179
 50
127.52351320610693
 51
52.47648680188081
  0
ARC
  8
_0-1_線色１__水色__
  6
CONTINUOUS
 62
    4
 10
880.09799966805588
 20
826.85607392106988
 40
1.2083333333333581
 50
307.52351320333912
 51
232.47648680464988
  0
ARC
  8
_0-1_線色１__水色__
  6
CONTINUOUS
 62
    4
 10
877.15407937937073
 20
826.85607392086524
 40
1.2083333333333581
 50
307.52351320333912
 51
232.47648680464988
  0
ARC
  8
_0-1_線色１__水色__
  6
CONTINUOUS
 62
    4
 10
884.5138801012132
 20
824.93940725467439
 40
1.2083333333333179
 50
127.52351320610693
 51
52.47648680188081
  0
ARC
  8
_0-1_線色１__水色__
  6
CONTINUOUS
 62
    4
 10
883.04191995673875
 20
826.85607392127451
 40
1.2083333333333581
 50
307.52351320333912
 51
232.47648680464988
  0
ARC
  8
_0-1_線色１__水色__
  6
CONTINUOUS
 62
    4
 10
887.45780038989835
 20
824.9394072548813
 40
1.2083333333333179
 50
127.52351320610693
 51
52.47648680188081
  0
ARC
  8
_0-1_線色１__水色__
  6
CONTINUOUS
 62
    4
 10
885.98584024542163
 20
826.85607392147915
 40
1.2083333333333581
 50
307.52351320333912
 51
232.47648680464988
  0
ARC
  8
_0-1_線色１__水色__
  6
CONTINUOUS
 62
    4
 10
890.40172067858123
 20
824.93940725508594
 40
1.2083333333333179
 50
127.52351320610693
 51
52.47648680188081
  0
ARC
  8
_0-1_線色１__水色__
  6
CONTINUOUS
 62
    4
 10
888.9297605341045
 20
826.85607392168606
 40
1.2083333333333581
 50
307.52351320333912
 51
232.47648680464988
  0
ARC
  8
_0-1_線色１__水色__
  6
CONTINUOUS
 62
    4
 10
858.01859750306278
 20
824.93940725467439
 40
1.2083333333333179
 50
127.52351320610693
 51
52.47648680188081
  0
ARC
  8
_0-1_線色１__水色__
  6
CONTINUOUS
 62
    4
 10
856.54663735858833
 20
826.85607392127451
 40
1.2083333333333581
 50
307.52351320333912
 51
232.47648680464988
  0
ARC
  8
_0-1_線色１__水色__
  6
CONTINUOUS
 62
    4
 10
860.96251779174565
 20
824.9394072548813
 40
1.2083333333333179
 50
127.52351320610693
 51
52.47648680188081
  0
ARC
  8
_0-1_線色１__水色__
  6
CONTINUOUS
 62
    4
 10
859.4905576472712
 20
826.85607392147915
 40
1.2083333333333581
 50
307.52351320333912
 51
232.47648680464988
  0
ARC
  8
_0-1_線色１__水色__
  6
CONTINUOUS
 62
    4
 10
863.9064380804308
 20
824.93940725508594
 40
1.2083333333333179
 50
127.52351320610693
 51
52.47648680188081
  0
ARC
  8
_0-1_線色１__水色__
  6
CONTINUOUS
 62
    4
 10
862.43447793595408
 20
826.85607392168606
 40
1.2083333333333581
 50
307.52351320333912
 51
232.47648680464988
  0
ARC
  8
_0-1_線色１__水色__
  6
CONTINUOUS
 62
    4
 10
866.85035836911368
 20
824.93940725529058
 40
1.2083333333333179
 50
127.52351320610693
 51
52.47648680188081
  0
ARC
  8
_0-1_線色１__水色__
  6
CONTINUOUS
 62
    4
 10
865.37839822463923
 20
826.8560739218907
 40
1.2083333333333581
 50
307.52351320333912
 51
232.47648680464988
  0
ARC
  8
_0-1_線色１__水色__
  6
CONTINUOUS
 62
    4
 10
869.79427865779655
 20
824.93940725549521
 40
1.2083333333333179
 50
127.52351320610693
 51
52.47648680188081
  0
ARC
  8
_0-1_線色１__水色__
  6
CONTINUOUS
 62
    4
 10
868.3223185133221
 20
826.85607392209533
 40
1.2083333333333581
 50
307.52351320333912
 51
232.47648680464988
  0
ARC
  8
_0-1_線色１__水色__
  6
CONTINUOUS
 62
    4
 10
872.7381989464817
 20
824.93940725570212
 40
1.2083333333333179
 50
127.52351320610693
 51
52.47648680188081
  0
ARC
  8
_0-1_線色１__水色__
  6
CONTINUOUS
 62
    4
 10
871.26623880200498
 20
826.85607392229997
 40
1.2083333333333581
 50
307.52351320333912
 51
232.47648680464988
  0
ARC
  8
_0-1_線色１__水色__
  6
CONTINUOUS
 62
    4
 10
852.13075692569703
 20
824.93940725549521
 40
1.2083333333333179
 50
127.52351320610693
 51
52.47648680188081
  0
ARC
  8
_0-1_線色１__水色__
  6
CONTINUOUS
 62
    4
 10
850.65879678122258
 20
826.85607392209533
 40
1.2083333333333581
 50
307.52351320333912
 51
232.47648680464988
  0
ARC
  8
_0-1_線色１__水色__
  6
CONTINUOUS
 62
    4
 10
855.0746772143799
 20
824.93940725570212
 40
1.2083333333333179
 50
127.52351320610693
 51
52.47648680188081
  0
ARC
  8
_0-1_線色１__水色__
  6
CONTINUOUS
 62
    4
 10
853.60271706990545
 20
826.85607392229997
 40
1.2083333333333581
 50
307.52351320333912
 51
232.47648680464988
  0
ARC
  8
_0-1_線色１__水色__
  6
CONTINUOUS
 62
    4
 10
989.02305034931544
 20
826.85607392190889
 40
1.2083333333333581
 50
307.52351320333912
 51
232.47648680464988
  0
ARC
  8
_0-1_線色１__水色__
  6
CONTINUOUS
 62
    4
 10
990.49501049379217
 20
824.93940725530877
 40
1.2083333333333179
 50
127.52351320610693
 51
52.47648680188081
  0
ARC
  8
_0-1_線色１__水色__
  6
CONTINUOUS
 62
    4
 10
996.38285107115792
 20
824.93940725571804
 40
1.2083333333333179
 50
127.52351320610693
 51
52.47648680188081
  0
ARC
  8
_0-1_線色１__水色__
  6
CONTINUOUS
 62
    4
 10
993.43893078247504
 20
824.9394072555134
 40
1.2083333333333179
 50
127.52351320610693
 51
52.47648680188081
  0
ARC
  8
_0-1_線色１__水色__
  6
CONTINUOUS
 62
    4
 10
994.91089092668346
 20
826.85607392231816
 40
1.2083333333333581
 50
307.52351320333912
 51
232.47648680464988
  0
ARC
  8
_0-1_線色１__水色__
  6
CONTINUOUS
 62
    4
 10
991.96697063800059
 20
826.85607392211352
 40
1.2083333333333581
 50
307.52351320333912
 51
232.47648680464988
  0
ARC
  8
_0-1_線色１__水色__
  6
CONTINUOUS
 62
    4
 10
999.32677135984079
 20
824.93940725592495
 40
1.2083333333333179
 50
127.52351320610693
 51
52.47648680188081
  0
ARC
  8
_0-1_線色１__水色__
  6
CONTINUOUS
 62
    4
 10
997.85481121536634
 20
826.8560739225228
 40
1.2083333333333581
 50
307.52351320333912
 51
232.47648680464988
  0
ARC
  8
_0-1_線色１__水色__
  6
CONTINUOUS
 62
    4
 10
1002.2706916485237
 20
824.93940725612958
 40
1.2083333333333179
 50
127.52351320610693
 51
52.47648680188081
  0
ARC
  8
_0-1_線色１__水色__
  6
CONTINUOUS
 62
    4
 10
1000.7987315040492
 20
826.85607392272971
 40
1.2083333333333581
 50
307.52351320333912
 51
232.47648680464988
  0
ARC
  8
_0-1_線色１__水色__
  6
CONTINUOUS
 62
    4
 10
1005.2146119372088
 20
824.93940725633422
 40
1.2083333333333179
 50
127.52351320610693
 51
52.47648680188081
  0
ARC
  8
_0-1_線色１__水色__
  6
CONTINUOUS
 62
    4
 10
1003.7426517927321
 20
826.85607392293434
 40
1.2083333333333581
 50
307.52351320333912
 51
232.47648680464988
  0
ARC
  8
_0-1_線色１__水色__
  6
CONTINUOUS
 62
    4
 10
972.83148876169037
 20
824.93940725592495
 40
1.2083333333333179
 50
127.52351320610693
 51
52.47648680188081
  0
ARC
  8
_0-1_線色１__水色__
  6
CONTINUOUS
 62
    4
 10
971.35952861721591
 20
826.8560739225228
 40
1.2083333333333581
 50
307.52351320333912
 51
232.47648680464988
  0
ARC
  8
_0-1_線色１__水色__
  6
CONTINUOUS
 62
    4
 10
975.77540905037552
 20
824.93940725612958
 40
1.2083333333333179
 50
127.52351320610693
 51
52.47648680188081
  0
ARC
  8
_0-1_線色１__水色__
  6
CONTINUOUS
 62
    4
 10
974.30344890589879
 20
826.85607392272971
 40
1.2083333333333581
 50
307.52351320333912
 51
232.47648680464988
  0
ARC
  8
_0-1_線色１__水色__
  6
CONTINUOUS
 62
    4
 10
978.71932933905839
 20
824.93940725633422
 40
1.2083333333333179
 50
127.52351320610693
 51
52.47648680188081
  0
ARC
  8
_0-1_線色１__水色__
  6
CONTINUOUS
 62
    4
 10
977.24736919458394
 20
826.85607392293434
 40
1.2083333333333581
 50
307.52351320333912
 51
232.47648680464988
  0
ARC
  8
_0-1_線色１__水色__
  6
CONTINUOUS
 62
    4
 10
981.66324962774127
 20
824.93940725653886
 40
1.2083333333333179
 50
127.52351320610693
 51
52.47648680188081
  0
ARC
  8
_0-1_線色１__水色__
  6
CONTINUOUS
 62
    4
 10
980.19128948326681
 20
826.85607392313898
 40
1.2083333333333581
 50
307.52351320333912
 51
232.47648680464988
  0
ARC
  8
_0-1_線色１__水色__
  6
CONTINUOUS
 62
    4
 10
984.60716991642414
 20
824.93940725674577
 40
1.2083333333333179
 50
127.52351320610693
 51
52.47648680188081
  0
ARC
  8
_0-1_線色１__水色__
  6
CONTINUOUS
 62
    4
 10
983.13520977194969
 20
826.85607392334362
 40
1.2083333333333581
 50
307.52351320333912
 51
232.47648680464988
  0
ARC
  8
_0-1_線色１__水色__
  6
CONTINUOUS
 62
    4
 10
987.55109020510702
 20
824.9394072569504
 40
1.2083333333333179
 50
127.52351320610693
 51
52.47648680188081
  0
ARC
  8
_0-1_線色１__水色__
  6
CONTINUOUS
 62
    4
 10
986.07913006063256
 20
826.85607392355053
 40
1.2083333333333581
 50
307.52351320333912
 51
232.47648680464988
  0
ARC
  8
_0-1_線色１__水色__
  6
CONTINUOUS
 62
    4
 10
944.86424601906549
 20
826.85607392190889
 40
1.2083333333333581
 50
307.52351320333912
 51
232.47648680464988
  0
ARC
  8
_0-1_線色１__水色__
  6
CONTINUOUS
 62
    4
 10
946.33620616354222
 20
824.93940725530877
 40
1.2083333333333179
 50
127.52351320610693
 51
52.47648680188081
  0
ARC
  8
_0-1_線色１__水色__
  6
CONTINUOUS
 62
    4
 10
952.22404674090797
 20
824.93940725571804
 40
1.2083333333333179
 50
127.52351320610693
 51
52.47648680188081
  0
ARC
  8
_0-1_線色１__水色__
  6
CONTINUOUS
 62
    4
 10
949.28012645222509
 20
824.9394072555134
 40
1.2083333333333179
 50
127.52351320610693
 51
52.47648680188081
  0
ARC
  8
_0-1_線色１__水色__
  6
CONTINUOUS
 62
    4
 10
950.75208659643351
 20
826.85607392231816
 40
1.2083333333333581
 50
307.52351320333912
 51
232.47648680464988
  0
ARC
  8
_0-1_線色１__水色__
  6
CONTINUOUS
 62
    4
 10
947.80816630774837
 20
826.85607392211352
 40
1.2083333333333581
 50
307.52351320333912
 51
232.47648680464988
  0
ARC
  8
_0-1_線色１__水色__
  6
CONTINUOUS
 62
    4
 10
955.16796702959084
 20
824.93940725592495
 40
1.2083333333333179
 50
127.52351320610693
 51
52.47648680188081
  0
ARC
  8
_0-1_線色１__水色__
  6
CONTINUOUS
 62
    4
 10
953.69600688511639
 20
826.8560739225228
 40
1.2083333333333581
 50
307.52351320333912
 51
232.47648680464988
  0
ARC
  8
_0-1_線色１__水色__
  6
CONTINUOUS
 62
    4
 10
958.11188731827372
 20
824.93940725612958
 40
1.2083333333333179
 50
127.52351320610693
 51
52.47648680188081
  0
ARC
  8
_0-1_線色１__水色__
  6
CONTINUOUS
 62
    4
 10
956.63992717379926
 20
826.85607392272971
 40
1.2083333333333581
 50
307.52351320333912
 51
232.47648680464988
  0
ARC
  8
_0-1_線色１__水色__
  6
CONTINUOUS
 62
    4
 10
961.05580760695887
 20
824.93940725633422
 40
1.2083333333333179
 50
127.52351320610693
 51
52.47648680188081
  0
ARC
  8
_0-1_線色１__水色__
  6
CONTINUOUS
 62
    4
 10
959.58384746248214
 20
826.85607392293434
 40
1.2083333333333581
 50
307.52351320333912
 51
232.47648680464988
  0
ARC
  8
_0-1_線色１__水色__
  6
CONTINUOUS
 62
    4
 10
963.99972789564174
 20
824.93940725653886
 40
1.2083333333333179
 50
127.52351320610693
 51
52.47648680188081
  0
ARC
  8
_0-1_線色１__水色__
  6
CONTINUOUS
 62
    4
 10
962.52776775116729
 20
826.85607392313898
 40
1.2083333333333581
 50
307.52351320333912
 51
232.47648680464988
  0
ARC
  8
_0-1_線色１__水色__
  6
CONTINUOUS
 62
    4
 10
966.94364818432462
 20
824.93940725674577
 40
1.2083333333333179
 50
127.52351320610693
 51
52.47648680188081
  0
ARC
  8
_0-1_線色１__水色__
  6
CONTINUOUS
 62
    4
 10
965.47168803985016
 20
826.85607392334362
 40
1.2083333333333581
 50
307.52351320333912
 51
232.47648680464988
  0
ARC
  8
_0-1_線色１__水色__
  6
CONTINUOUS
 62
    4
 10
969.88756847300749
 20
824.9394072569504
 40
1.2083333333333179
 50
127.52351320610693
 51
52.47648680188081
  0
ARC
  8
_0-1_線色１__水色__
  6
CONTINUOUS
 62
    4
 10
968.41560832853304
 20
826.85607392355053
 40
1.2083333333333581
 50
307.52351320333912
 51
232.47648680464988
  0
ARC
  8
_0-1_線色１__水色__
  6
CONTINUOUS
 62
    4
 10
918.36896342091507
 20
826.85607392190889
 40
1.2083333333333581
 50
307.52351320333912
 51
232.47648680464988
  0
ARC
  8
_0-1_線色１__水色__
  6
CONTINUOUS
 62
    4
 10
919.84092356539179
 20
824.93940725530877
 40
1.2083333333333179
 50
127.52351320610693
 51
52.47648680188081
  0
ARC
  8
_0-1_線色１__水色__
  6
CONTINUOUS
 62
    4
 10
925.72876414275754
 20
824.93940725571804
 40
1.2083333333333179
 50
127.52351320610693
 51
52.47648680188081
  0
ARC
  8
_0-1_線色１__水色__
  6
CONTINUOUS
 62
    4
 10
922.78484385407467
 20
824.9394072555134
 40
1.2083333333333179
 50
127.52351320610693
 51
52.47648680188081
  0
ARC
  8
_0-1_線色１__水色__
  6
CONTINUOUS
 62
    4
 10
924.25680399828309
 20
826.85607392231816
 40
1.2083333333333581
 50
307.52351320333912
 51
232.47648680464988
  0
ARC
  8
_0-1_線色１__水色__
  6
CONTINUOUS
 62
    4
 10
921.31288370959794
 20
826.85607392211352
 40
1.2083333333333581
 50
307.52351320333912
 51
232.47648680464988
  0
ARC
  8
_0-1_線色１__水色__
  6
CONTINUOUS
 62
    4
 10
928.67268443144042
 20
824.93940725592495
 40
1.2083333333333179
 50
127.52351320610693
 51
52.47648680188081
  0
ARC
  8
_0-1_線色１__水色__
  6
CONTINUOUS
 62
    4
 10
927.20072428696596
 20
826.8560739225228
 40
1.2083333333333581
 50
307.52351320333912
 51
232.47648680464988
  0
ARC
  8
_0-1_線色１__水色__
  6
CONTINUOUS
 62
    4
 10
931.61660472012557
 20
824.93940725612958
 40
1.2083333333333179
 50
127.52351320610693
 51
52.47648680188081
  0
ARC
  8
_0-1_線色１__水色__
  6
CONTINUOUS
 62
    4
 10
930.14464457564884
 20
826.85607392272971
 40
1.2083333333333581
 50
307.52351320333912
 51
232.47648680464988
  0
ARC
  8
_0-1_線色１__水色__
  6
CONTINUOUS
 62
    4
 10
934.56052500880844
 20
824.93940725633422
 40
1.2083333333333179
 50
127.52351320610693
 51
52.47648680188081
  0
ARC
  8
_0-1_線色１__水色__
  6
CONTINUOUS
 62
    4
 10
933.08856486433172
 20
826.85607392293434
 40
1.2083333333333581
 50
307.52351320333912
 51
232.47648680464988
  0
ARC
  8
_0-1_線色１__水色__
  6
CONTINUOUS
 62
    4
 10
937.50444529749132
 20
824.93940725653886
 40
1.2083333333333179
 50
127.52351320610693
 51
52.47648680188081
  0
ARC
  8
_0-1_線色１__水色__
  6
CONTINUOUS
 62
    4
 10
936.03248515301459
 20
826.85607392313898
 40
1.2083333333333581
 50
307.52351320333912
 51
232.47648680464988
  0
ARC
  8
_0-1_線色１__水色__
  6
CONTINUOUS
 62
    4
 10
940.44836558617419
 20
824.93940725674577
 40
1.2083333333333179
 50
127.52351320610693
 51
52.47648680188081
  0
ARC
  8
_0-1_線色１__水色__
  6
CONTINUOUS
 62
    4
 10
938.97640544169974
 20
826.85607392334362
 40
1.2083333333333581
 50
307.52351320333912
 51
232.47648680464988
  0
ARC
  8
_0-1_線色１__水色__
  6
CONTINUOUS
 62
    4
 10
943.39228587485707
 20
824.9394072569504
 40
1.2083333333333179
 50
127.52351320610693
 51
52.47648680188081
  0
ARC
  8
_0-1_線色１__水色__
  6
CONTINUOUS
 62
    4
 10
941.92032573038261
 20
826.85607392355053
 40
1.2083333333333581
 50
307.52351320333912
 51
232.47648680464988
  0
ARC
  8
_0-1_線色１__水色__
  6
CONTINUOUS
 62
    4
 10
891.87368082276464
 20
826.85607392190889
 40
1.2083333333333581
 50
307.52351320333912
 51
232.47648680464988
  0
ARC
  8
_0-1_線色１__水色__
  6
CONTINUOUS
 62
    4
 10
893.34564096724137
 20
824.93940725530877
 40
1.2083333333333179
 50
127.52351320610693
 51
52.47648680188081
  0
ARC
  8
_0-1_線色１__水色__
  6
CONTINUOUS
 62
    4
 10
899.23348154460712
 20
824.93940725571804
 40
1.2083333333333179
 50
127.52351320610693
 51
52.47648680188081
  0
ARC
  8
_0-1_線色１__水色__
  6
CONTINUOUS
 62
    4
 10
896.28956125592424
 20
824.9394072555134
 40
1.2083333333333179
 50
127.52351320610693
 51
52.47648680188081
  0
ARC
  8
_0-1_線色１__水色__
  6
CONTINUOUS
 62
    4
 10
897.76152140013266
 20
826.85607392231816
 40
1.2083333333333581
 50
307.52351320333912
 51
232.47648680464988
  0
ARC
  8
_0-1_線色１__水色__
  6
CONTINUOUS
 62
    4
 10
894.81760111144979
 20
826.85607392211352
 40
1.2083333333333581
 50
307.52351320333912
 51
232.47648680464988
  0
ARC
  8
_0-1_線色１__水色__
  6
CONTINUOUS
 62
    4
 10
902.17740183328999
 20
824.93940725592495
 40
1.2083333333333179
 50
127.52351320610693
 51
52.47648680188081
  0
ARC
  8
_0-1_線色１__水色__
  6
CONTINUOUS
 62
    4
 10
900.70544168881554
 20
826.8560739225228
 40
1.2083333333333581
 50
307.52351320333912
 51
232.47648680464988
  0
ARC
  8
_0-1_線色１__水色__
  6
CONTINUOUS
 62
    4
 10
905.12132212197287
 20
824.93940725612958
 40
1.2083333333333179
 50
127.52351320610693
 51
52.47648680188081
  0
ARC
  8
_0-1_線色１__水色__
  6
CONTINUOUS
 62
    4
 10
903.64936197749842
 20
826.85607392272971
 40
1.2083333333333581
 50
307.52351320333912
 51
232.47648680464988
  0
ARC
  8
_0-1_線色１__水色__
  6
CONTINUOUS
 62
    4
 10
908.06524241065802
 20
824.93940725633422
 40
1.2083333333333179
 50
127.52351320610693
 51
52.47648680188081
  0
ARC
  8
_0-1_線色１__水色__
  6
CONTINUOUS
 62
    4
 10
906.59328226618129
 20
826.85607392293434
 40
1.2083333333333581
 50
307.52351320333912
 51
232.47648680464988
  0
ARC
  8
_0-1_線色１__水色__
  6
CONTINUOUS
 62
    4
 10
911.00916269934089
 20
824.93940725653886
 40
1.2083333333333179
 50
127.52351320610693
 51
52.47648680188081
  0
ARC
  8
_0-1_線色１__水色__
  6
CONTINUOUS
 62
    4
 10
909.53720255486644
 20
826.85607392313898
 40
1.2083333333333581
 50
307.52351320333912
 51
232.47648680464988
  0
ARC
  8
_0-1_線色１__水色__
  6
CONTINUOUS
 62
    4
 10
913.95308298802377
 20
824.93940725674577
 40
1.2083333333333179
 50
127.52351320610693
 51
52.47648680188081
  0
ARC
  8
_0-1_線色１__水色__
  6
CONTINUOUS
 62
    4
 10
912.48112284354931
 20
826.85607392334362
 40
1.2083333333333581
 50
307.52351320333912
 51
232.47648680464988
  0
ARC
  8
_0-1_線色１__水色__
  6
CONTINUOUS
 62
    4
 10
916.89700327670664
 20
824.9394072569504
 40
1.2083333333333179
 50
127.52351320610693
 51
52.47648680188081
  0
ARC
  8
_0-1_線色１__水色__
  6
CONTINUOUS
 62
    4
 10
915.42504313223219
 20
826.85607392355053
 40
1.2083333333333581
 50
307.52351320333912
 51
232.47648680464988
  0
ARC
  8
_0-1_線色１__水色__
  6
CONTINUOUS
 62
    4
 10
1103.8359416079429
 20
826.85607392315717
 40
1.2083333333333581
 50
307.52351320333912
 51
232.47648680464988
  0
ARC
  8
_0-1_線色１__水色__
  6
CONTINUOUS
 62
    4
 10
1105.3079017524196
 20
824.93940725655705
 40
1.2083333333333179
 50
127.52351320610693
 51
52.47648680188081
  0
ARC
  8
_0-1_線色１__水色__
  6
CONTINUOUS
 62
    4
 10
1111.1957423297854
 20
824.93940725696859
 40
1.2083333333333179
 50
127.52351320610693
 51
52.47648680188081
  0
ARC
  8
_0-1_線色１__水色__
  6
CONTINUOUS
 62
    4
 10
1108.2518220411025
 20
824.93940725676168
 40
1.2083333333333179
 50
127.52351320610693
 51
52.47648680188081
  0
ARC
  8
_0-1_線色１__水色__
  6
CONTINUOUS
 62
    4
 10
1109.7237821853109
 20
826.85607392356872
 40
1.2083333333333581
 50
307.52351320333912
 51
232.47648680464988
  0
ARC
  8
_0-1_線色１__水色__
  6
CONTINUOUS
 62
    4
 10
1106.7798618966258
 20
826.85607392336181
 40
1.2083333333333581
 50
307.52351320333912
 51
232.47648680464988
  0
ARC
  8
_0-1_線色１__水色__
  6
CONTINUOUS
 62
    4
 10
1114.1396626184683
 20
824.93940725717323
 40
1.2083333333333179
 50
127.52351320610693
 51
52.47648680188081
  0
ARC
  8
_0-1_線色１__水色__
  6
CONTINUOUS
 62
    4
 10
1112.6677024739938
 20
826.85607392377335
 40
1.2083333333333581
 50
307.52351320333912
 51
232.47648680464988
  0
ARC
  8
_0-1_線色１__水色__
  6
CONTINUOUS
 62
    4
 10
1117.0835829071534
 20
824.93940725737787
 40
1.2083333333333179
 50
127.52351320610693
 51
52.47648680188081
  0
ARC
  8
_0-1_線色１__水色__
  6
CONTINUOUS
 62
    4
 10
1115.6116227626767
 20
826.85607392397799
 40
1.2083333333333581
 50
307.52351320333912
 51
232.47648680464988
  0
ARC
  8
_0-1_線色１__水色__
  6
CONTINUOUS
 62
    4
 10
1120.0275031958363
 20
824.9394072575825
 40
1.2083333333333179
 50
127.52351320610693
 51
52.47648680188081
  0
ARC
  8
_0-1_線色１__水色__
  6
CONTINUOUS
 62
    4
 10
1118.5555430513596
 20
826.85607392418262
 40
1.2083333333333581
 50
307.52351320333912
 51
232.47648680464988
  0
ARC
  8
_0-1_線色１__水色__
  6
CONTINUOUS
 62
    4
 10
1087.6443800203178
 20
824.93940725717323
 40
1.2083333333333179
 50
127.52351320610693
 51
52.47648680188081
  0
ARC
  8
_0-1_線色１__水色__
  6
CONTINUOUS
 62
    4
 10
1086.1724198758434
 20
826.85607392377335
 40
1.2083333333333581
 50
307.52351320333912
 51
232.47648680464988
  0
ARC
  8
_0-1_線色１__水色__
  6
CONTINUOUS
 62
    4
 10
1090.5883003090007
 20
824.93940725737787
 40
1.2083333333333179
 50
127.52351320610693
 51
52.47648680188081
  0
ARC
  8
_0-1_線色１__水色__
  6
CONTINUOUS
 62
    4
 10
1089.1163401645263
 20
826.85607392397799
 40
1.2083333333333581
 50
307.52351320333912
 51
232.47648680464988
  0
ARC
  8
_0-1_線色１__水色__
  6
CONTINUOUS
 62
    4
 10
1093.5322205976859
 20
824.9394072575825
 40
1.2083333333333179
 50
127.52351320610693
 51
52.47648680188081
  0
ARC
  8
_0-1_線色１__水色__
  6
CONTINUOUS
 62
    4
 10
1092.0602604532091
 20
826.85607392418262
 40
1.2083333333333581
 50
307.52351320333912
 51
232.47648680464988
  0
ARC
  8
_0-1_線色１__水色__
  6
CONTINUOUS
 62
    4
 10
1096.4761408863687
 20
824.93940725778941
 40
1.2083333333333179
 50
127.52351320610693
 51
52.47648680188081
  0
ARC
  8
_0-1_線色１__水色__
  6
CONTINUOUS
 62
    4
 10
1095.0041807418943
 20
826.85607392438953
 40
1.2083333333333581
 50
307.52351320333912
 51
232.47648680464988
  0
ARC
  8
_0-1_線色１__水色__
  6
CONTINUOUS
 62
    4
 10
1099.4200611750516
 20
824.93940725799405
 40
1.2083333333333179
 50
127.52351320610693
 51
52.47648680188081
  0
ARC
  8
_0-1_線色１__水色__
  6
CONTINUOUS
 62
    4
 10
1097.9481010305772
 20
826.85607392459417
 40
1.2083333333333581
 50
307.52351320333912
 51
232.47648680464988
  0
ARC
  8
_0-1_線色１__水色__
  6
CONTINUOUS
 62
    4
 10
1102.3639814637368
 20
824.93940725819868
 40
1.2083333333333179
 50
127.52351320610693
 51
52.47648680188081
  0
ARC
  8
_0-1_線色１__水色__
  6
CONTINUOUS
 62
    4
 10
1100.89202131926
 20
826.85607392479881
 40
1.2083333333333581
 50
307.52351320333912
 51
232.47648680464988
  0
ARC
  8
_0-1_線色１__水色__
  6
CONTINUOUS
 62
    4
 10
1059.677137277693
 20
826.85607392315717
 40
1.2083333333333581
 50
307.52351320333912
 51
232.47648680464988
  0
ARC
  8
_0-1_線色１__水色__
  6
CONTINUOUS
 62
    4
 10
1061.1490974221674
 20
824.93940725655705
 40
1.2083333333333179
 50
127.52351320610693
 51
52.47648680188081
  0
ARC
  8
_0-1_線色１__水色__
  6
CONTINUOUS
 62
    4
 10
1067.0369379995354
 20
824.93940725696859
 40
1.2083333333333179
 50
127.52351320610693
 51
52.47648680188081
  0
ARC
  8
_0-1_線色１__水色__
  6
CONTINUOUS
 62
    4
 10
1064.0930177108526
 20
824.93940725676168
 40
1.2083333333333179
 50
127.52351320610693
 51
52.47648680188081
  0
ARC
  8
_0-1_線色１__水色__
  6
CONTINUOUS
 62
    4
 10
1065.564977855061
 20
826.85607392356872
 40
1.2083333333333581
 50
307.52351320333912
 51
232.47648680464988
  0
ARC
  8
_0-1_線色１__水色__
  6
CONTINUOUS
 62
    4
 10
1062.6210575663758
 20
826.85607392336181
 40
1.2083333333333581
 50
307.52351320333912
 51
232.47648680464988
  0
ARC
  8
_0-1_線色１__水色__
  6
CONTINUOUS
 62
    4
 10
1069.9808582882183
 20
824.93940725717323
 40
1.2083333333333179
 50
127.52351320610693
 51
52.47648680188081
  0
ARC
  8
_0-1_線色１__水色__
  6
CONTINUOUS
 62
    4
 10
1068.5088981437439
 20
826.85607392377335
 40
1.2083333333333581
 50
307.52351320333912
 51
232.47648680464988
  0
ARC
  8
_0-1_線色１__水色__
  6
CONTINUOUS
 62
    4
 10
1072.9247785769012
 20
824.93940725737787
 40
1.2083333333333179
 50
127.52351320610693
 51
52.47648680188081
  0
ARC
  8
_0-1_線色１__水色__
  6
CONTINUOUS
 62
    4
 10
1071.4528184324267
 20
826.85607392397799
 40
1.2083333333333581
 50
307.52351320333912
 51
232.47648680464988
  0
ARC
  8
_0-1_線色１__水色__
  6
CONTINUOUS
 62
    4
 10
1075.8686988655863
 20
824.9394072575825
 40
1.2083333333333179
 50
127.52351320610693
 51
52.47648680188081
  0
ARC
  8
_0-1_線色１__水色__
  6
CONTINUOUS
 62
    4
 10
1074.3967387211096
 20
826.85607392418262
 40
1.2083333333333581
 50
307.52351320333912
 51
232.47648680464988
  0
ARC
  8
_0-1_線色１__水色__
  6
CONTINUOUS
 62
    4
 10
1078.8126191542692
 20
824.93940725778941
 40
1.2083333333333179
 50
127.52351320610693
 51
52.47648680188081
  0
ARC
  8
_0-1_線色１__水色__
  6
CONTINUOUS
 62
    4
 10
1077.3406590097925
 20
826.85607392438953
 40
1.2083333333333581
 50
307.52351320333912
 51
232.47648680464988
  0
ARC
  8
_0-1_線色１__水色__
  6
CONTINUOUS
 62
    4
 10
1081.7565394429521
 20
824.93940725799405
 40
1.2083333333333179
 50
127.52351320610693
 51
52.47648680188081
  0
ARC
  8
_0-1_線色１__水色__
  6
CONTINUOUS
 62
    4
 10
1080.2845792984776
 20
826.85607392459417
 40
1.2083333333333581
 50
307.52351320333912
 51
232.47648680464988
  0
ARC
  8
_0-1_線色１__水色__
  6
CONTINUOUS
 62
    4
 10
1084.700459731635
 20
824.93940725819868
 40
1.2083333333333179
 50
127.52351320610693
 51
52.47648680188081
  0
ARC
  8
_0-1_線色１__水色__
  6
CONTINUOUS
 62
    4
 10
1083.2284995871605
 20
826.85607392479881
 40
1.2083333333333581
 50
307.52351320333912
 51
232.47648680464988
  0
ARC
  8
_0-1_線色１__水色__
  6
CONTINUOUS
 62
    4
 10
1033.1818546795425
 20
826.85607392315717
 40
1.2083333333333581
 50
307.52351320333912
 51
232.47648680464988
  0
ARC
  8
_0-1_線色１__水色__
  6
CONTINUOUS
 62
    4
 10
1034.6538148240193
 20
824.93940725655705
 40
1.2083333333333179
 50
127.52351320610693
 51
52.47648680188081
  0
ARC
  8
_0-1_線色１__水色__
  6
CONTINUOUS
 62
    4
 10
1040.541655401385
 20
824.93940725696859
 40
1.2083333333333179
 50
127.52351320610693
 51
52.47648680188081
  0
ARC
  8
_0-1_線色１__水色__
  6
CONTINUOUS
 62
    4
 10
1037.5977351127021
 20
824.93940725676168
 40
1.2083333333333179
 50
127.52351320610693
 51
52.47648680188081
  0
ARC
  8
_0-1_線色１__水色__
  6
CONTINUOUS
 62
    4
 10
1039.0696952569106
 20
826.85607392356872
 40
1.2083333333333581
 50
307.52351320333912
 51
232.47648680464988
  0
ARC
  8
_0-1_線色１__水色__
  6
CONTINUOUS
 62
    4
 10
1036.1257749682277
 20
826.85607392336181
 40
1.2083333333333581
 50
307.52351320333912
 51
232.47648680464988
  0
ARC
  8
_0-1_線色１__水色__
  6
CONTINUOUS
 62
    4
 10
1043.4855756900679
 20
824.93940725717323
 40
1.2083333333333179
 50
127.52351320610693
 51
52.47648680188081
  0
ARC
  8
_0-1_線色１__水色__
  6
CONTINUOUS
 62
    4
 10
1042.0136155455934
 20
826.85607392377335
 40
1.2083333333333581
 50
307.52351320333912
 51
232.47648680464988
  0
ARC
  8
_0-1_線色１__水色__
  6
CONTINUOUS
 62
    4
 10
1046.4294959787508
 20
824.93940725737787
 40
1.2083333333333179
 50
127.52351320610693
 51
52.47648680188081
  0
ARC
  8
_0-1_線色１__水色__
  6
CONTINUOUS
 62
    4
 10
1044.9575358342763
 20
826.85607392397799
 40
1.2083333333333581
 50
307.52351320333912
 51
232.47648680464988
  0
ARC
  8
_0-1_線色１__水色__
  6
CONTINUOUS
 62
    4
 10
1049.3734162674359
 20
824.9394072575825
 40
1.2083333333333179
 50
127.52351320610693
 51
52.47648680188081
  0
ARC
  8
_0-1_線色１__水色__
  6
CONTINUOUS
 62
    4
 10
1047.9014561229592
 20
826.85607392418262
 40
1.2083333333333581
 50
307.52351320333912
 51
232.47648680464988
  0
ARC
  8
_0-1_線色１__水色__
  6
CONTINUOUS
 62
    4
 10
1052.3173365561188
 20
824.93940725778941
 40
1.2083333333333179
 50
127.52351320610693
 51
52.47648680188081
  0
ARC
  8
_0-1_線色１__水色__
  6
CONTINUOUS
 62
    4
 10
1050.8453764116443
 20
826.85607392438953
 40
1.2083333333333581
 50
307.52351320333912
 51
232.47648680464988
  0
ARC
  8
_0-1_線色１__水色__
  6
CONTINUOUS
 62
    4
 10
1055.2612568448017
 20
824.93940725799405
 40
1.2083333333333179
 50
127.52351320610693
 51
52.47648680188081
  0
ARC
  8
_0-1_線色１__水色__
  6
CONTINUOUS
 62
    4
 10
1053.7892967003272
 20
826.85607392459417
 40
1.2083333333333581
 50
307.52351320333912
 51
232.47648680464988
  0
ARC
  8
_0-1_線色１__水色__
  6
CONTINUOUS
 62
    4
 10
1058.2051771334845
 20
824.93940725819868
 40
1.2083333333333179
 50
127.52351320610693
 51
52.47648680188081
  0
ARC
  8
_0-1_線色１__水色__
  6
CONTINUOUS
 62
    4
 10
1056.7332169890101
 20
826.85607392479881
 40
1.2083333333333581
 50
307.52351320333912
 51
232.47648680464988
  0
ARC
  8
_0-1_線色１__水色__
  6
CONTINUOUS
 62
    4
 10
1006.6865720813922
 20
826.85607392315717
 40
1.2083333333333581
 50
307.52351320333912
 51
232.47648680464988
  0
ARC
  8
_0-1_線色１__水色__
  6
CONTINUOUS
 62
    4
 10
1008.158532225869
 20
824.93940725655705
 40
1.2083333333333179
 50
127.52351320610693
 51
52.47648680188081
  0
ARC
  8
_0-1_線色１__水色__
  6
CONTINUOUS
 62
    4
 10
1014.0463728032347
 20
824.93940725696859
 40
1.2083333333333179
 50
127.52351320610693
 51
52.47648680188081
  0
ARC
  8
_0-1_線色１__水色__
  6
CONTINUOUS
 62
    4
 10
1011.1024525145518
 20
824.93940725676168
 40
1.2083333333333179
 50
127.52351320610693
 51
52.47648680188081
  0
ARC
  8
_0-1_線色１__水色__
  6
CONTINUOUS
 62
    4
 10
1012.5744126587603
 20
826.85607392356872
 40
1.2083333333333581
 50
307.52351320333912
 51
232.47648680464988
  0
ARC
  8
_0-1_線色１__水色__
  6
CONTINUOUS
 62
    4
 10
1009.6304923700751
 20
826.85607392336181
 40
1.2083333333333581
 50
307.52351320333912
 51
232.47648680464988
  0
ARC
  8
_0-1_線色１__水色__
  6
CONTINUOUS
 62
    4
 10
1016.9902930919176
 20
824.93940725717323
 40
1.2083333333333179
 50
127.52351320610693
 51
52.47648680188081
  0
ARC
  8
_0-1_線色１__水色__
  6
CONTINUOUS
 62
    4
 10
1015.5183329474431
 20
826.85607392377335
 40
1.2083333333333581
 50
307.52351320333912
 51
232.47648680464988
  0
ARC
  8
_0-1_線色１__水色__
  6
CONTINUOUS
 62
    4
 10
1019.9342133806027
 20
824.93940725737787
 40
1.2083333333333179
 50
127.52351320610693
 51
52.47648680188081
  0
ARC
  8
_0-1_線色１__水色__
  6
CONTINUOUS
 62
    4
 10
1018.462253236126
 20
826.85607392397799
 40
1.2083333333333581
 50
307.52351320333912
 51
232.47648680464988
  0
ARC
  8
_0-1_線色１__水色__
  6
CONTINUOUS
 62
    4
 10
1022.8781336692856
 20
824.9394072575825
 40
1.2083333333333179
 50
127.52351320610693
 51
52.47648680188081
  0
ARC
  8
_0-1_線色１__水色__
  6
CONTINUOUS
 62
    4
 10
1021.4061735248089
 20
826.85607392418262
 40
1.2083333333333581
 50
307.52351320333912
 51
232.47648680464988
  0
ARC
  8
_0-1_線色１__水色__
  6
CONTINUOUS
 62
    4
 10
1025.8220539579684
 20
824.93940725778941
 40
1.2083333333333179
 50
127.52351320610693
 51
52.47648680188081
  0
ARC
  8
_0-1_線色１__水色__
  6
CONTINUOUS
 62
    4
 10
1024.3500938134939
 20
826.85607392438953
 40
1.2083333333333581
 50
307.52351320333912
 51
232.47648680464988
  0
ARC
  8
_0-1_線色１__水色__
  6
CONTINUOUS
 62
    4
 10
1028.7659742466512
 20
824.93940725799405
 40
1.2083333333333179
 50
127.52351320610693
 51
52.47648680188081
  0
ARC
  8
_0-1_線色１__水色__
  6
CONTINUOUS
 62
    4
 10
1027.2940141021768
 20
826.85607392459417
 40
1.2083333333333581
 50
307.52351320333912
 51
232.47648680464988
  0
ARC
  8
_0-1_線色１__水色__
  6
CONTINUOUS
 62
    4
 10
1031.7098945353341
 20
824.93940725819868
 40
1.2083333333333179
 50
127.52351320610693
 51
52.47648680188081
  0
ARC
  8
_0-1_線色１__水色__
  6
CONTINUOUS
 62
    4
 10
1030.2379343908597
 20
826.85607392479881
 40
1.2083333333333581
 50
307.52351320333912
 51
232.47648680464988
  0
ARC
  8
_0-1_線色１__水色__
  6
CONTINUOUS
 62
    4
 10
1271.6393980628714
 20
826.85607392563782
 40
1.2083333333333581
 50
307.52351320333912
 51
232.47648680464988
  0
ARC
  8
_0-1_線色１__水色__
  6
CONTINUOUS
 62
    4
 10
1273.1113582073458
 20
824.93940725903769
 40
1.2083333333333179
 50
127.52351320610693
 51
52.47648680188081
  0
ARC
  8
_0-1_線色１__水色__
  6
CONTINUOUS
 62
    4
 10
1245.1441154647209
 20
826.85607392440545
 40
1.2083333333333581
 50
307.52351320333912
 51
232.47648680464988
  0
ARC
  8
_0-1_線色１__水色__
  6
CONTINUOUS
 62
    4
 10
1246.6160756091954
 20
824.9394072578076
 40
1.2083333333333179
 50
127.52351320610693
 51
52.47648680188081
  0
ARC
  8
_0-1_線色１__水色__
  6
CONTINUOUS
 62
    4
 10
1252.5039161865634
 20
824.93940725821687
 40
1.2083333333333179
 50
127.52351320610693
 51
52.47648680188081
  0
ARC
  8
_0-1_線色１__水色__
  6
CONTINUOUS
 62
    4
 10
1249.5599958978805
 20
824.93940725801224
 40
1.2083333333333179
 50
127.52351320610693
 51
52.47648680188081
  0
ARC
  8
_0-1_線色１__水色__
  6
CONTINUOUS
 62
    4
 10
1251.031956042089
 20
826.856073924817
 40
1.2083333333333581
 50
307.52351320333912
 51
232.47648680464988
  0
ARC
  8
_0-1_線色１__水色__
  6
CONTINUOUS
 62
    4
 10
1248.0880357534038
 20
826.85607392461236
 40
1.2083333333333581
 50
307.52351320333912
 51
232.47648680464988
  0
ARC
  8
_0-1_線色１__水色__
  6
CONTINUOUS
 62
    4
 10
1255.4478364752463
 20
824.93940725842151
 40
1.2083333333333179
 50
127.52351320610693
 51
52.47648680188081
  0
ARC
  8
_0-1_線色１__水色__
  6
CONTINUOUS
 62
    4
 10
1253.9758763307718
 20
826.85607392502163
 40
1.2083333333333581
 50
307.52351320333912
 51
232.47648680464988
  0
ARC
  8
_0-1_線色１__水色__
  6
CONTINUOUS
 62
    4
 10
1258.3917567639292
 20
824.93940725862842
 40
1.2083333333333179
 50
127.52351320610693
 51
52.47648680188081
  0
ARC
  8
_0-1_線色１__水色__
  6
CONTINUOUS
 62
    4
 10
1256.9197966194547
 20
826.85607392522627
 40
1.2083333333333581
 50
307.52351320333912
 51
232.47648680464988
  0
ARC
  8
_0-1_線色１__水色__
  6
CONTINUOUS
 62
    4
 10
1261.3356770526143
 20
824.93940725883306
 40
1.2083333333333179
 50
127.52351320610693
 51
52.47648680188081
  0
ARC
  8
_0-1_線色１__水色__
  6
CONTINUOUS
 62
    4
 10
1259.8637169081376
 20
826.85607392543318
 40
1.2083333333333581
 50
307.52351320333912
 51
232.47648680464988
  0
ARC
  8
_0-1_線色１__水色__
  6
CONTINUOUS
 62
    4
 10
1264.2795973412972
 20
824.93940725903769
 40
1.2083333333333179
 50
127.52351320610693
 51
52.47648680188081
  0
ARC
  8
_0-1_線色１__水色__
  6
CONTINUOUS
 62
    4
 10
1262.8076371968205
 20
826.85607392563782
 40
1.2083333333333581
 50
307.52351320333912
 51
232.47648680464988
  0
ARC
  8
_0-1_線色１__水色__
  6
CONTINUOUS
 62
    4
 10
1267.2235176299801
 20
824.93940725924233
 40
1.2083333333333179
 50
127.52351320610693
 51
52.47648680188081
  0
ARC
  8
_0-1_線色１__水色__
  6
CONTINUOUS
 62
    4
 10
1265.7515574855056
 20
826.85607392584245
 40
1.2083333333333581
 50
307.52351320333912
 51
232.47648680464988
  0
ARC
  8
_0-1_線色１__水色__
  6
CONTINUOUS
 62
    4
 10
1270.1674379186629
 20
824.93940725944697
 40
1.2083333333333179
 50
127.52351320610693
 51
52.47648680188081
  0
ARC
  8
_0-1_線色１__水色__
  6
CONTINUOUS
 62
    4
 10
1268.6954777741885
 20
826.85607392604709
 40
1.2083333333333581
 50
307.52351320333912
 51
232.47648680464988
  0
ARC
  8
_0-1_線色１__水色__
  6
CONTINUOUS
 62
    4
 10
1218.6488328665705
 20
826.85607392440545
 40
1.2083333333333581
 50
307.52351320333912
 51
232.47648680464988
  0
ARC
  8
_0-1_線色１__水色__
  6
CONTINUOUS
 62
    4
 10
1220.1207930110472
 20
824.9394072578076
 40
1.2083333333333179
 50
127.52351320610693
 51
52.47648680188081
  0
ARC
  8
_0-1_線色１__水色__
  6
CONTINUOUS
 62
    4
 10
1226.008633588413
 20
824.93940725821687
 40
1.2083333333333179
 50
127.52351320610693
 51
52.47648680188081
  0
ARC
  8
_0-1_線色１__水色__
  6
CONTINUOUS
 62
    4
 10
1223.0647132997301
 20
824.93940725801224
 40
1.2083333333333179
 50
127.52351320610693
 51
52.47648680188081
  0
ARC
  8
_0-1_線色１__水色__
  6
CONTINUOUS
 62
    4
 10
1224.5366734439385
 20
826.856073924817
 40
1.2083333333333581
 50
307.52351320333912
 51
232.47648680464988
  0
ARC
  8
_0-1_線色１__水色__
  6
CONTINUOUS
 62
    4
 10
1221.5927531552557
 20
826.85607392461236
 40
1.2083333333333581
 50
307.52351320333912
 51
232.47648680464988
  0
ARC
  8
_0-1_線色１__水色__
  6
CONTINUOUS
 62
    4
 10
1228.9525538770959
 20
824.93940725842151
 40
1.2083333333333179
 50
127.52351320610693
 51
52.47648680188081
  0
ARC
  8
_0-1_線色１__水色__
  6
CONTINUOUS
 62
    4
 10
1227.4805937326214
 20
826.85607392502163
 40
1.2083333333333581
 50
307.52351320333912
 51
232.47648680464988
  0
ARC
  8
_0-1_線色１__水色__
  6
CONTINUOUS
 62
    4
 10
1231.8964741657787
 20
824.93940725862842
 40
1.2083333333333179
 50
127.52351320610693
 51
52.47648680188081
  0
ARC
  8
_0-1_線色１__水色__
  6
CONTINUOUS
 62
    4
 10
1230.4245140213043
 20
826.85607392522627
 40
1.2083333333333581
 50
307.52351320333912
 51
232.47648680464988
  0
ARC
  8
_0-1_線色１__水色__
  6
CONTINUOUS
 62
    4
 10
1234.8403944544639
 20
824.93940725883306
 40
1.2083333333333179
 50
127.52351320610693
 51
52.47648680188081
  0
ARC
  8
_0-1_線色１__水色__
  6
CONTINUOUS
 62
    4
 10
1233.3684343099872
 20
826.85607392543318
 40
1.2083333333333581
 50
307.52351320333912
 51
232.47648680464988
  0
ARC
  8
_0-1_線色１__水色__
  6
CONTINUOUS
 62
    4
 10
1237.7843147431468
 20
824.93940725903769
 40
1.2083333333333179
 50
127.52351320610693
 51
52.47648680188081
  0
ARC
  8
_0-1_線色１__水色__
  6
CONTINUOUS
 62
    4
 10
1236.3123545986723
 20
826.85607392563782
 40
1.2083333333333581
 50
307.52351320333912
 51
232.47648680464988
  0
ARC
  8
_0-1_線色１__水色__
  6
CONTINUOUS
 62
    4
 10
1240.7282350318296
 20
824.93940725924233
 40
1.2083333333333179
 50
127.52351320610693
 51
52.47648680188081
  0
ARC
  8
_0-1_線色１__水色__
  6
CONTINUOUS
 62
    4
 10
1239.2562748873552
 20
826.85607392584245
 40
1.2083333333333581
 50
307.52351320333912
 51
232.47648680464988
  0
ARC
  8
_0-1_線色１__水色__
  6
CONTINUOUS
 62
    4
 10
1243.6721553205125
 20
824.93940725944697
 40
1.2083333333333179
 50
127.52351320610693
 51
52.47648680188081
  0
ARC
  8
_0-1_線色１__水色__
  6
CONTINUOUS
 62
    4
 10
1242.2001951760381
 20
826.85607392604709
 40
1.2083333333333581
 50
307.52351320333912
 51
232.47648680464988
  0
ARC
  8
_0-1_線色１__水色__
  6
CONTINUOUS
 62
    4
 10
1202.4572712789454
 20
824.93940725842151
 40
1.2083333333333179
 50
127.52351320610693
 51
52.47648680188081
  0
ARC
  8
_0-1_線色１__水色__
  6
CONTINUOUS
 62
    4
 10
1200.985311134471
 20
826.85607392502163
 40
1.2083333333333581
 50
307.52351320333912
 51
232.47648680464988
  0
ARC
  8
_0-1_線色１__水色__
  6
CONTINUOUS
 62
    4
 10
1205.4011915676306
 20
824.93940725862842
 40
1.2083333333333179
 50
127.52351320610693
 51
52.47648680188081
  0
ARC
  8
_0-1_線色１__水色__
  6
CONTINUOUS
 62
    4
 10
1203.9292314231539
 20
826.85607392522627
 40
1.2083333333333581
 50
307.52351320333912
 51
232.47648680464988
  0
ARC
  8
_0-1_線色１__水色__
  6
CONTINUOUS
 62
    4
 10
1208.3451118563135
 20
824.93940725883306
 40
1.2083333333333179
 50
127.52351320610693
 51
52.47648680188081
  0
ARC
  8
_0-1_線色１__水色__
  6
CONTINUOUS
 62
    4
 10
1206.873151711839
 20
826.85607392543318
 40
1.2083333333333581
 50
307.52351320333912
 51
232.47648680464988
  0
ARC
  8
_0-1_線色１__水色__
  6
CONTINUOUS
 62
    4
 10
1211.2890321449963
 20
824.93940725903769
 40
1.2083333333333179
 50
127.52351320610693
 51
52.47648680188081
  0
ARC
  8
_0-1_線色１__水色__
  6
CONTINUOUS
 62
    4
 10
1209.8170720005219
 20
826.85607392563782
 40
1.2083333333333581
 50
307.52351320333912
 51
232.47648680464988
  0
ARC
  8
_0-1_線色１__水色__
  6
CONTINUOUS
 62
    4
 10
1214.2329524336792
 20
824.93940725924233
 40
1.2083333333333179
 50
127.52351320610693
 51
52.47648680188081
  0
ARC
  8
_0-1_線色１__水色__
  6
CONTINUOUS
 62
    4
 10
1212.7609922892048
 20
826.85607392584245
 40
1.2083333333333581
 50
307.52351320333912
 51
232.47648680464988
  0
ARC
  8
_0-1_線色１__水色__
  6
CONTINUOUS
 62
    4
 10
1217.1768727223621
 20
824.93940725944697
 40
1.2083333333333179
 50
127.52351320610693
 51
52.47648680188081
  0
ARC
  8
_0-1_線色１__水色__
  6
CONTINUOUS
 62
    4
 10
1215.7049125778876
 20
826.85607392604709
 40
1.2083333333333581
 50
307.52351320333912
 51
232.47648680464988
  0
ARC
  8
_0-1_線色１__水色__
  6
CONTINUOUS
 62
    4
 10
1174.4900285363206
 20
826.85607392440545
 40
1.2083333333333581
 50
307.52351320333912
 51
232.47648680464988
  0
ARC
  8
_0-1_線色１__水色__
  6
CONTINUOUS
 62
    4
 10
1175.9619886807973
 20
824.9394072578076
 40
1.2083333333333179
 50
127.52351320610693
 51
52.47648680188081
  0
ARC
  8
_0-1_線色１__水色__
  6
CONTINUOUS
 62
    4
 10
1181.849829258163
 20
824.93940725821687
 40
1.2083333333333179
 50
127.52351320610693
 51
52.47648680188081
  0
ARC
  8
_0-1_線色１__水色__
  6
CONTINUOUS
 62
    4
 10
1178.9059089694802
 20
824.93940725801224
 40
1.2083333333333179
 50
127.52351320610693
 51
52.47648680188081
  0
ARC
  8
_0-1_線色１__水色__
  6
CONTINUOUS
 62
    4
 10
1180.3778691136886
 20
826.856073924817
 40
1.2083333333333581
 50
307.52351320333912
 51
232.47648680464988
  0
ARC
  8
_0-1_線色１__水色__
  6
CONTINUOUS
 62
    4
 10
1177.4339488250034
 20
826.85607392461236
 40
1.2083333333333581
 50
307.52351320333912
 51
232.47648680464988
  0
ARC
  8
_0-1_線色１__水色__
  6
CONTINUOUS
 62
    4
 10
1184.7937495468459
 20
824.93940725842151
 40
1.2083333333333179
 50
127.52351320610693
 51
52.47648680188081
  0
ARC
  8
_0-1_線色１__水色__
  6
CONTINUOUS
 62
    4
 10
1183.3217894023715
 20
826.85607392502163
 40
1.2083333333333581
 50
307.52351320333912
 51
232.47648680464988
  0
ARC
  8
_0-1_線色１__水色__
  6
CONTINUOUS
 62
    4
 10
1187.7376698355288
 20
824.93940725862842
 40
1.2083333333333179
 50
127.52351320610693
 51
52.47648680188081
  0
ARC
  8
_0-1_線色１__水色__
  6
CONTINUOUS
 62
    4
 10
1186.2657096910543
 20
826.85607392522627
 40
1.2083333333333581
 50
307.52351320333912
 51
232.47648680464988
  0
ARC
  8
_0-1_線色１__水色__
  6
CONTINUOUS
 62
    4
 10
1190.6815901242139
 20
824.93940725883306
 40
1.2083333333333179
 50
127.52351320610693
 51
52.47648680188081
  0
ARC
  8
_0-1_線色１__水色__
  6
CONTINUOUS
 62
    4
 10
1189.2096299797372
 20
826.85607392543318
 40
1.2083333333333581
 50
307.52351320333912
 51
232.47648680464988
  0
ARC
  8
_0-1_線色１__水色__
  6
CONTINUOUS
 62
    4
 10
1193.6255104128968
 20
824.93940725903769
 40
1.2083333333333179
 50
127.52351320610693
 51
52.47648680188081
  0
ARC
  8
_0-1_線色１__水色__
  6
CONTINUOUS
 62
    4
 10
1192.1535502684224
 20
826.85607392563782
 40
1.2083333333333581
 50
307.52351320333912
 51
232.47648680464988
  0
ARC
  8
_0-1_線色１__水色__
  6
CONTINUOUS
 62
    4
 10
1196.5694307015797
 20
824.93940725924233
 40
1.2083333333333179
 50
127.52351320610693
 51
52.47648680188081
  0
ARC
  8
_0-1_線色１__水色__
  6
CONTINUOUS
 62
    4
 10
1195.0974705571052
 20
826.85607392584245
 40
1.2083333333333581
 50
307.52351320333912
 51
232.47648680464988
  0
ARC
  8
_0-1_線色１__水色__
  6
CONTINUOUS
 62
    4
 10
1199.5133509902626
 20
824.93940725944697
 40
1.2083333333333179
 50
127.52351320610693
 51
52.47648680188081
  0
ARC
  8
_0-1_線色１__水色__
  6
CONTINUOUS
 62
    4
 10
1198.0413908457881
 20
826.85607392604709
 40
1.2083333333333581
 50
307.52351320333912
 51
232.47648680464988
  0
ARC
  8
_0-1_線色１__水色__
  6
CONTINUOUS
 62
    4
 10
1147.9947459381701
 20
826.85607392440545
 40
1.2083333333333581
 50
307.52351320333912
 51
232.47648680464988
  0
ARC
  8
_0-1_線色１__水色__
  6
CONTINUOUS
 62
    4
 10
1149.4667060826469
 20
824.9394072578076
 40
1.2083333333333179
 50
127.52351320610693
 51
52.47648680188081
  0
ARC
  8
_0-1_線色１__水色__
  6
CONTINUOUS
 62
    4
 10
1155.3545466600126
 20
824.93940725821687
 40
1.2083333333333179
 50
127.52351320610693
 51
52.47648680188081
  0
ARC
  8
_0-1_線色１__水色__
  6
CONTINUOUS
 62
    4
 10
1152.4106263713297
 20
824.93940725801224
 40
1.2083333333333179
 50
127.52351320610693
 51
52.47648680188081
  0
ARC
  8
_0-1_線色１__水色__
  6
CONTINUOUS
 62
    4
 10
1153.8825865155382
 20
826.856073924817
 40
1.2083333333333581
 50
307.52351320333912
 51
232.47648680464988
  0
ARC
  8
_0-1_線色１__水色__
  6
CONTINUOUS
 62
    4
 10
1150.938666226853
 20
826.85607392461236
 40
1.2083333333333581
 50
307.52351320333912
 51
232.47648680464988
  0
ARC
  8
_0-1_線色１__水色__
  6
CONTINUOUS
 62
    4
 10
1158.2984669486955
 20
824.93940725842151
 40
1.2083333333333179
 50
127.52351320610693
 51
52.47648680188081
  0
ARC
  8
_0-1_線色１__水色__
  6
CONTINUOUS
 62
    4
 10
1156.826506804221
 20
826.85607392502163
 40
1.2083333333333581
 50
307.52351320333912
 51
232.47648680464988
  0
ARC
  8
_0-1_線色１__水色__
  6
CONTINUOUS
 62
    4
 10
1161.2423872373806
 20
824.93940725862842
 40
1.2083333333333179
 50
127.52351320610693
 51
52.47648680188081
  0
ARC
  8
_0-1_線色１__水色__
  6
CONTINUOUS
 62
    4
 10
1159.7704270929039
 20
826.85607392522627
 40
1.2083333333333581
 50
307.52351320333912
 51
232.47648680464988
  0
ARC
  8
_0-1_線色１__水色__
  6
CONTINUOUS
 62
    4
 10
1164.1863075260635
 20
824.93940725883306
 40
1.2083333333333179
 50
127.52351320610693
 51
52.47648680188081
  0
ARC
  8
_0-1_線色１__水色__
  6
CONTINUOUS
 62
    4
 10
1162.7143473815868
 20
826.85607392543318
 40
1.2083333333333581
 50
307.52351320333912
 51
232.47648680464988
  0
ARC
  8
_0-1_線色１__水色__
  6
CONTINUOUS
 62
    4
 10
1167.1302278147464
 20
824.93940725903769
 40
1.2083333333333179
 50
127.52351320610693
 51
52.47648680188081
  0
ARC
  8
_0-1_線色１__水色__
  6
CONTINUOUS
 62
    4
 10
1165.6582676702697
 20
826.85607392563782
 40
1.2083333333333581
 50
307.52351320333912
 51
232.47648680464988
  0
ARC
  8
_0-1_線色１__水色__
  6
CONTINUOUS
 62
    4
 10
1170.0741481034293
 20
824.93940725924233
 40
1.2083333333333179
 50
127.52351320610693
 51
52.47648680188081
  0
ARC
  8
_0-1_線色１__水色__
  6
CONTINUOUS
 62
    4
 10
1168.6021879589548
 20
826.85607392584245
 40
1.2083333333333581
 50
307.52351320333912
 51
232.47648680464988
  0
ARC
  8
_0-1_線色１__水色__
  6
CONTINUOUS
 62
    4
 10
1173.0180683921121
 20
824.93940725944697
 40
1.2083333333333179
 50
127.52351320610693
 51
52.47648680188081
  0
ARC
  8
_0-1_線色１__水色__
  6
CONTINUOUS
 62
    4
 10
1171.5461082476377
 20
826.85607392604709
 40
1.2083333333333581
 50
307.52351320333912
 51
232.47648680464988
  0
ARC
  8
_0-1_線色１__水色__
  6
CONTINUOUS
 62
    4
 10
1121.4994633400197
 20
826.85607392440545
 40
1.2083333333333581
 50
307.52351320333912
 51
232.47648680464988
  0
ARC
  8
_0-1_線色１__水色__
  6
CONTINUOUS
 62
    4
 10
1122.9714234844964
 20
824.9394072578076
 40
1.2083333333333179
 50
127.52351320610693
 51
52.47648680188081
  0
ARC
  8
_0-1_線色１__水色__
  6
CONTINUOUS
 62
    4
 10
1128.8592640618622
 20
824.93940725821687
 40
1.2083333333333179
 50
127.52351320610693
 51
52.47648680188081
  0
ARC
  8
_0-1_線色１__水色__
  6
CONTINUOUS
 62
    4
 10
1125.9153437731793
 20
824.93940725801224
 40
1.2083333333333179
 50
127.52351320610693
 51
52.47648680188081
  0
ARC
  8
_0-1_線色１__水色__
  6
CONTINUOUS
 62
    4
 10
1127.3873039173877
 20
826.856073924817
 40
1.2083333333333581
 50
307.52351320333912
 51
232.47648680464988
  0
ARC
  8
_0-1_線色１__水色__
  6
CONTINUOUS
 62
    4
 10
1124.4433836287049
 20
826.85607392461236
 40
1.2083333333333581
 50
307.52351320333912
 51
232.47648680464988
  0
ARC
  8
_0-1_線色１__水色__
  6
CONTINUOUS
 62
    4
 10
1131.8031843505451
 20
824.93940725842151
 40
1.2083333333333179
 50
127.52351320610693
 51
52.47648680188081
  0
ARC
  8
_0-1_線色１__水色__
  6
CONTINUOUS
 62
    4
 10
1130.3312242060706
 20
826.85607392502163
 40
1.2083333333333581
 50
307.52351320333912
 51
232.47648680464988
  0
ARC
  8
_0-1_線色１__水色__
  6
CONTINUOUS
 62
    4
 10
1134.7471046392279
 20
824.93940725862842
 40
1.2083333333333179
 50
127.52351320610693
 51
52.47648680188081
  0
ARC
  8
_0-1_線色１__水色__
  6
CONTINUOUS
 62
    4
 10
1133.2751444947535
 20
826.85607392522627
 40
1.2083333333333581
 50
307.52351320333912
 51
232.47648680464988
  0
ARC
  8
_0-1_線色１__水色__
  6
CONTINUOUS
 62
    4
 10
1137.6910249279131
 20
824.93940725883306
 40
1.2083333333333179
 50
127.52351320610693
 51
52.47648680188081
  0
ARC
  8
_0-1_線色１__水色__
  6
CONTINUOUS
 62
    4
 10
1136.2190647834364
 20
826.85607392543318
 40
1.2083333333333581
 50
307.52351320333912
 51
232.47648680464988
  0
ARC
  8
_0-1_線色１__水色__
  6
CONTINUOUS
 62
    4
 10
1140.634945216596
 20
824.93940725903769
 40
1.2083333333333179
 50
127.52351320610693
 51
52.47648680188081
  0
ARC
  8
_0-1_線色１__水色__
  6
CONTINUOUS
 62
    4
 10
1139.1629850721215
 20
826.85607392563782
 40
1.2083333333333581
 50
307.52351320333912
 51
232.47648680464988
  0
ARC
  8
_0-1_線色１__水色__
  6
CONTINUOUS
 62
    4
 10
1143.5788655052788
 20
824.93940725924233
 40
1.2083333333333179
 50
127.52351320610693
 51
52.47648680188081
  0
ARC
  8
_0-1_線色１__水色__
  6
CONTINUOUS
 62
    4
 10
1142.1069053608044
 20
826.85607392584245
 40
1.2083333333333581
 50
307.52351320333912
 51
232.47648680464988
  0
ARC
  8
_0-1_線色１__水色__
  6
CONTINUOUS
 62
    4
 10
1146.5227857939617
 20
824.93940725944697
 40
1.2083333333333179
 50
127.52351320610693
 51
52.47648680188081
  0
ARC
  8
_0-1_線色１__水色__
  6
CONTINUOUS
 62
    4
 10
1145.0508256494873
 20
826.85607392604709
 40
1.2083333333333581
 50
307.52351320333912
 51
232.47648680464988
  0
LINE
  8
_0-d_断熱__ハッチ
  6
CONTINUOUS
 62
    4
 10
853.49343251827293
 20
799.95980592031913
 11
876.9313671849028
 21
823.39774058695014
  0
LINE
  8
_0-d_断熱__ハッチ
  6
CONTINUOUS
 62
    4
 10
1224.4294615457129
 20
823.39774058695014
 11
1259.4294615457106
 21
788.39774058695241
  0
LINE
  8
_0-d_断熱__ハッチ
  6
CONTINUOUS
 62
    4
 10
1196.1451902982553
 20
823.39774058695014
 11
1231.1451902982553
 21
788.39774058695014
  0
LINE
  8
_0-d_断熱__ハッチ
  6
CONTINUOUS
 62
    4
 10
1167.8609190507887
 20
823.39774058695014
 11
1202.8609190507864
 21
788.39774058695241
  0
LINE
  8
_0-d_断熱__ハッチ
  6
CONTINUOUS
 62
    4
 10
1139.5766478033311
 20
823.39774058695014
 11
1174.5766478033311
 21
788.39774058695014
  0
LINE
  8
_0-d_断熱__ハッチ
  6
CONTINUOUS
 62
    4
 10
1111.2923765558644
 20
823.39774058695014
 11
1146.2923765558621
 21
788.39774058695241
  0
LINE
  8
_0-d_断熱__ハッチ
  6
CONTINUOUS
 62
    4
 10
1083.0081053084082
 20
823.39774058694786
 11
1118.0081053084068
 21
788.39774058695014
  0
LINE
  8
_0-d_断熱__ハッチ
  6
CONTINUOUS
 62
    4
 10
1054.7238340609401
 20
823.39774058695014
 11
1089.7238340609379
 21
788.39774058695241
  0
LINE
  8
_0-d_断熱__ハッチ
  6
CONTINUOUS
 62
    4
 10
1026.4395628134839
 20
823.39774058694786
 11
1061.4395628134816
 21
788.39774058695014
  0
LINE
  8
_0-d_断熱__ハッチ
  6
CONTINUOUS
 62
    4
 10
1068.2055371645997
 20
788.39774058695014
 11
1103.2055371646011
 21
823.39774058695014
  0
LINE
  8
_0-d_断熱__ハッチ
  6
CONTINUOUS
 62
    4
 10
1096.4898084120564
 20
788.39774058694786
 11
1131.4898084120573
 21
823.39774058695014
  0
LINE
  8
_0-d_断熱__ハッチ
  6
CONTINUOUS
 62
    4
 10
1124.774079659524
 20
788.39774058695014
 11
1159.7740796595276
 21
823.39774058695241
  0
LINE
  8
_0-d_断熱__ハッチ
  6
CONTINUOUS
 62
    4
 10
1153.0583509069829
 20
788.39774058695241
 11
1188.0583509069816
 21
823.39774058695014
  0
LINE
  8
_0-d_断熱__ハッチ
  6
CONTINUOUS
 62
    4
 10
1181.3426221544505
 20
788.39774058695241
 11
1216.3426221544519
 21
823.39774058695241
  0
LINE
  8
_0-d_断熱__ハッチ
  6
CONTINUOUS
 62
    4
 10
1209.6268934019072
 20
788.39774058695241
 11
1244.6268934019058
 21
823.39774058695014
  0
ARC
  8
_0-1_線色１__水色__
  6
CONTINUOUS
 62
    4
 10
851.95176584577382
 20
792.48657755564238
 40
1.2083333333333177
 50
217.52351319811916
 51
142.47648679389312
  0
ARC
  8
_0-1_線色１__水色__
  6
CONTINUOUS
 62
    4
 10
850.0350991791737
 20
793.95853770011684
 40
1.2083333333333581
 50
37.523513195350134
 51
322.47648679666082
  0
LINE
  8
_0-a_文字
  6
CONTINUOUS
 62
    7
 10
1208.5159745750707
 20
750.89774058695014
 11
1244.6003663994256
 21
688.39774058695014
  0
LINE
  8
_0-a_文字
  6
CONTINUOUS
 62
    7
 10
1244.6003663994256
 20
688.39774058695014
 11
1264.6003663994256
 21
688.39774058695014
  0
TEXT
  8
_0-a_文字
 62
    7
 10
1269.6003663994234
 20
680.89774058695014
 40
14.999999999999858
 41
1.0000000000000082
 50
0
  1
デッキプレート フラットタイプ H=75
  0
TEXT
  8
_0-a_文字
 62
    7
 10
1269.6003663994236
 20
660.89774058695014
 40
14.999999999999858
 41
1.0000000000000069
 50
0
  1
t=1.0 または t=1.2（別途工事）
  0
LINE
  8
_0-a_文字
  6
CONTINUOUS
 62
    7
 10
1143.9847071206498
 20
750.89774058695014
 11
1206.0498610585403
 21
643.39774058695014
  0
LINE
  8
_0-a_文字
  6
CONTINUOUS
 62
    7
 10
1206.0498610585403
 20
643.39774058695014
 11
1226.0498610585403
 21
643.39774058695014
  0
TEXT
  8
_0-a_文字
 62
    7
 10
1231.0498610585389
 20
635.89774058695002
 40
14.999999999999858
 41
1.0000000000000047
 50
0
  1
タイトフレーム（別途工事）
  0
LINE
  8
_0-5_金属
  6
CONTINUOUS
 62
    7
 10
931.94458130519763
 20
696.19772058694991
 11
931.94458130519763
 21
572.19774058695123
  0
LINE
  8
_0-5_金属
  6
CONTINUOUS
 62
    7
 10
933.14458130519768
 20
697.39772058694882
 11
933.14458130519768
 21
523.09834082047303
  0
LINE
  8
_0-5_金属
  6
CONTINUOUS
 62
    7
 10
853.14458130519768
 20
788.39774058695014
 11
853.14458130519768
 21
697.39772058694882
  0
LINE
  8
_0-5_金属
  6
CONTINUOUS
 62
    7
 10
853.14458130519768
 20
697.39772058694882
 11
933.14458130519768
 21
697.39772058694882
  0
LINE
  8
_0-5_金属
  6
CONTINUOUS
 62
    7
 10
851.94458130519763
 20
696.19772058694991
 11
931.94458130519763
 21
696.19772058694991
  0
LINE
  8
_0-5_金属
  6
CONTINUOUS
 62
    7
 10
851.94458130519763
 20
789.59774058695018
 11
851.94458130519763
 21
696.19772058694991
  0
LINE
  8
_0-6_鋼板__アングル
  6
CONTINUOUS
 62
    2
 10
851.94458130519763
 20
789.59774058694904
 11
851.94458130519763
 21
696.19772058694991
  0
LINE
  8
_0-6_鋼板__アングル
  6
CONTINUOUS
 62
    2
 10
850.74458130519872
 20
790.79774058694795
 11
850.74458130519872
 21
696.19772058694991
  0
LINE
  8
_0-6_鋼板__アングル
  6
CONTINUOUS
 62
    2
 10
851.94458130519763
 20
696.19772058694991
 11
850.74458130519872
 21
696.19772058694991
  0
LINE
  8
_0-2_線色２__白__
  6
CONTINUOUS
 62
    7
 10
848.49343251827293
 20
746.19772058694991
 11
850.74458130519872
 21
746.19772058694991
  0
LINE
  8
_0-2_線色２__白__
  6
CONTINUOUS
 62
    7
 10
848.49343251827293
 20
696.19772058694991
 11
850.74458130519872
 21
696.19772058694991
  0
LINE
  8
_0-d_断熱__ハッチ
  6
CONTINUOUS
 62
    4
 10
850.14883726756898
 20
726.60500953581391
 11
850.74458130519872
 21
727.20075357344342
  0
LINE
  8
_0-d_断熱__ハッチ
  6
CONTINUOUS
 62
    4
 10
848.62573439741038
 20
728.61744057158887
 11
850.74458130519827
 21
730.73628747937619
  0
LINE
  8
_0-d_断熱__ハッチ
  6
CONTINUOUS
 62
    4
 10
848.49343251826951
 20
732.02067259838145
 11
850.74458130519815
 21
734.27182138530952
  0
LINE
  8
_0-d_断熱__ハッチ
  6
CONTINUOUS
 62
    4
 10
848.49343251826906
 20
735.55620650431422
 11
850.74458130519758
 21
737.80735529124286
  0
LINE
  8
_0-d_断熱__ハッチ
  6
CONTINUOUS
 62
    4
 10
848.49343251827065
 20
739.09174041024926
 11
850.74458130519713
 21
741.34288919717562
  0
LINE
  8
_0-d_断熱__ハッチ
  6
CONTINUOUS
 62
    4
 10
848.49343251827247
 20
742.62727431618373
 11
850.74458130519702
 21
744.87842310310839
  0
LINE
  8
_0-d_断熱__ハッチ
  6
CONTINUOUS
 62
    4
 10
848.49343251827213
 20
746.16280822211706
 11
848.52834488310589
 21
746.19772058695105
  0
LINE
  8
_0-d_断熱__ハッチ
  6
CONTINUOUS
 62
    4
 10
848.49343251827122
 20
696.66533353905834
 11
850.74458130519599
 21
698.916482325983
  0
LINE
  8
_0-d_断熱__ハッチ
  6
CONTINUOUS
 62
    4
 10
848.49343251827327
 20
700.2008674449894
 11
850.74458130519758
 21
702.45201623191406
  0
LINE
  8
_0-d_断熱__ハッチ
  6
CONTINUOUS
 62
    4
 10
848.49343251827247
 20
703.73640135091762
 11
850.74458130519679
 21
705.98755013784171
  0
LINE
  8
_0-d_断熱__ハッチ
  6
CONTINUOUS
 62
    4
 10
848.49343251827236
 20
707.27193525685038
 11
850.74458130519906
 21
709.52308404377732
  0
LINE
  8
_0-d_断熱__ハッチ
  6
CONTINUOUS
 62
    4
 10
848.49343251827213
 20
710.80746916278372
 11
850.74458130519827
 21
713.05861794971008
  0
LINE
  8
_0-d_断熱__ハッチ
  6
CONTINUOUS
 62
    4
 10
848.49343251827179
 20
714.34300306871648
 11
850.74458130519793
 21
716.59415185564285
  0
ENDSEC
  0
EOF
