  0
SECTION
  2
HEADER
  9
$ACADVER
  1
AC1009
  9
$INSBASE
 10
0
 20
0
 30
0
  9
$EXTMIN
 10
0
 20
0
  9
$EXTMAX
 10
2100
 20
1485
  9
$LIMMIN
 10
0
 20
0
  9
$LIMMAX
 10
2100
 20
1485
  9
$LTSCALE
 40
5
  0
ENDSEC
  0
SECTION
  2
TABLES
  0
TABLE
  2
LTYPE
 70
     9
  0
LTYPE
  2
CONTINUOUS
 70
    64
  3
実線
 72
    65
 73
     0
 40
0.0
  0
LTYPE
  2
DASHED1
 70
    64
  3
--  --  --  --  --  --  --  --  
 72
    65
 73
     2
 40
2.5
 49
1.25
 49
-1.25
  0
LTYPE
  2
DASHED2
 70
    64
  3
----    ----    ----    ----    
 72
    65
 73
     2
 40
5.0
 49
2.5
 49
-2.5
  0
LTYPE
  2
DASHED3
 70
    64
  3
------  ------  ------  ------  
 72
    65
 73
     2
 40
5.0
 49
3.75
 49
-1.25
  0
LTYPE
  2
CENTER1
 70
    64
  3
----- - ----- - ----- - ----- - 
 72
    65
 73
     4
 40
10.0
 49
6.25
 49
-1.25
 49
1.25
 49
-1.25
  0
LTYPE
  2
CENTER2
 70
    64
  3
----------  --  ----------  --  
 72
    65
 73
     4
 40
20.0
 49
12.5
 49
-2.5
 49
2.5
 49
-2.5
  0
LTYPE
  2
PHANTOM1
 70
    64
  3
--- - - --- - - --- - - --- - - 
 72
    65
 73
     6
 40
10.0
 49
3.25
 49
-1.25
 49
1.25
 49
-1.25
 49
1.25
 49
-1.25
  0
LTYPE
  2
PHANTOM2
 70
    64
  3
--------  -  -  --------  -  -  
 72
    65
 73
     6
 40
20.0
 49
10.0
 49
-2.5
 49
1.25
 49
-2.5
 49
1.25
 49
-2.5
  0
LTYPE
  2
DOT
 70
    64
  3
-   -   -   -   -   -   -   -   
 72
    65
 73
     2
 40
2.5
 49
0.625
 49
-1.875
  0
LTYPE
  2
DUMMY
 70
    64
  3
ダミー
 72
    65
 73
     0
 40
0.0
  0
LTYPE
  2
RAND1
 70
    64
  3
ランダム線1
 72
    65
 73
     4
 40
10.0
 49
1.0
 49
-2.0
 49
3.0
 49
-4.0
  0
LTYPE
  2
RAND2
 70
    64
  3
ランダム線2
 72
    65
 73
     4
 40
14.0
 49
2.0
 49
-3.0
 49
4.0
 49
-5.0
  0
LTYPE
  2
RAND3
 70
    64
  3
ランダム線3
 72
    65
 73
     4
 40
18.0
 49
3.0
 49
-4.0
 49
5.0
 49
-6.0
  0
LTYPE
  2
RAND4
 70
    64
  3
ランダム線4
 72
    65
 73
     4
 40
22.0
 49
4.0
 49
-5.0
 49
6.0
 49
-7.0
  0
LTYPE
  2
RAND5
 70
    64
  3
ランダム線5
 72
    65
 73
     4
 40
26.0
 49
5.0
 49
-6.0
 49
7.0
 49
-8.0
  0
LTYPE
  2
LONG1
 70
    64
  3
----------  --  ----------  --  
 72
    65
 73
     4
 40
40.0
 49
32.5
 49
-2.5
 49
2.5
 49
-2.5
  0
LTYPE
  2
LONG2
 70
    64
  3
--------  -  -  --------  -  -  
 72
    65
 73
     6
 40
40.0
 49
30.0
 49
-2.5
 49
1.25
 49
-2.5
 49
1.25
 49
-2.5
  0
LTYPE
  2
LONG3
 70
    64
  3
+++++++++++++++..+++++++++++++++
 72
    65
 73
     2
 40
40.0
 49
37.5
 49
-2.5
  0
LTYPE
  2
LONG4
 70
    64
  3
+++++++++++++++..+++++++++++++++
 72
    65
 73
     2
 40
80.0
 49
75.0
 49
-5.0
  0
LTYPE
  2
LONG5
 70
    64
  3
----------  --  ----------  --  
 72
    65
 73
     4
 40
60.0
 49
37.5
 49
-7.5
 49
7.5
 49
-7.5
  0
LTYPE
  2
dashed
 70
   64
  3
-------   -------------   ------
 72
   65
 73
    2
 40
7.5
 49
6
 49
-1.5
  0
LTYPE
  2
dashed_spaced
 70
   64
  3
----        --------        ----
 72
   65
 73
    2
 40
12
 49
6
 49
-6
  0
LTYPE
  2
long_dashed_dotted
 70
   64
  3
------------- --- --------------
 72
   65
 73
    4
 40
15.25
 49
12
 49
-1.5
 49
0.25
 49
-1.5
  0
LTYPE
  2
long_dashed_double-dotted
 70
   64
  3
----------- --- --- ------------
 72
   65
 73
    6
 40
17
 49
12
 49
-1.5
 49
0.25
 49
-1.5
 49
0.25
 49
-1.5
  0
LTYPE
  2
long_dashed_triplicate-dotted
 70
   64
  3
--------- --- --- --- ----------
 72
   65
 73
    8
 40
18.75
 49
12
 49
-1.5
 49
0.25
 49
-1.5
 49
0.25
 49
-1.5
 49
0.25
 49
-1.5
  0
LTYPE
  2
dotted
 70
   64
  3
   -       -       -       -    
 72
   65
 73
    2
 40
1.75
 49
0.25
 49
-1.5
  0
LTYPE
  2
chain
 70
   64
  3
-------------- -- --------------
 72
   65
 73
    4
 40
18.5
 49
12
 49
-1.5
 49
3.5
 49
-1.5
  0
LTYPE
  2
chain_double_dash
 70
   64
  3
------------ -- -- -------------
 72
   65
 73
    6
 40
23.5
 49
12
 49
-1.5
 49
3.5
 49
-1.5
 49
3.5
 49
-1.5
  0
LTYPE
  2
dashed_dotted
 70
   64
  3
-----------     -     ----------
 72
   65
 73
    4
 40
9.25
 49
6
 49
-1.5
 49
0.25
 49
-1.5
  0
LTYPE
  2
double-dashed_dotted
 70
   64
  3
------   -----------   -   -----
 72
   65
 73
    6
 40
16.75
 49
6
 49
-1.5
 49
6
 49
-1.5
 49
0.25
 49
-1.5
  0
LTYPE
  2
dashed_double-dotted
 70
   64
  3
---------    -    -    ---------
 72
   65
 73
    6
 40
11
 49
6
 49
-1.5
 49
0.25
 49
-1.5
 49
0.25
 49
-1.5
  0
LTYPE
  2
double-dashed_double-dotted
 70
   64
  3
-----   ---------   -   -   ----
 72
   65
 73
    8
 40
18.5
 49
6
 49
-1.5
 49
6
 49
-1.5
 49
0.25
 49
-1.5
 49
0.25
 49
-1.5
  0
LTYPE
  2
dashed_triplicate-dotted
 70
   64
  3
-------    -    -    -    ------
 72
   65
 73
    8
 40
12.75
 49
6
 49
-1.5
 49
0.25
 49
-1.5
 49
0.25
 49
-1.5
 49
0.25
 49
-1.5
  0
LTYPE
  2
double-dashed_triplicate-dotted
 70
   64
  3
-----  ---------  -  -  -  -----
 72
   65
 73
   10
 40
20.25
 49
6
 49
-1.5
 49
6
 49
-1.5
 49
0.25
 49
-1.5
 49
0.25
 49
-1.5
 49
0.25
 49
-1.5
  0
LTYPE
  2
undefined
 70
   64
  3
--------------------------------
 72
   65
 73
    0
 40
0
  0
ENDTAB
  0
TABLE
  2
STYLE
  5
3
100
AcDbSymbolTable
 70
     1
  0
STYLE
  5
10
100
AcDbSymbolTableRecord
100
AcDbTextStyleTableRecord
  2
STANDARD
 70
     0
 40
0.0
 41
1.0
 50
0.0
 71
     0
 42
0.2
  3
txt
  4
bigfont.shx
  0
STYLE
  5
26
100
AcDbSymbolTableRecord
100
AcDbTextStyleTableRecord
  2
TATEGAKI
 70
    68
 40
0.0
 41
1.0
 50
0.0
 71
     0
 42
1.0
  3
txt
  4
bigfont.shx
  0
ENDTAB
  0
TABLE
  2
LAYER
 70
   14
  0
LAYER
  2
_0-1_線色１__水色__
 70
   64
 62
    7
  6
CONTINUOUS
  0
LAYER
  2
_0-2_線色２__白__
 70
   64
 62
    7
  6
CONTINUOUS
  0
LAYER
  2
_0-3_線色３__緑__
 70
   64
 62
    7
  6
CONTINUOUS
  0
LAYER
  2
_0-4_線色４__黄__
 70
   64
 62
    7
  6
CONTINUOUS
  0
LAYER
  2
_0-5_金属
 70
   64
 62
    7
  6
CONTINUOUS
  0
LAYER
  2
_0-6_鋼板__アングル
 70
   64
 62
    7
  6
CONTINUOUS
  0
LAYER
  2
_0-7_ビス
 70
   64
 62
    7
  6
CONTINUOUS
  0
LAYER
  2
_0-8_笠木他
 70
   64
 62
    7
  6
CONTINUOUS
  0
LAYER
  2
_0-9_他
 70
   64
 62
    7
  6
CONTINUOUS
  0
LAYER
  2
_0-a_文字
 70
   64
 62
    7
  6
CONTINUOUS
  0
LAYER
  2
_0-d_断熱__ハッチ
 70
   64
 62
    7
  6
CONTINUOUS
  0
LAYER
  2
_f-0_
 70
   64
 62
    7
  6
CONTINUOUS
  0
LAYER
  2
_f-f_
 70
   64
 62
    7
  6
CONTINUOUS
  0
LAYER
  2
ADD_LINE
 70
   64
 62
    7
  6
CONTINUOUS
  0
ENDTAB
  0
ENDSEC
  0
SECTION
  2
BLOCKS
  0
ENDSEC
  0
SECTION
  2
ENTITIES
  0
LINE
  8
_f-0_
  6
CONTINUOUS
 62
  136
 10
1714.9999999999989
 20
1192.5
 11
385
 21
1192.5
  0
LINE
  8
_f-0_
  6
CONTINUOUS
 62
  136
 10
385
 20
277.50000000000341
 11
1714.9999999999989
 21
277.50000000000341
  0
LINE
  8
_f-0_
  6
CONTINUOUS
 62
  136
 10
385
 20
1192.5
 11
385
 21
277.50000000000341
  0
LINE
  8
_f-0_
  6
CONTINUOUS
 62
  136
 10
1714.9999999999989
 20
1192.5
 11
1714.9999999999989
 21
277.50000000000341
  0
LINE
  8
_f-0_
  6
CONTINUOUS
 62
    6
 10
1714.9999999999989
 20
1152.5
 11
385
 21
1152.5
  0
LINE
  8
_f-f_
  6
CONTINUOUS
 62
    9
 10
310
 20
217.5
 11
310
 21
1267.5
  0
LINE
  8
_f-f_
  6
CONTINUOUS
 62
    9
 10
1790
 20
217.5
 11
310
 21
217.5
  0
LINE
  8
_f-f_
  6
CONTINUOUS
 62
    9
 10
1790
 20
1267.5
 11
310
 21
1267.5
  0
LINE
  8
_f-f_
  6
CONTINUOUS
 62
    9
 10
1790
 20
1267.5
 11
1790
 21
217.5
  0
LINE
  8
ADD_LINE
  6
DOT
 62
  136
 10
1764.9999999999989
 20
1242.5
 11
335
 21
1242.5
  0
LINE
  8
ADD_LINE
  6
DOT
 62
  136
 10
335
 20
242.50000000000227
 11
335
 21
1242.5
  0
LINE
  8
ADD_LINE
  6
DOT
 62
  136
 10
1765
 20
1242.5
 11
1765
 21
242.5
  0
LINE
  8
ADD_LINE
  6
DOT
 62
  136
 10
1765
 20
242.5
 11
335.00000000000114
 21
242.5
  0
TEXT
  8
_0-a_文字
 62
    7
 10
405.00000000000028
 20
287.50000000000313
 40
15.000000000000568
 41
0.9999999999999668
 50
0
  1
※ 本図面は防水納まりの参考図であり、下地等の構造を保証するものではありません
  0
TEXT
  8
_0-a_文字
 62
    7
 10
405
 20
307.50000000000313
 40
15.000000000000568
 41
0.999999999999967
 50
0
  1
※ デッキ端部などの開口部には、必要に応じ遮炎性を満たす処理をお願いします（別途工事）
  0
TEXT
  8
_0-a_文字
 62
    7
 10
405.00000000000028
 20
327.50000000000313
 40
15.000000000000568
 41
0.9999999999999668
 50
0
  1
※ ラジアルシートＬ６００は、断熱材の種類がポリスチレンフォームの場合のみ使用
  0
LINE
  8
_0-5_金属
  6
CONTINUOUS
 62
    7
 10
942.69562829968891
 20
894.40404342441525
 11
942.69562829968891
 21
1004.7987481719429
  0
LINE
  8
_0-8_笠木他
  6
DASHED1
 62
    4
 10
964.64162829969155
 20
748.0980424238146
 11
954.295628299692
 21
748.0980424238146
  0
LINE
  8
_0-8_笠木他
  6
DASHED1
 62
    4
 10
1061.7956282996875
 20
675.30204242381387
 11
1061.7956282996875
 21
689.86204242381291
  0
LINE
  8
_0-8_笠木他
  6
DASHED1
 62
    4
 10
1061.7956282996875
 20
689.86204242381291
 11
1059.2976282996869
 21
691.30404242381474
  0
LINE
  8
_0-8_笠木他
  6
DASHED1
 62
    4
 10
1059.2976282996869
 20
691.30404242381474
 11
1056.7976282996869
 21
689.86204242381291
  0
LINE
  8
_0-8_笠木他
  6
DASHED1
 62
    4
 10
1056.7976282996869
 20
689.86204242381291
 11
1056.7976282996869
 21
675.30204242381387
  0
LINE
  8
_0-8_笠木他
  6
DASHED1
 62
    4
 10
1017.2976282996888
 20
693.30404242381292
 11
1017.2976282996888
 21
672.45604242381432
  0
LINE
  8
_0-8_笠木他
  6
DASHED1
 62
    4
 10
1017.2976282996888
 20
672.45604242381432
 11
1019.2976282996915
 21
671.30204242381296
  0
LINE
  8
_0-8_笠木他
  6
DASHED1
 62
    4
 10
1019.2976282996915
 20
671.30204242381296
 11
1021.2976282996897
 21
672.45604242381432
  0
LINE
  8
_0-8_笠木他
  6
DASHED1
 62
    4
 10
1021.2976282996897
 20
672.45604242381432
 11
1021.2976282996897
 21
693.30404242381292
  0
LINE
  8
_0-8_笠木他
  6
DASHED1
 62
    4
 10
944.295628299692
 20
787.30384242381433
 11
956.29562829969018
 21
787.30384242381433
  0
LINE
  8
_0-8_笠木他
  6
DASHED1
 62
    4
 10
956.29562829969018
 20
787.30384242381433
 11
956.29562829969018
 21
787.80344242381716
  0
LINE
  8
_0-8_笠木他
  6
DASHED1
 62
    4
 10
956.29562829969018
 20
787.80344242381716
 11
958.85162829968976
 21
787.80344242381716
  0
LINE
  8
_0-8_笠木他
  6
DASHED1
 62
    4
 10
958.85162829968976
 20
787.80344242381716
 11
960.29562829969109
 21
790.30384242381615
  0
LINE
  8
_0-8_笠木他
  6
DASHED1
 62
    4
 10
960.29562829969109
 20
790.30384242381615
 11
958.85162829968976
 21
792.80424242381514
  0
LINE
  8
_0-8_笠木他
  6
DASHED1
 62
    4
 10
958.85162829968976
 20
792.80424242381514
 11
956.29562829969018
 21
792.80424242381514
  0
LINE
  8
_0-8_笠木他
  6
DASHED1
 62
    4
 10
956.29562829969018
 20
792.80424242381514
 11
956.29562829969018
 21
793.30384242381569
  0
LINE
  8
_0-8_笠木他
  6
DASHED1
 62
    4
 10
956.29562829969018
 20
793.30384242381569
 11
944.295628299692
 21
793.30384242381569
  0
LINE
  8
_0-8_笠木他
  6
DASHED1
 62
    4
 10
971.16162829969198
 20
753.0980424238146
 11
951.42162829969038
 21
753.0980424238146
  0
LINE
  8
_0-8_笠木他
  6
DASHED1
 62
    4
 10
954.295628299692
 20
751.09804242381415
 11
964.53762829969037
 21
751.09804242381415
  0
LINE
  8
_0-8_笠木他
  6
DASHED1
 62
    4
 10
964.5556282996904
 20
750.5980424238146
 11
954.295628299692
 21
750.5980424238146
  0
LINE
  8
_0-8_笠木他
  6
CONTINUOUS
 62
    4
 10
959.295628299692
 20
784.39124242381467
 11
944.295628299692
 21
784.65324242381712
  0
LINE
  8
_0-8_笠木他
  6
CONTINUOUS
 62
    4
 10
944.295628299692
 20
784.65324242381712
 11
944.295628299692
 21
795.95444242381518
  0
LINE
  8
_0-8_笠木他
  6
CONTINUOUS
 62
    4
 10
944.295628299692
 20
795.95444242381518
 11
959.295628299692
 21
796.21644242381535
  0
LINE
  8
_0-8_笠木他
  6
CENTER2
 62
    4
 10
1055.297628299686
 20
693.30404242381292
 11
1056.2976282996851
 21
692.30404242381383
  0
LINE
  8
_0-8_笠木他
  6
CENTER2
 62
    4
 10
1056.2976282996851
 20
692.30404242381383
 11
1062.2976282996842
 21
692.30404242381383
  0
LINE
  8
_0-8_笠木他
  6
CENTER2
 62
    4
 10
1062.2976282996842
 20
692.30404242381383
 11
1063.2956282996838
 21
693.30404242381292
  0
LINE
  8
_0-8_笠木他
  6
CONTINUOUS
 62
    4
 10
959.2976282996915
 20
671.30204242381296
 11
968.62162829968838
 21
680.62804242381389
  0
LINE
  8
_0-8_笠木他
  6
CONTINUOUS
 62
    4
 10
919.29522829968846
 20
792.30484242381635
 11
944.295628299692
 21
792.74024242381529
  0
LINE
  8
_0-8_笠木他
  6
CONTINUOUS
 62
    4
 10
919.29522829968846
 20
670.30404242381337
 11
919.29522829968846
 21
792.30484242381635
  0
LINE
  8
_0-8_笠木他
  6
CONTINUOUS
 62
    4
 10
951.33162829969024
 20
669.74604242381474
 11
919.29522829968846
 21
670.30404242381337
  0
ARC
  8
_0-8_笠木他
  6
CONTINUOUS
 62
    4
 10
951.14886229969215
 20
667.60008442381377
 40
2.1531359999999999
 50
3.8270599999999813
 51
85.117989000000009
  0
LINE
  8
_0-8_笠木他
  6
CONTINUOUS
 62
    4
 10
953.29762829968786
 20
666.56604242381491
 11
953.29762829968786
 21
784.49604242381611
  0
LINE
  8
_0-8_笠木他
  6
CONTINUOUS
 62
    4
 10
1065.0356282996836
 20
675.30204242381387
 11
1065.2956282996865
 21
690.30204242381387
  0
LINE
  8
_0-8_笠木他
  6
CONTINUOUS
 62
    4
 10
1053.5596282996858
 20
675.30204242381387
 11
1065.0356282996836
 21
675.30204242381387
  0
LINE
  8
_0-8_笠木他
  6
CONTINUOUS
 62
    4
 10
1053.2956282996838
 20
690.30204242381387
 11
1053.5596282996858
 21
675.30204242381387
  0
LINE
  8
_0-8_笠木他
  6
CONTINUOUS
 62
    4
 10
1014.295628299692
 20
670.30404242381337
 11
1013.6576282996884
 21
682.51204242381391
  0
LINE
  8
_0-8_笠木他
  6
CONTINUOUS
 62
    4
 10
1024.295628299692
 20
670.30404242381337
 11
1014.295628299692
 21
670.30404242381337
  0
LINE
  8
_0-8_笠木他
  6
CONTINUOUS
 62
    4
 10
1025.0236282996912
 20
684.17004242381381
 11
1024.295628299692
 21
670.30404242381337
  0
LINE
  8
_0-8_笠木他
  6
CONTINUOUS
 62
    4
 10
956.29562829969018
 20
666.30404242381474
 11
953.29762829968786
 21
666.56604242381491
  0
LINE
  8
_0-8_笠木他
  6
CONTINUOUS
 62
    4
 10
1061.3976282996873
 20
690.59204242381384
 11
1061.3976282996873
 21
681.14204242381447
  0
LINE
  8
_0-8_笠木他
  6
CONTINUOUS
 62
    4
 10
1057.1956282996871
 20
690.59204242381384
 11
1057.1956282996871
 21
681.14204242381447
  0
LINE
  8
_0-8_笠木他
  6
CONTINUOUS
 62
    4
 10
1063.2356282996852
 20
693.21604242381454
 11
1061.3976282996873
 21
690.59204242381384
  0
LINE
  8
_0-8_笠木他
  6
CONTINUOUS
 62
    4
 10
1063.2356282996852
 20
693.21604242381454
 11
1059.2976282996869
 21
693.21604242381454
  0
LINE
  8
_0-8_笠木他
  6
CONTINUOUS
 62
    4
 10
1061.3976282996873
 20
690.59204242381384
 11
1057.1956282996871
 21
690.59204242381384
  0
LINE
  8
_0-8_笠木他
  6
CONTINUOUS
 62
    4
 10
1055.3616282996836
 20
693.21604242381454
 11
1057.1956282996871
 21
690.59204242381384
  0
LINE
  8
_0-8_笠木他
  6
CONTINUOUS
 62
    4
 10
1055.3616282996836
 20
693.21604242381454
 11
1059.2976282996869
 21
693.21604242381454
  0
LINE
  8
_0-8_笠木他
  6
CONTINUOUS
 62
    4
 10
1059.7176282996861
 20
693.21604242381454
 11
1059.7176282996861
 21
690.59204242381384
  0
LINE
  8
_0-8_笠木他
  6
CONTINUOUS
 62
    4
 10
1058.8776282996832
 20
693.21604242381454
 11
1058.8776282996832
 21
690.59204242381384
  0
LINE
  8
_0-8_笠木他
  6
CONTINUOUS
 62
    4
 10
1060.873628299687
 20
636.09404242381288
 11
1060.873628299687
 21
680.61404242381286
  0
LINE
  8
_0-8_笠木他
  6
CONTINUOUS
 62
    4
 10
1059.2976282996869
 20
633.36404242381377
 11
1060.873628299687
 21
636.09404242381288
  0
LINE
  8
_0-8_笠木他
  6
CONTINUOUS
 62
    4
 10
1061.3976282996873
 20
681.14204242381447
 11
1060.873628299687
 21
680.61404242381286
  0
LINE
  8
_0-8_笠木他
  6
CONTINUOUS
 62
    4
 10
1057.7236282996864
 20
636.09404242381288
 11
1057.7236282996864
 21
680.61404242381286
  0
LINE
  8
_0-8_笠木他
  6
CONTINUOUS
 62
    4
 10
1059.2976282996869
 20
633.36404242381377
 11
1057.7236282996864
 21
636.09404242381288
  0
LINE
  8
_0-8_笠木他
  6
CONTINUOUS
 62
    4
 10
1057.1956282996871
 20
681.14204242381447
 11
1057.7236282996864
 21
680.61404242381286
  0
LINE
  8
_0-8_笠木他
  6
CONTINUOUS
 62
    4
 10
1057.7236282996864
 20
655.84404242381424
 11
1060.873628299687
 21
657.66404242381441
  0
LINE
  8
_0-8_笠木他
  6
CONTINUOUS
 62
    4
 10
1057.7236282996864
 20
658.27004242381463
 11
1060.873628299687
 21
660.08604242381352
  0
LINE
  8
_0-8_笠木他
  6
CONTINUOUS
 62
    4
 10
1057.7236282996864
 20
660.69204242381375
 11
1060.873628299687
 21
662.51004242381441
  0
LINE
  8
_0-8_笠木他
  6
CONTINUOUS
 62
    4
 10
1057.7236282996864
 20
663.11604242381463
 11
1060.873628299687
 21
664.9360424238148
  0
LINE
  8
_0-8_笠木他
  6
CONTINUOUS
 62
    4
 10
1057.7236282996864
 20
665.54204242381502
 11
1060.873628299687
 21
667.36204242381291
  0
LINE
  8
_0-8_笠木他
  6
CONTINUOUS
 62
    4
 10
1057.7236282996864
 20
667.96804242381313
 11
1060.873628299687
 21
669.7860424238138
  0
LINE
  8
_0-8_笠木他
  6
CONTINUOUS
 62
    4
 10
1057.7236282996864
 20
670.39404242381352
 11
1060.873628299687
 21
672.21204242381418
  0
LINE
  8
_0-8_笠木他
  6
CONTINUOUS
 62
    4
 10
1057.7236282996864
 20
672.8180424238144
 11
1060.873628299687
 21
674.63804242381457
  0
LINE
  8
_0-8_笠木他
  6
CONTINUOUS
 62
    4
 10
1057.7236282996864
 20
675.24404242381479
 11
1060.873628299687
 21
677.06204242381318
  0
LINE
  8
_0-8_笠木他
  6
CONTINUOUS
 62
    4
 10
1057.7236282996864
 20
677.66604242381391
 11
1060.873628299687
 21
679.48404242381457
  0
LINE
  8
_0-8_笠木他
  6
CONTINUOUS
 62
    4
 10
1057.7236282996864
 20
643.71804242381359
 11
1060.873628299687
 21
645.53604242381425
  0
LINE
  8
_0-8_笠木他
  6
CONTINUOUS
 62
    4
 10
1057.7236282996864
 20
646.14204242381447
 11
1060.873628299687
 21
647.96204242381464
  0
LINE
  8
_0-8_笠木他
  6
CONTINUOUS
 62
    4
 10
1057.7236282996864
 20
648.56804242381486
 11
1060.873628299687
 21
650.38804242381502
  0
LINE
  8
_0-8_笠木他
  6
CONTINUOUS
 62
    4
 10
1057.7236282996864
 20
650.99404242381297
 11
1060.873628299687
 21
652.81204242381364
  0
LINE
  8
_0-8_笠木他
  6
CONTINUOUS
 62
    4
 10
1057.7236282996864
 20
653.41804242381386
 11
1060.873628299687
 21
655.23804242381402
  0
LINE
  8
_0-8_笠木他
  6
CONTINUOUS
 62
    4
 10
1057.7236282996864
 20
636.4440424238137
 11
1060.873628299687
 21
638.26404242381386
  0
LINE
  8
_0-8_笠木他
  6
CONTINUOUS
 62
    4
 10
1057.7236282996864
 20
638.87004242381408
 11
1060.873628299687
 21
640.69004242381425
  0
LINE
  8
_0-8_笠木他
  6
CONTINUOUS
 62
    4
 10
1057.7236282996864
 20
641.2920424238132
 11
1060.873628299687
 21
643.11204242381336
  0
LINE
  8
_0-8_笠木他
  6
CONTINUOUS
 62
    4
 10
959.67162829968856
 20
788.20304242381553
 11
950.22362829969097
 21
788.20304242381553
  0
LINE
  8
_0-8_笠木他
  6
CONTINUOUS
 62
    4
 10
959.67162829968856
 20
792.40324242381575
 11
950.22362829969097
 21
792.40324242381575
  0
LINE
  8
_0-8_笠木他
  6
CONTINUOUS
 62
    4
 10
962.29762829968877
 20
786.36604242381509
 11
959.67162829968856
 21
788.20304242381553
  0
LINE
  8
_0-8_笠木他
  6
CONTINUOUS
 62
    4
 10
962.29762829968877
 20
786.36604242381509
 11
962.29762829968877
 21
790.30384242381615
  0
LINE
  8
_0-8_笠木他
  6
CONTINUOUS
 62
    4
 10
959.67162829968856
 20
788.20304242381553
 11
959.67162829968856
 21
792.40324242381575
  0
LINE
  8
_0-8_笠木他
  6
CONTINUOUS
 62
    4
 10
962.29762829968877
 20
794.24084242381696
 11
959.67162829968856
 21
792.40324242381575
  0
LINE
  8
_0-8_笠木他
  6
CONTINUOUS
 62
    4
 10
962.29762829968877
 20
794.24084242381696
 11
962.29762829968877
 21
790.30384242381615
  0
LINE
  8
_0-8_笠木他
  6
CONTINUOUS
 62
    4
 10
962.29762829968877
 20
789.88344242381572
 11
959.67162829968856
 21
789.88344242381572
  0
LINE
  8
_0-8_笠木他
  6
CONTINUOUS
 62
    4
 10
962.29762829968877
 20
790.72344242381632
 11
959.67162829968856
 21
790.72344242381632
  0
LINE
  8
_0-8_笠木他
  6
CONTINUOUS
 62
    4
 10
905.17442829968786
 20
788.72864242381411
 11
949.69762829969113
 21
788.72864242381411
  0
LINE
  8
_0-8_笠木他
  6
CONTINUOUS
 62
    4
 10
902.44582829969204
 20
790.30384242381615
 11
905.17442829968786
 21
788.72864242381411
  0
LINE
  8
_0-8_笠木他
  6
CONTINUOUS
 62
    4
 10
950.22362829969097
 20
788.20304242381553
 11
949.69762829969113
 21
788.72864242381411
  0
LINE
  8
_0-8_笠木他
  6
CONTINUOUS
 62
    4
 10
905.17442829968786
 20
791.87824242381566
 11
949.69762829969113
 21
791.87824242381566
  0
LINE
  8
_0-8_笠木他
  6
CONTINUOUS
 62
    4
 10
902.44582829969204
 20
790.30384242381615
 11
905.17442829968786
 21
791.87824242381566
  0
LINE
  8
_0-8_笠木他
  6
CONTINUOUS
 62
    4
 10
950.22362829969097
 20
792.40324242381575
 11
949.69762829969113
 21
791.87824242381566
  0
LINE
  8
_0-8_笠木他
  6
CONTINUOUS
 62
    4
 10
924.92462829969099
 20
791.87824242381566
 11
926.74362829969141
 21
788.72864242381411
  0
LINE
  8
_0-8_笠木他
  6
CONTINUOUS
 62
    4
 10
927.35002829968835
 20
791.87824242381566
 11
929.16762829968775
 21
788.72864242381411
  0
LINE
  8
_0-8_笠木他
  6
CONTINUOUS
 62
    4
 10
929.77522829969075
 20
791.87824242381566
 11
931.59302829968965
 21
788.72864242381411
  0
LINE
  8
_0-8_笠木他
  6
CONTINUOUS
 62
    4
 10
932.19922829969164
 20
791.87824242381566
 11
934.01702829969054
 21
788.72864242381411
  0
LINE
  8
_0-8_笠木他
  6
CONTINUOUS
 62
    4
 10
934.62322829968798
 20
791.87824242381566
 11
936.4422282996884
 21
788.72864242381411
  0
LINE
  8
_0-8_笠木他
  6
CONTINUOUS
 62
    4
 10
937.04862829968988
 20
791.87824242381566
 11
938.8676282996903
 21
788.72864242381411
  0
LINE
  8
_0-8_笠木他
  6
CONTINUOUS
 62
    4
 10
939.47402829969178
 20
791.87824242381566
 11
941.29302829968765
 21
788.72864242381411
  0
LINE
  8
_0-8_笠木他
  6
CONTINUOUS
 62
    4
 10
941.89942829968913
 20
791.87824242381566
 11
943.71842829968955
 21
788.72864242381411
  0
LINE
  8
_0-8_笠木他
  6
CONTINUOUS
 62
    4
 10
944.32562829968901
 20
791.87824242381566
 11
946.14362829969195
 21
788.72864242381411
  0
LINE
  8
_0-8_笠木他
  6
CONTINUOUS
 62
    4
 10
946.7476282996904
 20
791.87824242381566
 11
948.56762829968829
 21
788.72864242381411
  0
LINE
  8
_0-8_笠木他
  6
CONTINUOUS
 62
    4
 10
912.79982829968958
 20
791.87824242381566
 11
914.61882829968999
 21
788.72864242381411
  0
LINE
  8
_0-8_笠木他
  6
CONTINUOUS
 62
    4
 10
915.22522829969148
 20
791.87824242381566
 11
917.04222829968785
 21
788.72864242381411
  0
LINE
  8
_0-8_笠木他
  6
CONTINUOUS
 62
    4
 10
917.64842829968984
 20
791.87824242381566
 11
919.46742829969025
 21
788.72864242381411
  0
LINE
  8
_0-8_笠木他
  6
CONTINUOUS
 62
    4
 10
920.07382829969174
 20
791.87824242381566
 11
921.89282829969216
 21
788.72864242381411
  0
LINE
  8
_0-8_笠木他
  6
CONTINUOUS
 62
    4
 10
922.49922829968909
 20
791.87824242381566
 11
924.31822829968951
 21
788.72864242381411
  0
LINE
  8
_0-8_笠木他
  6
CONTINUOUS
 62
    4
 10
905.52582829969197
 20
791.87824242381566
 11
907.34482829968783
 21
788.72864242381411
  0
LINE
  8
_0-8_笠木他
  6
CONTINUOUS
 62
    4
 10
907.95122829968932
 20
791.87824242381566
 11
909.77022829968973
 21
788.72864242381411
  0
LINE
  8
_0-8_笠木他
  6
CONTINUOUS
 62
    4
 10
910.37442829968768
 20
791.87824242381566
 11
912.19562829969163
 21
788.72864242381411
  0
LINE
  8
_0-8_笠木他
  6
CONTINUOUS
 62
    4
 10
1017.2976282996888
 20
681.94804242381451
 11
1021.2996282996892
 21
681.94804242381451
  0
LINE
  8
_0-8_笠木他
  6
CONTINUOUS
 62
    4
 10
1017.2976282996888
 20
681.94804242381451
 11
1017.7996282996901
 21
681.54804242381488
  0
LINE
  8
_0-8_笠木他
  6
CONTINUOUS
 62
    4
 10
1017.7996282996901
 20
681.54804242381488
 11
1020.7956282996884
 21
681.54804242381488
  0
LINE
  8
_0-8_笠木他
  6
CONTINUOUS
 62
    4
 10
1020.7956282996884
 20
681.54804242381488
 11
1021.2996282996892
 21
681.94804242381451
  0
LINE
  8
_0-8_笠木他
  6
DASHED1
 62
    4
 10
919.29522829968846
 20
674.80204242381433
 11
949.295628299692
 21
675.74004242381307
  0
LINE
  8
_0-8_笠木他
  6
DASHED1
 62
    4
 10
949.295628299692
 20
675.74004242381307
 11
949.295628299692
 21
786.86624242381413
  0
LINE
  8
_0-8_笠木他
  6
DASHED1
 62
    4
 10
949.295628299692
 20
786.86624242381413
 11
919.29522829968846
 21
787.80344242381716
  0
LINE
  8
_0-8_笠木他
  6
DASHED1
 62
    4
 10
919.29522829968846
 20
785.30424242381514
 11
954.295628299692
 21
783.46944242381596
  0
LINE
  8
_0-8_笠木他
  6
DASHED1
 62
    4
 10
954.295628299692
 20
783.46944242381596
 11
954.295628299692
 21
679.13604242381325
  0
LINE
  8
_0-8_笠木他
  6
DASHED1
 62
    4
 10
954.295628299692
 20
679.13604242381325
 11
919.29522829968846
 21
677.30404242381383
  0
LINE
  8
_0-8_笠木他
  6
DASHED1
 62
    4
 10
954.295628299692
 20
681.65204242381378
 11
966.76562829969043
 21
682.30204242381433
  0
LINE
  8
_0-8_笠木他
  6
DASHED1
 62
    4
 10
1024.295628299692
 20
693.30404242381292
 11
1024.6736282996881
 21
686.14004242381498
  0
LINE
  8
_0-8_笠木他
  6
DASHED1
 62
    4
 10
1013.8376282996887
 20
684.54204242381365
 11
1014.295628299692
 21
693.30404242381292
  0
LINE
  8
_0-8_笠木他
  6
DASHED1
 62
    4
 10
919.29602829969099
 20
786.94204242381602
 11
919.29602829969099
 21
675.66004242381496
  0
LINE
  8
_0-8_笠木他
  6
DASHED1
 62
    4
 10
921.02542829969025
 20
677.45204242381533
 11
919.29602829969099
 21
675.66004242381496
  0
LINE
  8
_0-8_笠木他
  6
DASHED1
 62
    4
 10
921.02542829969025
 20
785.15744242381743
 11
919.29602829969099
 21
786.94204242381602
  0
LINE
  8
_0-8_笠木他
  6
DASHED1
 62
    4
 10
946.51162829969053
 20
785.27264242381762
 11
945.52762829969197
 21
784.30104242381503
  0
LINE
  8
_0-8_笠木他
  6
DASHED1
 62
    4
 10
947.55562829969222
 20
784.22864242381593
 11
946.51162829969053
 21
785.27264242381762
  0
LINE
  8
_0-8_笠木他
  6
DASHED1
 62
    4
 10
944.48162829969078
 20
785.34484242381723
 11
943.49722829968869
 21
784.37544242381591
  0
LINE
  8
_0-8_笠木他
  6
DASHED1
 62
    4
 10
945.52762829969197
 20
784.30104242381503
 11
944.48162829969078
 21
785.34484242381723
  0
LINE
  8
_0-8_笠木他
  6
DASHED1
 62
    4
 10
946.52162829968802
 20
677.33404242381539
 11
945.53762829968946
 21
678.30604242381469
  0
LINE
  8
_0-8_笠木他
  6
DASHED1
 62
    4
 10
947.56562829968971
 20
678.3780424238148
 11
946.52162829968802
 21
677.33404242381539
  0
LINE
  8
_0-8_笠木他
  6
DASHED1
 62
    4
 10
944.49362829969232
 20
677.26204242381527
 11
943.50962829968921
 21
678.23404242381457
  0
LINE
  8
_0-8_笠木他
  6
DASHED1
 62
    4
 10
945.53762829968946
 20
678.30604242381469
 11
944.49362829969232
 21
677.26204242381527
  0
LINE
  8
_0-8_笠木他
  6
DASHED1
 62
    4
 10
942.46362829968803
 20
677.19004242381516
 11
941.48242829969149
 21
678.16204242381446
  0
LINE
  8
_0-8_笠木他
  6
DASHED1
 62
    4
 10
943.50962829968921
 20
678.23404242381457
 11
942.46362829968803
 21
677.19004242381516
  0
LINE
  8
_0-8_笠木他
  6
DASHED1
 62
    4
 10
940.4366282996898
 20
677.11804242381504
 11
939.45262829969124
 21
678.08804242381484
  0
LINE
  8
_0-8_笠木他
  6
DASHED1
 62
    4
 10
941.48242829969149
 20
678.16204242381446
 11
940.4366282996898
 21
677.11804242381504
  0
LINE
  8
_0-8_笠木他
  6
DASHED1
 62
    4
 10
938.40942829969208
 20
677.04604242381492
 11
937.424228299692
 21
678.01804242381422
  0
LINE
  8
_0-8_笠木他
  6
DASHED1
 62
    4
 10
939.45262829969124
 20
678.08804242381484
 11
938.40942829969208
 21
677.04604242381492
  0
LINE
  8
_0-8_笠木他
  6
DASHED1
 62
    4
 10
936.37962829969183
 20
676.97204242381531
 11
935.39702829968974
 21
677.94404242381461
  0
LINE
  8
_0-8_笠木他
  6
DASHED1
 62
    4
 10
937.424228299692
 20
678.01804242381422
 11
936.37962829969183
 21
676.97204242381531
  0
LINE
  8
_0-8_笠木他
  6
DASHED1
 62
    4
 10
934.35102829968855
 20
676.90004242381519
 11
933.3686282996905
 21
677.87204242381449
  0
LINE
  8
_0-8_笠木他
  6
DASHED1
 62
    4
 10
935.39702829968974
 20
677.94404242381461
 11
934.35102829968855
 21
676.90004242381519
  0
LINE
  8
_0-8_笠木他
  6
DASHED1
 62
    4
 10
932.32402829969033
 20
676.82804242381508
 11
931.34002829969177
 21
677.80004242381438
  0
LINE
  8
_0-8_笠木他
  6
DASHED1
 62
    4
 10
933.3686282996905
 20
677.87204242381449
 11
932.32402829969033
 21
676.82804242381508
  0
LINE
  8
_0-8_笠木他
  6
DASHED1
 62
    4
 10
930.29542829969159
 20
676.75604242381496
 11
929.31022829969152
 21
677.72804242381426
  0
LINE
  8
_0-8_笠木他
  6
DASHED1
 62
    4
 10
931.34002829969177
 20
677.80004242381438
 11
930.29542829969159
 21
676.75604242381496
  0
LINE
  8
_0-8_笠木他
  6
DASHED1
 62
    4
 10
928.26702829969236
 20
676.68404242381484
 11
927.28182829969228
 21
677.65404242381464
  0
LINE
  8
_0-8_笠木他
  6
DASHED1
 62
    4
 10
929.31022829969152
 20
677.72804242381426
 11
928.26702829969236
 21
676.68404242381484
  0
LINE
  8
_0-8_笠木他
  6
DASHED1
 62
    4
 10
926.23722829969211
 20
676.61204242381473
 11
925.25182829968799
 21
677.58404242381403
  0
LINE
  8
_0-8_笠木他
  6
DASHED1
 62
    4
 10
927.28182829969228
 20
677.65404242381464
 11
926.23722829969211
 21
676.61204242381473
  0
LINE
  8
_0-8_笠木他
  6
DASHED1
 62
    4
 10
924.20862829968883
 20
676.53804242381511
 11
923.22622829969077
 21
677.51004242381441
  0
LINE
  8
_0-8_笠木他
  6
DASHED1
 62
    4
 10
925.25182829968799
 20
677.58404242381403
 11
924.20862829968883
 21
676.53804242381511
  0
LINE
  8
_0-8_笠木他
  6
DASHED1
 62
    4
 10
922.18302829969161
 20
676.466042423815
 11
921.19762829969204
 21
677.4340424238153
  0
LINE
  8
_0-8_笠木他
  6
DASHED1
 62
    4
 10
923.22622829969077
 20
677.51004242381441
 11
922.18302829969161
 21
676.466042423815
  0
LINE
  8
_0-8_笠木他
  6
DASHED1
 62
    4
 10
942.45402829968953
 20
785.41724242381633
 11
941.47002829969097
 21
784.44784242381729
  0
LINE
  8
_0-8_笠木他
  6
DASHED1
 62
    4
 10
943.49722829968869
 20
784.37544242381591
 11
942.45402829968953
 21
785.41724242381633
  0
LINE
  8
_0-8_笠木他
  6
DASHED1
 62
    4
 10
940.42422829968928
 20
785.48964242381544
 11
939.44302829968819
 21
784.5202424238164
  0
LINE
  8
_0-8_笠木他
  6
DASHED1
 62
    4
 10
941.47002829969097
 20
784.44784242381729
 11
940.42422829968928
 21
785.48964242381544
  0
LINE
  8
_0-8_笠木他
  6
DASHED1
 62
    4
 10
938.39702829969156
 20
785.56204242381455
 11
937.41322829968794
 21
784.59244242381601
  0
LINE
  8
_0-8_笠木他
  6
DASHED1
 62
    4
 10
939.44302829968819
 20
784.5202424238164
 11
938.39702829969156
 21
785.56204242381455
  0
LINE
  8
_0-8_笠木他
  6
DASHED1
 62
    4
 10
936.37002829968878
 20
785.63424242381643
 11
935.38462829968921
 21
784.66484242381512
  0
LINE
  8
_0-8_笠木他
  6
DASHED1
 62
    4
 10
937.41322829968794
 20
784.59244242381601
 11
936.37002829968878
 21
785.63424242381643
  0
LINE
  8
_0-8_笠木他
  6
DASHED1
 62
    4
 10
934.34002829968904
 20
785.7088424238168
 11
933.35482829968896
 21
784.7372424238165
  0
LINE
  8
_0-8_笠木他
  6
DASHED1
 62
    4
 10
935.38462829968921
 20
784.66484242381512
 11
934.34002829968904
 21
785.7088424238168
  0
LINE
  8
_0-8_笠木他
  6
DASHED1
 62
    4
 10
932.3116282996898
 20
785.78104242381642
 11
931.32762829969124
 21
784.8096424238156
  0
LINE
  8
_0-8_笠木他
  6
DASHED1
 62
    4
 10
933.35482829968896
 20
784.7372424238165
 11
932.3116282996898
 21
785.78104242381642
  0
LINE
  8
_0-8_笠木他
  6
DASHED1
 62
    4
 10
930.28442829969208
 20
785.85344242381552
 11
929.30062829968847
 21
784.88184242381749
  0
LINE
  8
_0-8_笠木他
  6
DASHED1
 62
    4
 10
931.32762829969124
 20
784.8096424238156
 11
930.28442829969208
 21
785.85344242381552
  0
LINE
  8
_0-8_笠木他
  6
DASHED1
 62
    4
 10
928.2560282996883
 20
785.92584242381463
 11
927.27062829968872
 21
784.95424242381659
  0
LINE
  8
_0-8_笠木他
  6
DASHED1
 62
    4
 10
929.30062829968847
 20
784.88184242381749
 11
928.2560282996883
 21
785.92584242381463
  0
LINE
  8
_0-8_笠木他
  6
DASHED1
 62
    4
 10
926.22762829968906
 20
785.99804242381651
 11
925.24222829968949
 21
785.0266424238157
  0
LINE
  8
_0-8_笠木他
  6
DASHED1
 62
    4
 10
927.27062829968872
 20
784.95424242381659
 11
926.22762829968906
 21
785.99804242381651
  0
LINE
  8
_0-8_笠木他
  6
DASHED1
 62
    4
 10
924.19762829968931
 20
786.07044242381562
 11
923.21242829968924
 21
785.09904242381481
  0
LINE
  8
_0-8_笠木他
  6
DASHED1
 62
    4
 10
925.24222829968949
 20
785.0266424238157
 11
924.19762829968931
 21
786.07044242381562
  0
LINE
  8
_0-8_笠木他
  6
DASHED1
 62
    4
 10
922.16922829969008
 20
786.142842423817
 11
921.18662829968798
 21
785.17124242381442
  0
LINE
  8
_0-8_笠木他
  6
DASHED1
 62
    4
 10
923.21242829968924
 20
785.09904242381481
 11
922.16922829969008
 21
786.142842423817
  0
LINE
  8
_0-8_笠木他
  6
CONTINUOUS
 62
    3
 10
1079.2976282996869
 20
693.30204242381342
 11
1079.2976282996869
 21
690.30204242381387
  0
LINE
  8
_0-8_笠木他
  6
CONTINUOUS
 62
    3
 10
962.29562829968927
 20
815.30444242381463
 11
965.88162829968951
 21
712.60604242381305
  0
LINE
  8
_0-8_笠木他
  6
CONTINUOUS
 62
    3
 10
959.2976282996915
 20
815.30444242381463
 11
962.29562829968927
 21
815.30444242381463
  0
LINE
  8
_0-8_笠木他
  6
CONTINUOUS
 62
    3
 10
966.96562829969025
 20
682.57204242381476
 11
1004.4036282996876
 21
683.88004242381385
  0
LINE
  8
_0-8_笠木他
  6
CONTINUOUS
 62
    3
 10
965.88162829968951
 20
712.60604242381305
 11
966.93162829968969
 21
682.57204242381476
  0
ARC
  8
_0-8_笠木他
  6
CONTINUOUS
 62
    3
 10
999.69048629969166
 20
818.02579442381557
 40
136.227262
 50
272.01248399999997
 51
290.3512058080475
  0
LINE
  8
_0-8_笠木他
  6
CONTINUOUS
 62
    3
 10
1079.2976282996869
 20
690.30204242381387
 11
1047.0667470962007
 21
690.30204242381387
  0
ARC
  8
_0-8_笠木他
  6
CONTINUOUS
 62
    3
 10
999.65438029968936
 20
818.15962042381443
 40
134.36284800000004
 50
272.02554500000002
 51
291.68075553206239
  0
LINE
  8
_0-8_笠木他
  6
CONTINUOUS
 62
    3
 10
1079.2976282996869
 20
693.30204242381342
 11
1049.2926733670856
 21
693.30204242381342
  0
ARC
  8
_0-8_笠木他
  6
CONTINUOUS
 62
    4
 10
986.58949229969039
 20
714.04810442381404
 40
20.757428000000001
 50
183.98347799999996
 51
268.01577899999995
  0
LINE
  8
_0-8_笠木他
  6
CONTINUOUS
 62
    4
 10
1049.2926733670856
 20
693.30204242381342
 11
985.73162829969078
 21
693.30204242381342
  0
LINE
  8
_0-8_笠木他
  6
CONTINUOUS
 62
    4
 10
959.2976282996915
 20
803.3036424238162
 11
956.29562829969018
 21
803.3036424238162
  0
LINE
  8
_0-8_笠木他
  6
CONTINUOUS
 62
    4
 10
956.29562829969018
 20
803.3036424238162
 11
956.29562829969018
 21
796.16404242381577
  0
LINE
  8
_0-8_笠木他
  6
CONTINUOUS
 62
    4
 10
956.29562829969018
 20
784.44364242381425
 11
956.29562829969018
 21
659.30404242381428
  0
LINE
  8
_0-8_笠木他
  6
CONTINUOUS
 62
    3
 10
959.2976282996915
 20
680.30404242381337
 11
959.2976282996915
 21
815.30444242381463
  0
LINE
  8
_0-8_笠木他
  6
CONTINUOUS
 62
    3
 10
959.2976282996915
 20
680.30404242381337
 11
1004.4736282996882
 21
681.88204242381289
  0
LINE
  8
_0-8_笠木他
  6
CONTINUOUS
 62
    4
 10
956.29562829969018
 20
659.30404242381428
 11
959.2976282996915
 21
659.30404242381428
  0
LINE
  8
_0-8_笠木他
  6
CONTINUOUS
 62
    4
 10
959.2976282996915
 20
659.30404242381428
 11
959.2976282996915
 21
680.30404242381337
  0
LINE
  8
_0-2_線色２__白__
  6
CONTINUOUS
 62
    7
 10
1033.7314287375057
 20
693.36578457499627
 11
1027.8866581157672
 21
691.76576476004584
  0
LINE
  8
_0-2_線色２__白__
  6
CONTINUOUS
 62
    7
 10
1027.8804445938158
 20
691.7486799261178
 11
1027.7492039659228
 21
691.45060712732629
  0
LINE
  8
_0-2_線色２__白__
  6
CONTINUOUS
 62
    7
 10
1027.7492039659228
 20
691.45060712732629
 11
1027.6626281790323
 21
691.28253032599105
  0
LINE
  8
_0-2_線色２__白__
  6
CONTINUOUS
 62
    7
 10
1027.6626281790323
 20
691.28253032599105
 11
1027.6304905629377
 21
691.22489442255755
  0
LINE
  8
_0-2_線色２__白__
  6
CONTINUOUS
 62
    7
 10
1027.6304905629377
 20
691.22489442255755
 11
1027.5726406971262
 21
691.12679342119463
  0
LINE
  8
_0-2_線色２__白__
  6
CONTINUOUS
 62
    7
 10
1027.5726406971262
 20
691.12679342119463
 11
1027.5117045588604
 21
691.03048616945898
  0
LINE
  8
_0-2_線色２__白__
  6
CONTINUOUS
 62
    7
 10
1027.5117045588604
 20
691.03048616945898
 11
1027.447685132588
 21
690.93618729240688
  0
LINE
  8
_0-2_線色２__白__
  6
CONTINUOUS
 62
    7
 10
1027.447685132588
 20
690.93618729240688
 11
1027.3805854027751
 21
690.84411141509918
  0
LINE
  8
_0-2_線色２__白__
  6
CONTINUOUS
 62
    7
 10
1027.3805854027751
 20
690.84411141509918
 11
1027.3104083538783
 21
690.7544731625967
  0
LINE
  8
_0-2_線色２__白__
  6
CONTINUOUS
 62
    7
 10
1027.3104083538783
 20
690.7544731625967
 11
1027.2682968139497
 21
690.70368446926295
  0
LINE
  8
_0-2_線色２__白__
  6
CONTINUOUS
 62
    7
 10
1027.2682968139497
 20
690.70368446926295
 11
1027.1975306390004
 21
690.62283779657946
  0
LINE
  8
_0-2_線色２__白__
  6
CONTINUOUS
 62
    7
 10
1027.1975306390004
 20
690.62283779657946
 11
1027.0704097522457
 21
690.48807752546054
  0
LINE
  8
_0-2_線色２__白__
  6
CONTINUOUS
 62
    7
 10
1027.0704097522457
 20
690.48807752546054
 11
1026.9388406944063
 21
690.35737150071782
  0
LINE
  8
_0-2_線色２__白__
  6
CONTINUOUS
 62
    7
 10
1026.9388406944063
 20
690.35737150071782
 11
1026.8051728695582
 21
690.22861832521585
  0
LINE
  8
_0-2_線色２__白__
  6
CONTINUOUS
 62
    7
 10
1026.8051728695582
 20
690.22861832521585
 11
1026.6717556817821
 21
690.09971660182373
  0
LINE
  8
_0-2_線色２__白__
  6
CONTINUOUS
 62
    7
 10
1026.6717556817821
 20
690.09971660182373
 11
1026.5409385351586
 21
689.96856493339919
  0
LINE
  8
_0-2_線色２__白__
  6
CONTINUOUS
 62
    7
 10
1026.5409385351586
 20
689.96856493339919
 11
1026.4671817163435
 21
689.89063798115694
  0
LINE
  8
_0-2_線色２__白__
  6
CONTINUOUS
 62
    7
 10
1026.4671817163435
 20
689.89063798115694
 11
1026.3937246970727
 21
689.80897995192663
  0
LINE
  8
_0-2_線色２__白__
  6
CONTINUOUS
 62
    7
 10
1026.3937246970727
 20
689.80897995192663
 11
1026.2717002403269
 21
689.66411836053794
  0
LINE
  8
_0-2_線色２__白__
  6
CONTINUOUS
 62
    7
 10
1026.2717002403269
 20
689.66411836053794
 11
1026.1546150649792
 21
689.51492580107697
  0
LINE
  8
_0-2_線色２__白__
  6
CONTINUOUS
 62
    7
 10
1026.1546150649792
 20
689.51492580107697
 11
1026.041404195812
 21
689.36235961978127
  0
LINE
  8
_0-2_線色２__白__
  6
CONTINUOUS
 62
    7
 10
1026.041404195812
 20
689.36235961978127
 11
1025.9310026576077
 21
689.20737716289068
  0
LINE
  8
_0-2_線色２__白__
  6
CONTINUOUS
 62
    7
 10
1025.9310026576077
 20
689.20737716289068
 11
1025.8223454751396
 21
689.05093577664729
  0
LINE
  8
_0-2_線色２__白__
  6
CONTINUOUS
 62
    7
 10
1025.8223454751396
 20
689.05093577664729
 11
1025.759703917488
 21
688.95990853539615
  0
LINE
  8
_0-2_線色２__白__
  6
CONTINUOUS
 62
    7
 10
1025.759703917488
 20
688.95990853539615
 11
1025.6812443623267
 21
688.84565717569558
  0
LINE
  8
_0-2_線色２__白__
  6
CONTINUOUS
 62
    7
 10
1025.6812443623267
 20
688.84565717569558
 11
1025.5470629167439
 21
688.648135614701
  0
LINE
  8
_0-2_線色２__白__
  6
CONTINUOUS
 62
    7
 10
1025.5470629167439
 20
688.648135614701
 11
1025.4158033939348
 21
688.44902297297267
  0
LINE
  8
_0-2_線色２__白__
  6
CONTINUOUS
 62
    7
 10
1025.4158033939348
 20
688.44902297297267
 11
1025.2892536500804
 21
688.24725876226239
  0
LINE
  8
_0-2_線色２__白__
  6
CONTINUOUS
 62
    7
 10
1025.2892536500804
 20
688.24725876226239
 11
1025.1692015413346
 21
688.0417824943197
  0
LINE
  8
_0-2_線色２__白__
  6
CONTINUOUS
 62
    7
 10
1025.1692015413346
 20
688.0417824943197
 11
1025.0574349238741
 21
687.83153368090098
  0
LINE
  8
_0-2_線色２__白__
  6
CONTINUOUS
 62
    7
 10
1025.0574349238741
 20
687.83153368090098
 11
1024.9971112061439
 21
687.70698470126263
  0
LINE
  8
_0-2_線色２__白__
  6
CONTINUOUS
 62
    7
 10
1024.9971112061439
 20
687.70698470126263
 11
1024.9636785696293
 21
687.63346076606695
  0
LINE
  8
_0-2_線色２__白__
  6
CONTINUOUS
 62
    7
 10
1024.9636785696293
 20
687.63346076606695
 11
1024.9093218450298
 21
687.50507987991796
  0
LINE
  8
_0-2_線色２__白__
  6
CONTINUOUS
 62
    7
 10
1024.9093218450298
 20
687.50507987991796
 11
1024.8595892842923
 21
687.37482492247864
  0
LINE
  8
_0-2_線色２__白__
  6
CONTINUOUS
 62
    7
 10
1024.8595892842923
 20
687.37482492247864
 11
1024.8150215663782
 21
687.24289454596374
  0
LINE
  8
_0-2_線色２__白__
  6
CONTINUOUS
 62
    7
 10
1024.8150215663782
 20
687.24289454596374
 11
1024.7761593702535
 21
687.10948740258345
  0
LINE
  8
_0-2_線色２__白__
  6
CONTINUOUS
 62
    7
 10
1024.7761593702535
 20
687.10948740258345
 11
1024.7435433748933
 21
686.97480214455709
  0
LINE
  8
_0-2_線色２__白__
  6
CONTINUOUS
 62
    7
 10
1024.7435433748933
 20
686.97480214455709
 11
1024.7277011623964
 21
686.89617734206877
  0
LINE
  8
_0-2_線色２__白__
  6
CONTINUOUS
 62
    7
 10
1024.7277011623964
 20
686.89617734206877
 11
1024.7094983176476
 21
686.78598474554292
  0
LINE
  8
_0-2_線色２__白__
  6
CONTINUOUS
 62
    7
 10
1024.7094983176476
 20
686.78598474554292
 11
1024.6877489625786
 21
686.59468909637326
  0
LINE
  8
_0-2_線色２__白__
  6
CONTINUOUS
 62
    7
 10
1024.6877489625786
 20
686.59468909637326
 11
1024.6762675847231
 21
686.40199905612235
  0
LINE
  8
_0-2_線色２__白__
  6
CONTINUOUS
 62
    7
 10
1024.6762675847231
 20
686.40199905612235
 11
1024.6728122676632
 21
686.2082190769911
  0
LINE
  8
_0-2_線色２__白__
  6
CONTINUOUS
 62
    7
 10
1027.8866581157672
 20
691.76576476004584
 11
1027.8804445938158
 21
691.7486799261178
  0
LINE
  8
_0-2_線色２__白__
  6
CONTINUOUS
 62
    7
 10
1024.6728122676632
 20
686.2082190769911
 11
1024.6736282996881
 21
686.14004242381498
  0
LINE
  8
_0-4_線色４__黄__
  6
CONTINUOUS
 62
    2
 10
1033.7314284788818
 20
693.36578551974526
 11
1035.0516165181534
 21
688.54322257707054
  0
ARC
  8
_0-4_線色４__黄__
  6
CONTINUOUS
 62
    2
 10
999.65438029968936
 20
818.15962042381443
 40
129.36284800000004
 50
285.27322171557347
 51
292.10094700608238
  0
LINE
  8
_0-8_笠木他
  6
DASHED1
 62
    4
 10
954.295628299692
 20
758.0982424238141
 11
964.2931417293039
 21
758.0982424238141
  0
LINE
  8
_0-8_笠木他
  6
DASHED1
 62
    4
 10
954.295628299692
 20
755.59844242381587
 11
964.38042919240161
 21
755.59844242381587
  0
LINE
  8
_0-8_笠木他
  6
DASHED1
 62
    4
 10
964.39789506528541
 20
755.09824242381683
 11
954.295628299692
 21
755.09824242381683
  0
LINE
  8
_0-2_線色２__白__
  6
CONTINUOUS
 62
    7
 10
968.90023930377538
 20
769.01353808340218
 11
969.11205428099493
 21
762.94691157977468
  0
LINE
  8
_0-2_線色２__白__
  6
CONTINUOUS
 62
    7
 10
964.40247440944859
 20
758.12797441122029
 11
964.2931417293039
 21
758.0982424238141
  0
LINE
  8
_0-2_線色２__白__
  6
CONTINUOUS
 62
    7
 10
964.59043428372297
 20
758.18040238301819
 11
964.40247440944859
 21
758.12797441122029
  0
LINE
  8
_0-2_線色２__白__
  6
CONTINUOUS
 62
    7
 10
964.77688097282225
 20
758.23606903412156
 11
964.59043428372297
 21
758.18040238301819
  0
LINE
  8
_0-2_線色２__白__
  6
CONTINUOUS
 62
    7
 10
964.96085676461917
 20
758.29702416155669
 11
964.77688097282225
 21
758.23606903412156
  0
LINE
  8
_0-2_線色２__白__
  6
CONTINUOUS
 62
    7
 10
965.14140394697733
 20
758.36531756235217
 11
964.96085676461917
 21
758.29702416155669
  0
LINE
  8
_0-2_線色２__白__
  6
CONTINUOUS
 62
    7
 10
965.31756480776494
 20
758.44299903353203
 11
965.14140394697733
 21
758.36531756235217
  0
LINE
  8
_0-2_線色２__白__
  6
CONTINUOUS
 62
    7
 10
965.41735090609563
 20
758.49316362728587
 11
965.31756480776494
 21
758.44299903353203
  0
LINE
  8
_0-2_線色２__白__
  6
CONTINUOUS
 62
    7
 10
965.48770125598367
 20
758.53168198048024
 11
965.41735090609563
 21
758.49316362728587
  0
LINE
  8
_0-2_線色２__白__
  6
CONTINUOUS
 62
    7
 10
965.60658235187475
 20
758.60289438757036
 11
965.48770125598367
 21
758.53168198048024
  0
LINE
  8
_0-2_線色２__白__
  6
CONTINUOUS
 62
    7
 10
965.72238475525864
 20
758.67968982729963
 11
965.60658235187475
 21
758.60289438757036
  0
LINE
  8
_0-2_線色２__白__
  6
CONTINUOUS
 62
    7
 10
965.83507968152844
 20
758.76149300157067
 11
965.72238475525864
 21
758.67968982729963
  0
LINE
  8
_0-2_線色２__白__
  6
CONTINUOUS
 62
    7
 10
965.94463834607723
 20
758.84772861229521
 11
965.83507968152844
 21
758.76149300157067
  0
LINE
  8
_0-2_線色２__白__
  6
CONTINUOUS
 62
    7
 10
966.05103196429809
 20
758.93782136138498
 11
965.94463834607723
 21
758.84772861229521
  0
LINE
  8
_0-2_線色２__白__
  6
CONTINUOUS
 62
    7
 10
966.11127869601205
 20
758.99161579928659
 11
966.05103196429809
 21
758.93782136138498
  0
LINE
  8
_0-2_線色２__白__
  6
CONTINUOUS
 62
    7
 10
966.2122385626617
 20
759.08626517633138
 11
966.11127869601205
 21
758.99161579928659
  0
LINE
  8
_0-2_線色２__白__
  6
CONTINUOUS
 62
    7
 10
966.37971094370641
 20
759.25552634113728
 11
966.2122385626617
 21
759.08626517633138
  0
LINE
  8
_0-2_線色２__白__
  6
CONTINUOUS
 62
    7
 10
966.54016170083196
 20
759.43127775660287
 11
966.37971094370641
 21
759.25552634113728
  0
LINE
  8
_0-2_線色２__白__
  6
CONTINUOUS
 62
    7
 10
966.69513524331705
 20
759.61212806907952
 11
966.54016170083196
 21
759.43127775660287
  0
LINE
  8
_0-2_線色２__白__
  6
CONTINUOUS
 62
    7
 10
966.84617598044497
 20
759.79668592491862
 11
966.69513524331705
 21
759.61212806907952
  0
LINE
  8
_0-2_線色２__白__
  6
CONTINUOUS
 62
    7
 10
966.99482832148078
 20
759.98355997047156
 11
966.84617598044497
 21
759.79668592491862
  0
LINE
  8
_0-2_線色２__白__
  6
CONTINUOUS
 62
    7
 10
967.08056089376896
 20
760.09245992933074
 11
966.99482832148078
 21
759.98355997047156
  0
LINE
  8
_0-2_線色２__白__
  6
CONTINUOUS
 62
    7
 10
967.14882755135477
 20
760.17934828790885
 11
967.08056089376896
 21
760.09245992933074
  0
LINE
  8
_0-2_線色２__白__
  6
CONTINUOUS
 62
    7
 10
967.26585455747681
 20
760.32963125590413
 11
967.14882755135477
 21
760.17934828790885
  0
LINE
  8
_0-2_線色２__白__
  6
CONTINUOUS
 62
    7
 10
967.3809697011211
 20
760.48114549709908
 11
967.26585455747681
 21
760.32963125590413
  0
LINE
  8
_0-2_線色２__白__
  6
CONTINUOUS
 62
    7
 10
967.49294212610494
 20
760.63462291112728
 11
967.3809697011211
 21
760.48114549709908
  0
LINE
  8
_0-2_線色２__白__
  6
CONTINUOUS
 62
    7
 10
967.60054097622287
 20
760.79079539762006
 11
967.49294212610494
 21
760.63462291112728
  0
LINE
  8
_0-2_線色２__白__
  6
CONTINUOUS
 62
    7
 10
967.70253539528767
 20
760.95039485621555
 11
967.60054097622287
 21
760.79079539762006
  0
LINE
  8
_0-2_線色２__白__
  6
CONTINUOUS
 62
    7
 10
967.75863918669074
 20
761.04482118733131
 11
967.70253539528767
 21
760.95039485621555
  0
LINE
  8
_0-2_線色２__白__
  6
CONTINUOUS
 62
    7
 10
967.81109167719933
 20
761.13842361489787
 11
967.75863918669074
 21
761.04482118733131
  0
LINE
  8
_0-2_線色２__白__
  6
CONTINUOUS
 62
    7
 10
967.89738095088524
 20
761.30233837088326
 11
967.81109167719933
 21
761.13842361489787
  0
LINE
  8
_0-2_線色２__白__
  6
CONTINUOUS
 62
    7
 10
967.98074857452775
 20
761.4680659775604
 11
967.89738095088524
 21
761.30233837088326
  0
LINE
  8
_0-2_線色２__白__
  6
CONTINUOUS
 62
    7
 10
968.06389980460608
 20
761.63398867202432
 11
967.98074857452775
 21
761.4680659775604
  0
LINE
  8
_0-2_線色２__白__
  6
CONTINUOUS
 62
    7
 10
968.14953989759033
 20
761.79848869134958
 11
968.06389980460608
 21
761.63398867202432
  0
LINE
  8
_0-2_線色２__白__
  6
CONTINUOUS
 62
    7
 10
968.24037410995516
 20
761.95994827262439
 11
968.14953989759033
 21
761.79848869134958
  0
LINE
  8
_0-2_線色２__白__
  6
CONTINUOUS
 62
    7
 10
968.29650391035102
 20
762.05156421833635
 11
968.24037410995516
 21
761.95994827262439
  0
LINE
  8
_0-2_線色２__白__
  6
CONTINUOUS
 62
    7
 10
968.33246278129081
 20
762.10687997347577
 11
968.29650391035102
 21
762.05156421833635
  0
LINE
  8
_0-2_線色２__白__
  6
CONTINUOUS
 62
    7
 10
968.39716128479722
 20
762.20054927553065
 11
968.33246278129081
 21
762.10687997347577
  0
LINE
  8
_0-2_線色２__白__
  6
CONTINUOUS
 62
    7
 10
968.46510262510037
 20
762.29200590569235
 11
968.39716128479722
 21
762.20054927553065
  0
LINE
  8
_0-2_線色２__白__
  6
CONTINUOUS
 62
    7
 10
968.53608278529009
 20
762.38118315622614
 11
968.46510262510037
 21
762.29200590569235
  0
LINE
  8
_0-2_線色２__白__
  6
CONTINUOUS
 62
    7
 10
968.60989774844711
 20
762.46801431940185
 11
968.53608278529009
 21
762.38118315622614
  0
LINE
  8
_0-2_線色２__白__
  6
CONTINUOUS
 62
    7
 10
968.68634349765671
 20
762.55243268748472
 11
968.60989774844711
 21
762.46801431940185
  0
LINE
  8
_0-2_線色２__白__
  6
CONTINUOUS
 62
    7
 10
968.73180706510084
 20
762.60026351194483
 11
968.68634349765671
 21
762.55243268748472
  0
LINE
  8
_0-2_線色２__白__
  6
CONTINUOUS
 62
    7
 10
968.86651251435524
 20
762.73292707123346
 11
968.73180706510084
 21
762.60026351194483
  0
LINE
  8
_0-2_線色２__白__
  6
CONTINUOUS
 62
    7
 10
969.11203721949732
 20
762.94691098407611
 11
968.86651251435524
 21
762.73292707123346
  0
LINE
  8
_0-4_線色４__黄__
  6
CONTINUOUS
 62
    2
 10
968.91503301382272
 20
769.0140546468956
 11
963.91807835749205
 21
768.83957209023038
  0
LINE
  8
_0-2_線色２__白__
  6
CONTINUOUS
 62
    7
 10
960.69562829969072
 20
817.30444242381509
 11
960.69562829969072
 21
1004.7987481719429
  0
LINE
  8
_0-2_線色２__白__
  6
CONTINUOUS
 62
    7
 10
960.69562829969072
 20
817.30444242381509
 11
944.295628299692
 21
817.30444242381509
  0
LINE
  8
_0-2_線色２__白__
  6
CONTINUOUS
 62
    7
 10
960.69562829969072
 20
817.30444242381509
 11
962.29562829968927
 21
815.30444242381463
  0
LINE
  8
_0-4_線色４__黄__
  6
CONTINUOUS
 62
    2
 10
967.23477703356821
 20
817.13441180325844
 11
968.91503301382272
 21
769.0140546468956
  0
LINE
  8
_0-4_線色４__黄__
  6
CONTINUOUS
 62
    2
 10
965.69562829969072
 20
819.05834772060643
 11
967.23477703356821
 21
817.13441180325844
  0
LINE
  8
ADD_LINE
  6
DOT
 62
    4
 10
1059.2976282996869
 20
694.59804242381324
 11
1059.2976282996869
 21
627.91804242381431
  0
LINE
  8
ADD_LINE
  6
DOT
 62
    4
 10
899.10202829968966
 20
790.30384242381615
 11
965.60362829969108
 21
790.30384242381615
  0
LINE
  8
_0-2_線色２__白__
  6
CONTINUOUS
 62
    7
 10
1053.5596282996858
 20
675.30204242381387
 11
1053.5596282996858
 21
670.30404242381337
  0
LINE
  8
_0-9_他
  6
CONTINUOUS
 62
    4
 10
1072.9768725785561
 20
702.22804242381471
 11
1069.3988725785584
 21
702.06204242381546
  0
LINE
  8
_0-9_他
  6
DASHED1
 62
    4
 10
1069.3988725785584
 20
702.06204242381546
 11
1060.5608725785578
 21
701.65004242381428
  0
LINE
  8
_0-9_他
  6
DASHED1
 62
    4
 10
1047.9308725785586
 20
701.30204242381524
 11
1032.2088725785579
 21
701.30204242381524
  0
LINE
  8
_0-9_他
  6
DASHED1
 62
    4
 10
1015.0768725785611
 20
701.30204242381524
 11
988.15287257856198
 21
701.30204242381524
  0
LINE
  8
_0-9_他
  6
DASHED1
 62
    4
 10
988.15287257856198
 20
701.30204242381524
 11
973.80087257856303
 21
715.16004242381541
  0
LINE
  8
_0-9_他
  6
DASHED1
 62
    4
 10
973.80087257856303
 20
715.16004242381541
 11
972.50087257856194
 21
752.40604242381551
  0
LINE
  8
_0-9_他
  6
DASHED1
 62
    4
 10
970.92487257856192
 20
797.50944242381593
 11
970.63087257856296
 21
805.93004242381767
  0
LINE
  8
_0-9_他
  6
DASHED1
 62
    4
 10
970.51287257856075
 20
809.33724242381459
 11
970.3388725785635
 21
814.30444242381554
  0
LINE
  8
_0-9_他
  6
DASHED1
 62
    4
 10
971.90287257856198
 20
769.52544242381691
 11
971.35287257856362
 21
785.23324242381705
  0
LINE
  8
_0-9_他
  6
CONTINUOUS
 62
    4
 10
970.63087257856296
 20
805.93004242381767
 11
970.51287257856075
 21
809.33724242381459
  0
LINE
  8
_0-9_他
  6
CONTINUOUS
 62
    4
 10
975.50487257856275
 20
804.72624242381698
 11
980.52087257856329
 21
809.30344242381807
  0
LINE
  8
_0-9_他
  6
CONTINUOUS
 62
    4
 10
980.52087257856329
 20
809.30344242381807
 11
980.58887257855986
 21
807.30124242381635
  0
LINE
  8
_0-9_他
  6
CONTINUOUS
 62
    4
 10
980.58887257855986
 20
807.30124242381635
 11
974.12287257855951
 21
799.86044242381695
  0
LINE
  8
_0-9_他
  6
CONTINUOUS
 62
    4
 10
974.27687257856178
 20
795.40584242381783
 11
980.79287257856322
 21
801.47884242381679
  0
LINE
  8
_0-9_他
  6
CONTINUOUS
 62
    4
 10
980.79287257856322
 20
801.47884242381679
 11
980.88887257856186
 21
798.70424242381659
  0
LINE
  8
_0-9_他
  6
CONTINUOUS
 62
    4
 10
980.88887257856186
 20
798.70424242381659
 11
974.41887257856251
 21
791.37864242381738
  0
LINE
  8
_0-9_他
  6
CONTINUOUS
 62
    4
 10
976.09687257855967
 20
787.76804242381559
 11
981.1108725785607
 21
792.44104242381809
  0
LINE
  8
_0-9_他
  6
CONTINUOUS
 62
    4
 10
981.1108725785607
 20
792.44104242381809
 11
981.19487257856235
 21
789.91024242381627
  0
LINE
  8
_0-9_他
  6
CONTINUOUS
 62
    4
 10
981.19487257856235
 20
789.91024242381627
 11
976.22087257856037
 21
784.18644242381788
  0
LINE
  8
_0-9_他
  6
CONTINUOUS
 62
    4
 10
976.4168725785612
 20
778.57924242381614
 11
981.42887257856273
 21
783.25144242381612
  0
LINE
  8
_0-9_他
  6
CONTINUOUS
 62
    4
 10
981.42887257856273
 20
783.25144242381612
 11
981.51687257856338
 21
780.72004242381581
  0
LINE
  8
_0-9_他
  6
CONTINUOUS
 62
    4
 10
981.51687257856338
 20
780.72004242381581
 11
976.5428725785614
 21
774.99764242381616
  0
LINE
  8
_0-9_他
  6
CONTINUOUS
 62
    4
 10
975.2968725785604
 20
766.24084242381514
 11
981.81087257856234
 21
772.31744242381637
  0
LINE
  8
_0-9_他
  6
CONTINUOUS
 62
    4
 10
981.81087257856234
 20
772.31744242381637
 11
981.89087257856045
 21
769.96844242381712
  0
LINE
  8
_0-9_他
  6
CONTINUOUS
 62
    4
 10
981.89087257856045
 20
769.96844242381712
 11
975.4248725785601
 21
762.52644242381621
  0
LINE
  8
_0-9_他
  6
CONTINUOUS
 62
    4
 10
974.51287257856166
 20
788.6466424238165
 11
974.08487257855995
 21
800.92284242381766
  0
LINE
  8
_0-9_他
  6
CONTINUOUS
 62
    4
 10
976.01087257856307
 20
790.18444242381747
 11
976.55487257856294
 21
774.47344242381632
  0
LINE
  8
_0-9_他
  6
CONTINUOUS
 62
    4
 10
973.00887257856175
 20
787.10384242381679
 11
972.58287257855955
 21
799.38224242381693
  0
LINE
  8
_0-9_他
  6
CENTER2
 62
    4
 10
970.44687257856367
 20
767.97664242381643
 11
970.37087257856001
 21
770.16084242381794
  0
LINE
  8
_0-9_他
  6
CENTER2
 62
    4
 10
970.37087257856001
 20
770.16084242381794
 11
976.48287257856282
 21
776.55824242381641
  0
LINE
  8
_0-9_他
  6
CENTER2
 62
    4
 10
969.4748725785621
 20
795.96544242381697
 11
969.36887257856142
 21
799.06604242381718
  0
LINE
  8
_0-9_他
  6
CENTER2
 62
    4
 10
969.36887257856142
 20
799.06604242381718
 11
975.47687257856069
 21
805.56284242381707
  0
LINE
  8
_0-9_他
  6
CONTINUOUS
 62
    4
 10
971.35287257856362
 20
785.23324242381705
 11
970.92487257856192
 21
797.50944242381593
  0
LINE
  8
_0-9_他
  6
CONTINUOUS
 62
    4
 10
975.2908725785619
 20
810.88484242381583
 11
975.58487257856086
 21
802.46484242381712
  0
LINE
  8
_0-9_他
  6
CONTINUOUS
 62
    4
 10
975.58487257856086
 20
802.46484242381712
 11
969.4748725785621
 21
795.96544242381469
  0
LINE
  8
_0-9_他
  6
CONTINUOUS
 62
    4
 10
969.4748725785621
 20
795.96544242381469
 11
969.90287257855925
 21
783.68904242381632
  0
LINE
  8
_0-9_他
  6
CONTINUOUS
 62
    4
 10
969.90287257855925
 20
783.68904242381632
 11
976.01087257856307
 21
790.18444242381747
  0
LINE
  8
_0-9_他
  6
CONTINUOUS
 62
    4
 10
976.55487257856294
 20
774.47344242381632
 11
970.44687257855912
 21
767.97664242381643
  0
LINE
  8
_0-9_他
  6
CONTINUOUS
 62
    4
 10
1043.6328725785552
 20
711.30204242381524
 11
1039.133741626174
 21
706.13204242381471
  0
LINE
  8
_0-9_他
  6
CENTER2
 62
    4
 10
1032.908872578555
 20
699.80204242381433
 11
1039.0908725785584
 21
706.13204242381471
  0
LINE
  8
_0-9_他
  6
CENTER2
 62
    4
 10
1030.7228725785581
 20
699.80204242381433
 11
1032.908872578555
 21
699.80204242381433
  0
ARC
  8
_0-9_他
  6
CONTINUOUS
 62
    4
 10
991.40073657856192
 20
719.04610442381454
 40
20.757428000000001
 50
183.98347799999996
 51
268.01577899999995
  0
LINE
  8
_0-9_他
  6
CONTINUOUS
 62
    4
 10
977.38887257856277
 20
755.70804242381655
 11
982.22687257856251
 21
760.39584242381579
  0
LINE
  8
_0-9_他
  6
CONTINUOUS
 62
    4
 10
982.22687257856251
 20
760.39584242381579
 11
982.31087257855961
 21
758.016042423817
  0
LINE
  8
_0-9_他
  6
CONTINUOUS
 62
    4
 10
982.31087257855961
 20
758.016042423817
 11
977.50487257856093
 21
752.37604242381622
  0
LINE
  8
_0-9_他
  6
CONTINUOUS
 62
    4
 10
978.69487257856235
 20
718.20404242381528
 11
983.46887257855997
 21
722.46004242381559
  0
LINE
  8
_0-9_他
  6
CONTINUOUS
 62
    4
 10
983.46887257855997
 20
722.46004242381559
 11
983.54087257856008
 21
720.39204242381402
  0
LINE
  8
_0-9_他
  6
CONTINUOUS
 62
    4
 10
983.54087257856008
 20
720.39204242381402
 11
979.10687257856353
 21
715.21004242381423
  0
LINE
  8
_0-9_他
  6
CONTINUOUS
 62
    4
 10
977.64487257856217
 20
743.4020424238156
 11
982.6628725785622
 21
747.87204242381677
  0
LINE
  8
_0-9_他
  6
CONTINUOUS
 62
    4
 10
982.6628725785622
 20
747.87204242381677
 11
982.73887257856131
 21
745.70004242381629
  0
LINE
  8
_0-9_他
  6
CONTINUOUS
 62
    4
 10
982.73887257856131
 20
745.70004242381629
 11
977.76487257856388
 21
739.97404242381663
  0
LINE
  8
_0-9_他
  6
CONTINUOUS
 62
    4
 10
978.08487257856086
 20
730.80004242381619
 11
983.10487257856039
 21
735.27404242381635
  0
LINE
  8
_0-9_他
  6
CONTINUOUS
 62
    4
 10
983.10487257856039
 20
735.27404242381635
 11
983.1808725785595
 21
733.10004242381638
  0
LINE
  8
_0-9_他
  6
CONTINUOUS
 62
    4
 10
983.1808725785595
 20
733.10004242381638
 11
978.20287257856307
 21
727.37404242381444
  0
LINE
  8
_0-9_他
  6
CONTINUOUS
 62
    4
 10
975.65087257856248
 20
755.78404242381566
 11
975.05687257856152
 21
772.93404242381712
  0
LINE
  8
_0-9_他
  6
CONTINUOUS
 62
    4
 10
980.52087257856329
 20
809.30344242381807
 11
983.76487257856297
 21
713.88004242381385
  0
LINE
  8
_0-9_他
  6
CONTINUOUS
 62
    4
 10
974.14687257856258
 20
754.2400424238167
 11
973.55287257856162
 21
771.39264242381614
  0
LINE
  8
_0-9_他
  6
CONTINUOUS
 62
    4
 10
986.43287257856173
 20
711.30204242381524
 11
983.76487257856297
 21
713.88004242381385
  0
LINE
  8
_0-9_他
  6
CENTER1
 62
    4
 10
983.76487257856297
 20
713.88004242381385
 11
983.02487257856228
 21
713.11404242381514
  0
LINE
  8
_0-9_他
  6
CENTER1
 62
    4
 10
986.43287257856173
 20
711.30204242381524
 11
985.69287257856104
 21
710.53404242381475
  0
LINE
  8
_0-9_他
  6
CONTINUOUS
 62
    4
 10
983.02487257856228
 20
713.11404242381514
 11
979.3048725785593
 21
714.5260424238154
  0
LINE
  8
_0-9_他
  6
CONTINUOUS
 62
    4
 10
985.69287257856104
 20
710.53404242381475
 11
987.33487257856268
 21
706.62804242381526
  0
LINE
  8
_0-9_他
  6
CONTINUOUS
 62
    4
 10
977.14887257855935
 20
757.32604242381512
 11
978.70887257856339
 21
717.88204242381426
  0
ARC
  8
_0-9_他
  6
CONTINUOUS
 62
    4
 10
991.31125057856025
 20
718.75004242381465
 40
12.632899999999999
 50
183.93788599999999
 51
267.23260699999997
  0
LINE
  8
_0-9_他
  6
CENTER2
 62
    4
 10
969.06687257855992
 20
807.79864242381564
 11
969.01687257856338
 21
809.22904242381492
  0
LINE
  8
_0-9_他
  6
CENTER2
 62
    4
 10
969.01687257856338
 20
809.22904242381492
 11
975.12487257856264
 21
815.70184242381629
  0
LINE
  8
_0-9_他
  6
CENTER2
 62
    4
 10
975.02687257855996
 20
818.54664242381659
 11
968.92487257855919
 21
811.85764242381765
  0
LINE
  8
_0-9_他
  6
CENTER2
 62
    4
 10
968.92487257855919
 20
811.85764242381765
 11
968.89287257856267
 21
812.80364242381665
  0
LINE
  8
_0-9_他
  6
CONTINUOUS
 62
    4
 10
972.50087257856194
 20
752.40604242381551
 11
971.90287257856198
 21
769.52544242381691
  0
LINE
  8
_0-9_他
  6
CONTINUOUS
 62
    4
 10
970.69287257856104
 20
717.60404242381355
 11
967.44087257856336
 21
811.30304242381726
  0
LINE
  8
_0-9_他
  6
CONTINUOUS
 62
    4
 10
967.44087257856336
 20
811.30304242381726
 11
974.99887257856244
 21
819.29564242381502
  0
LINE
  8
_0-9_他
  6
CONTINUOUS
 62
    4
 10
974.99887257856244
 20
819.29564242381502
 11
975.17287257855969
 21
814.29544242381553
  0
LINE
  8
_0-9_他
  6
CONTINUOUS
 62
    4
 10
975.17287257855969
 20
814.29544242381553
 11
969.06687257855992
 21
807.79864242381564
  0
LINE
  8
_0-9_他
  6
CONTINUOUS
 62
    4
 10
969.06687257855992
 20
807.79864242381564
 11
969.18487257856214
 21
804.39084242381568
  0
LINE
  8
_0-9_他
  6
CONTINUOUS
 62
    4
 10
969.18487257856214
 20
804.39084242381568
 11
975.2908725785619
 21
810.88484242381583
  0
LINE
  8
_0-9_他
  6
CONTINUOUS
 62
    4
 10
970.44687257855912
 20
767.97664242381643
 11
971.03887257856059
 21
750.86204242381655
  0
LINE
  8
_0-9_他
  6
CONTINUOUS
 62
    4
 10
971.03887257856059
 20
750.86204242381655
 11
977.14887257855935
 21
757.32604242381512
  0
LINE
  8
_0-9_他
  6
CONTINUOUS
 62
    4
 10
1058.3048725785557
 20
704.58204242381498
 11
1065.5148725785557
 21
711.30204242381524
  0
LINE
  8
_0-9_他
  6
CONTINUOUS
 62
    4
 10
1067.5208725785569
 20
711.30204242381524
 11
1061.6728725785561
 21
704.58204242381498
  0
LINE
  8
_0-9_他
  6
CONTINUOUS
 62
    4
 10
1055.0448725785554
 20
705.33004242381594
 11
1058.3048725785557
 21
704.58204242381498
  0
LINE
  8
_0-9_他
  6
CONTINUOUS
 62
    4
 10
1052.1588725785568
 20
706.13204242381471
 11
1057.7068725785557
 21
711.30204242381524
  0
LINE
  8
_0-9_他
  6
CONTINUOUS
 62
    4
 10
1060.2408725785563
 20
711.30204242381524
 11
1054.3948725785549
 21
704.58204242381498
  0
LINE
  8
_0-9_他
  6
CONTINUOUS
 62
    4
 10
1044.730872578557
 20
706.13204242381471
 11
1050.2768725785563
 21
711.30204242381524
  0
LINE
  8
_0-9_他
  6
CONTINUOUS
 62
    4
 10
1052.8108725785569
 20
711.30204242381524
 11
1048.3128725785582
 21
706.13204242381471
  0
LINE
  8
_0-9_他
  6
CONTINUOUS
 62
    4
 10
1034.0688725785549
 20
704.58204242381498
 11
1041.2828725785585
 21
711.30204242381524
  0
LINE
  8
_0-9_他
  6
CONTINUOUS
 62
    4
 10
1032.6988725785577
 20
711.30204242381524
 11
1026.8508725785614
 21
704.58204242381498
  0
LINE
  8
_0-9_他
  6
CONTINUOUS
 62
    4
 10
987.79687257856494
 20
706.49804242381379
 11
992.95087257856267
 21
711.30204242381524
  0
LINE
  8
_0-9_他
  6
CONTINUOUS
 62
    4
 10
995.01687257856247
 20
711.30204242381524
 11
990.7228725785626
 21
706.13204242381471
  0
LINE
  8
_0-9_他
  6
CONTINUOUS
 62
    4
 10
1012.4448725785624
 20
706.13204242381471
 11
1017.9928725785612
 21
711.30204242381524
  0
LINE
  8
_0-9_他
  6
CONTINUOUS
 62
    4
 10
1020.1708725785602
 20
711.30204242381524
 11
1015.8748725785608
 21
706.13204242381471
  0
LINE
  8
_0-9_他
  6
CONTINUOUS
 62
    4
 10
999.83687257856218
 20
706.13204242381471
 11
1005.3868725785605
 21
711.30204242381524
  0
LINE
  8
_0-9_他
  6
CONTINUOUS
 62
    4
 10
1007.5628725785646
 20
711.30204242381524
 11
1003.2668725785607
 21
706.13204242381471
  0
LINE
  8
_0-9_他
  6
CONTINUOUS
 62
    4
 10
1051.2388725785559
 20
704.58204242381498
 11
1063.524872578555
 21
704.58204242381498
  0
LINE
  8
_0-9_他
  6
CONTINUOUS
 62
    4
 10
1067.5208725785569
 20
711.30204242381524
 11
986.43287257856173
 21
711.30204242381524
  0
LINE
  8
_0-9_他
  6
CONTINUOUS
 62
    4
 10
1049.7508725785565
 20
703.02604242381449
 11
1062.0368725785556
 21
703.02604242381449
  0
LINE
  8
_0-9_他
  6
CENTER2
 62
    4
 10
1058.7288725785584
 20
699.80204242381433
 11
1061.8328725785568
 21
699.80204242381433
  0
LINE
  8
_0-9_他
  6
CENTER2
 62
    4
 10
1061.8328725785568
 20
699.80204242381433
 11
1068.1128725785584
 21
706.13204242381471
  0
LINE
  8
_0-9_他
  6
CENTER2
 62
    4
 10
1070.5688725785558
 20
699.80204242381433
 11
1072.0008725785556
 21
699.80204242381433
  0
LINE
  8
_0-9_他
  6
CENTER2
 62
    4
 10
1072.0008725785556
 20
699.80204242381433
 11
1078.2588725785581
 21
706.13204242381471
  0
LINE
  8
_0-9_他
  6
CENTER2
 62
    4
 10
1081.1048725785577
 20
706.13204242381471
 11
1074.6308725785548
 21
699.80204242381433
  0
LINE
  8
_0-9_他
  6
CENTER2
 62
    4
 10
1074.6308725785548
 20
699.80204242381433
 11
1075.5768725785583
 21
699.80204242381433
  0
LINE
  8
_0-9_他
  6
CONTINUOUS
 62
    4
 10
1060.5608725785578
 20
701.65004242381428
 11
1053.1268725785549
 21
701.30204242381524
  0
LINE
  8
_0-9_他
  6
CONTINUOUS
 62
    4
 10
1053.1268725785549
 20
701.30204242381524
 11
1047.9308725785586
 21
701.30204242381524
  0
LINE
  8
_0-9_他
  6
CONTINUOUS
 62
    4
 10
1032.2088725785579
 20
701.30204242381524
 11
1015.0768725785611
 21
701.30204242381524
  0
LINE
  8
_0-9_他
  6
CONTINUOUS
 62
    4
 10
990.70087257856358
 20
706.13204242381471
 11
1019.8468725785597
 21
706.13204242381471
  0
LINE
  8
_0-9_他
  6
CONTINUOUS
 62
    4
 10
1019.8468725785597
 20
706.13204242381471
 11
1013.5968725785642
 21
699.80204242381433
  0
LINE
  8
_0-9_他
  6
CONTINUOUS
 62
    4
 10
1013.5968725785642
 20
699.80204242381433
 11
1030.7228725785581
 21
699.80204242381433
  0
LINE
  8
_0-9_他
  6
CONTINUOUS
 62
    4
 10
1030.7228725785581
 20
699.80204242381433
 11
1037.0028725785551
 21
706.13204242381471
  0
LINE
  8
_0-9_他
  6
CONTINUOUS
 62
    4
 10
1037.0028725785551
 20
706.13204242381471
 11
1052.7248725785557
 21
706.13204242381471
  0
LINE
  8
_0-9_他
  6
CONTINUOUS
 62
    4
 10
1052.7248725785557
 20
706.13204242381471
 11
1046.4448725785587
 21
699.80204242381433
  0
LINE
  8
_0-9_他
  6
CONTINUOUS
 62
    4
 10
1046.4448725785587
 20
699.80204242381433
 11
1058.7288725785584
 21
699.80204242381433
  0
LINE
  8
_0-9_他
  6
CONTINUOUS
 62
    4
 10
1058.7288725785584
 20
699.80204242381433
 11
1065.0128725785589
 21
706.13204242381471
  0
LINE
  8
_0-9_他
  6
CONTINUOUS
 62
    4
 10
1065.0128725785589
 20
706.13204242381471
 11
1073.4388725785584
 21
706.13204242381471
  0
LINE
  8
_0-9_他
  6
CONTINUOUS
 62
    4
 10
1073.4388725785584
 20
706.13204242381471
 11
1067.1588725785568
 21
699.80204242381433
  0
LINE
  8
_0-9_他
  6
CONTINUOUS
 62
    4
 10
1067.1588725785568
 20
699.80204242381433
 11
1070.5688725785558
 21
699.80204242381433
  0
LINE
  8
_0-9_他
  6
CONTINUOUS
 62
    4
 10
1070.5688725785558
 20
699.80204242381433
 11
1076.8508725785568
 21
706.13204242381471
  0
LINE
  8
_0-9_他
  6
CONTINUOUS
 62
    4
 10
1076.8508725785568
 20
706.13204242381471
 11
1081.8528725785563
 21
706.13204242381471
  0
LINE
  8
_0-9_他
  6
DASHED1
 62
    4
 10
1064.110872578558
 20
705.19604242381547
 11
1062.3428725785561
 21
705.35204242381496
  0
LINE
  8
_0-9_他
  6
CONTINUOUS
 62
    4
 10
990.54287257856231
 20
698.30204242381342
 11
1074.1308449993949
 21
698.30204242381342
  0
LINE
  8
_0-9_他
  6
CONTINUOUS
 62
    4
 10
1081.8528725785563
 20
706.13204242381471
 11
1074.1308449993949
 21
698.30204242381342
  0
LINE
  8
_0-3_線色３__緑__
  6
CONTINUOUS
 62
    3
 10
807.69562829968891
 20
793.07419228604886
 11
807.69562829968891
 21
1004.7987481719429
  0
LINE
  8
_0-d_断熱__ハッチ
  6
CONTINUOUS
 62
    4
 10
816.44562829968891
 20
1004.7987481719429
 11
816.44562829968891
 21
793.24919228604813
  0
LINE
  8
_0-d_断熱__ハッチ
  6
CONTINUOUS
 62
    4
 10
825.19562829968891
 20
1004.7987481719429
 11
825.19562829968891
 21
793.4241922860474
  0
LINE
  8
_0-d_断熱__ハッチ
  6
CONTINUOUS
 62
    4
 10
833.94562829968891
 20
1004.7987481719429
 11
833.94562829968891
 21
793.59919228604895
  0
ARC
  8
_0-3_線色３__緑__
  6
CONTINUOUS
 62
    3
 10
790.60927983650799
 20
788.07319238602759
 40
17.80318240666822
 50
343.68578488793537
 51
16.314215112065494
  0
ARC
  8
_0-3_線色３__緑__
  6
CONTINUOUS
 62
    3
 10
790.60927983650799
 20
670.07105052379529
 40
17.80318240666822
 50
343.68578488793537
 51
16.314215112065494
  0
LINE
  8
_0-d_断熱__ハッチ
  6
CONTINUOUS
 62
    4
 10
832.73991157887394
 20
783.57307815159174
 11
833.28150178462693
 21
784.114668357347
  0
LINE
  8
_0-d_断熱__ハッチ
  6
CONTINUOUS
 62
    4
 10
829.13222391975978
 20
783.50092439841092
 11
831.08353122321205
 21
785.45223170186318
  0
LINE
  8
_0-d_断熱__ハッチ
  6
CONTINUOUS
 62
    4
 10
825.52453626064107
 20
783.42877064522781
 11
829.78487337643401
 21
787.6891077610162
  0
LINE
  8
_0-d_断熱__ハッチ
  6
CONTINUOUS
 62
    4
 10
835.71679296332604
 20
793.62102734791279
 11
835.73065850558123
 21
793.6348928901657
  0
LINE
  8
_0-d_断熱__ハッチ
  6
CONTINUOUS
 62
    4
 10
821.91684860152691
 20
783.35661689204471
 11
832.12297084646707
 21
793.5627391369826
  0
LINE
  8
_0-d_断熱__ハッチ
  6
CONTINUOUS
 62
    4
 10
818.30916094241275
 20
783.28446313886388
 11
828.51528318734836
 21
793.49058538380177
  0
LINE
  8
_0-d_断熱__ハッチ
  6
CONTINUOUS
 62
    4
 10
814.70147328329404
 20
783.21230938568078
 11
824.9075955282342
 21
793.41843163062094
  0
LINE
  8
_0-d_断熱__ハッチ
  6
CONTINUOUS
 62
    4
 10
811.09378562417987
 20
783.14015563249995
 11
821.29990786912003
 21
793.34627787743784
  0
LINE
  8
_0-d_断熱__ハッチ
  6
CONTINUOUS
 62
    4
 10
807.77692662212758
 20
783.35883053637872
 11
817.69222021000587
 21
793.27412412425701
  0
LINE
  8
_0-d_断熱__ハッチ
  6
CONTINUOUS
 62
    4
 10
808.40390735324036
 20
787.52134517342711
 11
814.08453255088716
 21
793.20197037107391
  0
LINE
  8
_0-d_断熱__ハッチ
  6
CONTINUOUS
 62
    4
 10
808.19491035912961
 20
790.84788208524969
 11
810.476844891773
 21
793.12981661789308
  0
LINE
  8
_0-d_断熱__ハッチ
  6
CONTINUOUS
 62
    4
 10
834.99094314976901
 20
665.61595692077617
 11
835.06828113597294
 21
665.69329490697783
  0
LINE
  8
_0-d_断熱__ハッチ
  6
CONTINUOUS
 62
    4
 10
831.38325549065939
 20
665.54380316759534
 11
832.36409885460034
 21
666.52464653153402
  0
LINE
  8
_0-d_断熱__ハッチ
  6
CONTINUOUS
 62
    4
 10
827.77556783154523
 20
665.47164941441224
 11
830.46716302640107
 21
668.16324460926808
  0
LINE
  8
_0-d_断熱__ハッチ
  6
CONTINUOUS
 62
    4
 10
824.16788017242652
 20
665.39949566122914
 11
829.72095115491356
 21
670.95256664371391
  0
LINE
  8
_0-d_断熱__ハッチ
  6
CONTINUOUS
 62
    4
 10
834.10205989161113
 20
675.33367538041148
 11
834.37400241736668
 21
675.60561790617157
  0
LINE
  8
_0-d_断熱__ハッチ
  6
CONTINUOUS
 62
    4
 10
820.56019251331236
 20
665.32734190804831
 11
830.76631475825252
 21
675.53346415298847
  0
LINE
  8
_0-d_断熱__ハッチ
  6
CONTINUOUS
 62
    4
 10
816.9525048541982
 20
665.25518815486521
 11
827.15862709913836
 21
675.46131039980537
  0
LINE
  8
_0-d_断熱__ハッチ
  6
CONTINUOUS
 62
    4
 10
813.34481719507949
 20
665.18303440168211
 11
823.55093944001965
 21
675.38915664662227
  0
LINE
  8
_0-d_断熱__ハッチ
  6
CONTINUOUS
 62
    4
 10
809.73712953596532
 20
665.11088064850128
 11
819.94325178090548
 21
675.31700289343917
  0
LINE
  8
_0-d_断熱__ハッチ
  6
CONTINUOUS
 62
    4
 10
808.15707581387869
 20
667.06636083234571
 11
816.33556412178677
 21
675.24484914025606
  0
LINE
  8
_0-d_断熱__ハッチ
  6
CONTINUOUS
 62
    4
 10
808.39582071435871
 20
670.84063963876133
 11
812.72787646267261
 21
675.17269538707524
  0
LINE
  8
_0-d_断熱__ハッチ
  6
CONTINUOUS
 62
    4
 10
807.98199210603798
 20
673.96234493637394
 11
809.12018880355845
 21
675.10054163389213
  0
ARC
  8
_0-8_笠木他
  6
CONTINUOUS
 62
    7
 10
743.41328223323217
 20
754.78651004913218
 40
51.935917838010504
 50
329.82906055169201
 51
32.462465124657889
  0
ARC
  8
_0-8_笠木他
  6
CONTINUOUS
 62
    7
 10
832.13401241987413
 20
756.5609246528652
 40
51.935917838010504
 50
149.82906055169292
 51
212.46246512465851
  0
LINE
  8
_0-8_笠木他
  6
CONTINUOUS
 62
    7
 10
787.23386253016088
 20
782.66295717061666
 11
919.29522829968846
 21
785.30418448600813
  0
ARC
  8
_0-8_笠木他
  6
CONTINUOUS
 62
    7
 10
833.21358201265866
 20
702.58244501362242
 40
51.935917838010504
 50
149.82906055169201
 51
212.46246512465788
  0
LINE
  8
_0-8_笠木他
  6
CONTINUOUS
 62
    7
 10
789.39300171572995
 20
674.70599789213793
 11
919.29522829968846
 21
677.30404242381383
  0
LINE
  8
_0-8_笠木他
  6
CONTINUOUS
 62
    7
 10
785.69017085189898
 20
681.63334113488872
 11
919.29522829968846
 21
684.30544228384178
  0
LINE
  8
_0-8_笠木他
  6
CONTINUOUS
 62
    7
 10
790.93669339399185
 20
775.73561392786587
 11
919.29522829968846
 21
778.30278462598017
  0
LINE
  8
_0-5_金属
  6
CONTINUOUS
 62
    7
 10
940.39562829968872
 20
853.00404342441425
 11
940.39562829968872
 21
894.40404342441525
  0
LINE
  8
_0-5_金属
  6
CONTINUOUS
 62
    7
 10
942.69562829968891
 20
853.00404342441425
 11
942.69562829968891
 21
894.40404342441525
  0
ARC
  8
_0-5_金属
  6
CONTINUOUS
 62
    7
 10
846.99562829968727
 20
853.00404342441425
 40
4.2999999999999989
 50
180
 51
270
  0
LINE
  8
_0-5_金属
  6
CONTINUOUS
 62
    7
 10
846.99562829968727
 20
848.70404342441361
 11
862.69562829968891
 21
848.70404342441361
  0
LINE
  8
_0-5_金属
  6
CONTINUOUS
 62
    7
 10
842.69562829968891
 20
853.00404342441425
 11
842.69562829968891
 21
894.40404342441525
  0
ARC
  8
_0-5_金属
  6
CONTINUOUS
 62
    7
 10
846.99562829968727
 20
894.40404342441525
 40
4.2999999999999989
 50
90
 51
180
  0
LINE
  8
_0-5_金属
  6
CONTINUOUS
 62
    7
 10
846.99562829968727
 20
898.70404342441589
 11
938.39562829969054
 21
898.70404342441589
  0
ARC
  8
_0-5_金属
  6
CONTINUOUS
 62
    7
 10
938.39562829969054
 20
894.40404342441525
 40
4.2999999999999989
 50
0
 51
90
  0
ARC
  8
_0-5_金属
  6
CONTINUOUS
 62
    7
 10
938.39562829969054
 20
853.00404342441425
 40
4.2999999999999989
 50
270
 51
0
  0
LINE
  8
_0-5_金属
  6
CONTINUOUS
 62
    7
 10
938.39562829969054
 20
848.70404342441361
 11
922.69562829968891
 21
848.70404342441361
  0
ARC
  8
_0-5_金属
  6
CONTINUOUS
 62
    7
 10
938.39562829969054
 20
853.00404342441425
 40
2
 50
270
 51
0
  0
LINE
  8
_0-5_金属
  6
CONTINUOUS
 62
    7
 10
938.39562829969054
 20
851.00404342441379
 11
922.69562829968891
 21
851.00404342441379
  0
ARC
  8
_0-5_金属
  6
CONTINUOUS
 62
    7
 10
938.39562829969054
 20
894.40404342441525
 40
2
 50
0
 51
90.000000000000014
  0
LINE
  8
_0-5_金属
  6
CONTINUOUS
 62
    7
 10
938.39562829969054
 20
896.40404342441343
 11
846.99562829968727
 21
896.40404342441343
  0
ARC
  8
_0-5_金属
  6
CONTINUOUS
 62
    7
 10
846.99562829968727
 20
894.40404342441525
 40
2
 50
90
 51
180
  0
LINE
  8
_0-5_金属
  6
CONTINUOUS
 62
    7
 10
844.99562829968909
 20
894.40404342441525
 11
844.99562829968909
 21
853.00404342441425
  0
ARC
  8
_0-5_金属
  6
CONTINUOUS
 62
    7
 10
846.99562829968727
 20
853.00404342441425
 40
2
 50
180
 51
270
  0
LINE
  8
_0-5_金属
  6
CONTINUOUS
 62
    7
 10
846.99562829968727
 20
851.00404342441379
 11
862.69562829968891
 21
851.00404342441379
  0
LINE
  8
_0-5_金属
  6
CONTINUOUS
 62
    7
 10
862.69562829968891
 20
851.00404342441379
 11
862.69562829968891
 21
848.70404342441361
  0
LINE
  8
_0-5_金属
  6
CONTINUOUS
 62
    7
 10
922.69562829968891
 20
851.00404342441379
 11
922.69562829968891
 21
848.70404342441361
  0
LINE
  8
_0-5_金属
  6
CONTINUOUS
 62
    7
 10
842.69562829968891
 20
894.40404342441525
 11
842.69562829968891
 21
1004.7987481719429
  0
LINE
  8
_0-5_金属
  6
CONTINUOUS
 62
    7
 10
862.69562829968891
 20
848.70404342441361
 11
862.69562829968891
 21
784.17219248600759
  0
LINE
  8
_0-5_金属
  6
CONTINUOUS
 62
    7
 10
922.69562829968891
 20
848.70404342441361
 11
922.69562829968891
 21
792.36406284268924
  0
LINE
  8
_0-5_金属
  6
CONTINUOUS
 62
    7
 10
942.69562829968891
 20
853.00404342441425
 11
942.69562829968891
 21
792.71237726965865
  0
LINE
  8
_0-5_金属
  6
CONTINUOUS
 62
    7
 10
922.69562829968891
 20
1004.7987481719429
 11
922.69562829968891
 21
898.70404342441589
  0
LINE
  8
_0-5_金属
  6
CONTINUOUS
 62
    7
 10
862.69562829968891
 20
1004.7987481719429
 11
862.69562829968891
 21
898.70404342441589
  0
LINE
  8
_0-5_金属
  6
CONTINUOUS
 62
    7
 10
842.69562829968891
 20
853.00404342441425
 11
842.69562829968891
 21
793.77419228604822
  0
LINE
  8
_0-8_笠木他
  6
CONTINUOUS
 62
    4
 10
1020.7956282996884
 20
701.30204242381524
 11
1020.7956282996884
 21
681.94804242381451
  0
LINE
  8
_0-8_笠木他
  6
CONTINUOUS
 62
    4
 10
1017.7996282996901
 20
701.30204242381524
 11
1017.7996282996901
 21
681.94804242381451
  0
LINE
  8
_0-8_笠木他
  6
CONTINUOUS
 62
    4
 10
1017.2976282996888
 20
701.30204242381524
 11
1017.2976282996888
 21
681.94804242381451
  0
LINE
  8
_0-8_笠木他
  6
CONTINUOUS
 62
    4
 10
1021.2996282996892
 20
681.94804242381451
 11
1021.2996282996892
 21
701.30204242381524
  0
LINE
  8
_0-8_笠木他
  6
DASHED1
 62
    4
 10
1019.2976282996915
 20
676.36604242381509
 11
1019.2976282996915
 21
704.908042423815
  0
ARC
  8
_0-8_笠木他
  6
CONTINUOUS
 62
    4
 10
1017.9096442996888
 20
701.68840042381589
 40
1.6167739999999999
 50
93.933026000000041
 51
176.067003
  0
LINE
  8
_0-8_笠木他
  6
CONTINUOUS
 62
    4
 10
1016.2976282996897
 20
701.30204242381524
 11
1016.2976282996897
 21
701.80004242381528
  0
LINE
  8
_0-8_笠木他
  6
CONTINUOUS
 62
    4
 10
1017.7996282996901
 20
703.30204242381569
 11
1021.0996282996894
 21
703.27204242381413
  0
ARC
  8
_0-8_笠木他
  6
CONTINUOUS
 62
    4
 10
1020.6997402996922
 20
701.72292442381377
 40
1.6001560000000004
 50
2.7355149999999959
 51
75.544931999999974
  0
LINE
  8
_0-8_笠木他
  6
CONTINUOUS
 62
    4
 10
1022.2976282996888
 20
701.80004242381528
 11
1022.2976282996888
 21
701.30204242381524
  0
LINE
  8
_0-9_他
  6
CONTINUOUS
 62
    4
 10
1027.5048725785609
 20
705.33204242381544
 11
1035.6645130081188
 21
704.78302712431287
  0
LINE
  8
_0-9_他
  6
CONTINUOUS
 62
    4
 10
1022.964518596259
 20
704.58204242381498
 11
1030.3168725785599
 21
711.30204242381524
  0
LINE
  8
_0-9_他
  6
CONTINUOUS
 62
    4
 10
1018.5848574805641
 20
704.85387353256328
 11
1022.6308725785611
 21
704.58204242381498
  0
LINE
  8
_0-9_他
  6
CONTINUOUS
 62
    4
 10
1018.3164618360661
 20
704.58204242381498
 11
1035.4651158644992
 21
704.58204242381498
  0
LINE
  8
_0-9_他
  6
CONTINUOUS
 62
    4
 10
1016.780126922954
 20
703.02604242381449
 11
1033.9214065438
 21
703.02604242381449
  0
LINE
  8
_0-d_断熱__ハッチ
  6
CONTINUOUS
 62
    4
 10
954.85962349941019
 20
817.30444242381509
 11
960.69562829969072
 21
823.14044722409108
  0
LINE
  8
_0-d_断熱__ハッチ
  6
CONTINUOUS
 62
    4
 10
944.29562829968745
 20
817.34704894189235
 11
960.69562829968618
 21
833.74704894189108
  0
LINE
  8
_0-d_断熱__ハッチ
  6
CONTINUOUS
 62
    4
 10
944.295628299692
 20
827.95365065969008
 11
960.69562829969072
 21
844.35365065968881
  0
LINE
  8
_0-d_断熱__ハッチ
  6
CONTINUOUS
 62
    4
 10
944.295628299692
 20
838.56025237748327
 11
960.69562829968618
 21
854.96025237748199
  0
LINE
  8
_0-d_断熱__ハッチ
  6
CONTINUOUS
 62
    4
 10
944.29562829968745
 20
849.16685409528327
 11
960.69562829968618
 21
865.566854095282
  0
LINE
  8
_0-d_断熱__ハッチ
  6
CONTINUOUS
 62
    4
 10
944.29562829968745
 20
859.77345581308327
 11
960.69562829969072
 21
876.17345581308427
  0
LINE
  8
_0-d_断熱__ハッチ
  6
CONTINUOUS
 62
    4
 10
944.29562829968745
 20
870.380057530881
 11
960.69562829968618
 21
886.780057530882
  0
LINE
  8
_0-d_断熱__ハッチ
  6
CONTINUOUS
 62
    4
 10
944.295628299692
 20
880.98665924868556
 11
960.69562829969072
 21
897.38665924868428
  0
LINE
  8
_0-d_断熱__ハッチ
  6
CONTINUOUS
 62
    4
 10
944.295628299692
 20
891.59326096647646
 11
960.69562829968618
 21
907.99326096647292
  0
LINE
  8
_0-d_断熱__ハッチ
  6
CONTINUOUS
 62
    4
 10
942.69562829968891
 20
900.59986268427565
 11
960.69562829968618
 21
918.59986268427292
  0
LINE
  8
_0-d_断熱__ハッチ
  6
CONTINUOUS
 62
    4
 10
942.69562829968891
 20
911.20646440207338
 11
960.69562829969072
 21
929.20646440207292
  0
LINE
  8
_0-d_断熱__ハッチ
  6
CONTINUOUS
 62
    4
 10
942.69562829968891
 20
921.81306611987338
 11
960.69562829968618
 21
939.81306611987293
  0
LINE
  8
_0-d_断熱__ハッチ
  6
CONTINUOUS
 62
    4
 10
942.69562829968891
 20
932.41966783767339
 11
960.69562829969072
 21
950.41966783767521
  0
LINE
  8
_0-d_断熱__ハッチ
  6
CONTINUOUS
 62
    4
 10
942.69562829968891
 20
943.0262695554643
 11
960.69562829968618
 21
961.02626955546384
  0
LINE
  8
_0-d_断熱__ハッチ
  6
CONTINUOUS
 62
    4
 10
942.69562829968891
 20
953.63287127326657
 11
960.69562829968618
 21
971.63287127326385
  0
LINE
  8
_0-d_断熱__ハッチ
  6
CONTINUOUS
 62
    4
 10
942.69562829968891
 20
964.23947299106203
 11
960.69562829969072
 21
982.23947299106385
  0
LINE
  8
_0-d_断熱__ハッチ
  6
CONTINUOUS
 62
    4
 10
942.69562829968891
 20
974.84607470886431
 11
960.69562829968618
 21
992.84607470886385
  0
LINE
  8
_0-d_断熱__ハッチ
  6
CONTINUOUS
 62
    4
 10
942.69562829968891
 20
985.45267642666431
 11
960.69562829969072
 21
1003.4526764266661
  0
LINE
  8
_0-d_断熱__ハッチ
  6
CONTINUOUS
 62
    4
 10
942.69562829968891
 20
996.05927814445522
 11
951.43509832717882
 21
1004.7987481719429
  0
LINE
  8
_0-8_笠木他
  6
CENTER1
 62
    9
 10
914.61882829968999
 20
731.27604242381494
 11
982.51762829968811
 21
731.27604242381494
  0
LINE
  8
_0-d_断熱__ハッチ
  6
CONTINUOUS
 62
    4
 10
1274.4536649539486
 20
668.70404242381483
 11
1295.6086814683158
 21
689.85905893817744
  0
LINE
  8
_0-d_断熱__ハッチ
  6
CONTINUOUS
 62
    4
 10
1246.169393706482
 20
668.70404242381255
 11
1281.169393706482
 21
703.70404242381255
  0
LINE
  8
_0-d_断熱__ハッチ
  6
CONTINUOUS
 62
    4
 10
1217.8851224590244
 20
668.70404242381255
 11
1252.8851224590244
 21
703.70404242381483
  0
LINE
  8
_0-d_断熱__ハッチ
  6
CONTINUOUS
 62
    4
 10
1191.2008512115608
 20
670.30404242381337
 11
1224.6008512115623
 21
703.70404242381483
  0
LINE
  8
_0-d_断熱__ハッチ
  6
CONTINUOUS
 62
    4
 10
1162.9165799641032
 20
670.30404242381564
 11
1196.3165799641001
 21
703.70404242381255
  0
LINE
  8
_0-d_断熱__ハッチ
  6
CONTINUOUS
 62
    4
 10
1134.6323087166365
 20
670.30404242381337
 11
1168.0323087166335
 21
703.70404242381255
  0
LINE
  8
_0-d_断熱__ハッチ
  6
CONTINUOUS
 62
    4
 10
1106.348037469179
 20
670.30404242381564
 11
1139.7480374691804
 21
703.7040424238171
  0
LINE
  8
_0-d_断熱__ハッチ
  6
CONTINUOUS
 62
    4
 10
1053.5596282996812
 20
674.08417574924215
 11
1054.7774949742552
 21
675.30204242381615
  0
LINE
  8
_0-d_断熱__ハッチ
  6
CONTINUOUS
 62
    4
 10
1065.216572306781
 20
685.74111975634423
 11
1069.7774949742507
 21
690.30204242381387
  0
LINE
  8
_0-d_断熱__ハッチ
  6
CONTINUOUS
 62
    4
 10
1065.1923114240526
 20
684.34145344510171
 11
1079.2297224453387
 21
670.30404242381564
  0
LINE
  8
_0-d_断熱__ハッチ
  6
CONTINUOUS
 62
    4
 10
1187.251078682657
 20
703.70404242381255
 11
1222.251078682657
 21
668.70404242381483
  0
LINE
  8
_0-d_断熱__ハッチ
  6
CONTINUOUS
 62
    4
 10
1215.5353499301145
 20
703.70404242381255
 11
1250.5353499301191
 21
668.70404242381255
  0
LINE
  8
_0-d_断熱__ハッチ
  6
CONTINUOUS
 62
    4
 10
1243.8196211775812
 20
703.70404242381255
 11
1278.8196211775812
 21
668.70404242381255
  0
LINE
  8
_0-d_断熱__ハッチ
  6
CONTINUOUS
 62
    4
 10
1272.1038924250388
 20
703.70404242381483
 11
1295.6086814683158
 21
680.19925338053554
  0
LINE
  8
_0-2_線色２__白__
  6
CONTINUOUS
 62
    7
 10
807.69562829968891
 20
665.0700506237763
 11
842.69562829968891
 21
665.77005062377566
  0
LINE
  8
_0-2_線色２__白__
  6
CONTINUOUS
 62
    7
 10
807.69562829968891
 20
793.07419228604886
 11
842.69562829968891
 21
793.77419228604822
  0
LINE
  8
_0-2_線色２__白__
  6
CONTINUOUS
 62
    7
 10
840.79182237740088
 20
792.27135720959939
 11
840.79182237740088
 21
792.27135720959939
  0
LINE
  8
_0-2_線色２__白__
  6
CONTINUOUS
 62
    7
 10
840.79182237740088
 20
792.27135720959939
 11
839.92387513597009
 21
792.8143366143438
  0
LINE
  8
_0-2_線色２__白__
  6
CONTINUOUS
 62
    7
 10
839.92387513597009
 20
792.8143366143438
 11
838.94264700100291
 21
793.23057791241172
  0
LINE
  8
_0-2_線色２__白__
  6
CONTINUOUS
 62
    7
 10
838.94264700100291
 20
793.23057791241172
 11
837.87795209285468
 21
793.50743382258952
  0
LINE
  8
_0-2_線色２__白__
  6
CONTINUOUS
 62
    7
 10
837.87795209285468
 20
793.50743382258952
 11
836.76214062754809
 21
793.63649221814228
  0
LINE
  8
_0-2_線色２__白__
  6
CONTINUOUS
 62
    7
 10
836.76214062754809
 20
793.63649221814228
 11
835.62911597182847
 21
793.61383172502792
  0
LINE
  8
_0-2_線色２__白__
  6
CONTINUOUS
 62
    7
 10
835.62911597182847
 20
793.61383172502792
 11
834.51330450652188
 21
793.44014087086293
  0
LINE
  8
_0-2_線色２__白__
  6
CONTINUOUS
 62
    7
 10
834.51330450652188
 20
793.44014087086293
 11
833.44860959837365
 21
793.12069716435917
  0
LINE
  8
_0-2_線色２__白__
  6
CONTINUOUS
 62
    7
 10
833.44860959837365
 20
793.12069716435917
 11
832.46738146340635
 21
792.6652067408927
  0
LINE
  8
_0-2_線色２__白__
  6
CONTINUOUS
 62
    7
 10
832.46738146340635
 20
792.6652067408927
 11
831.59943422197557
 21
792.08750944649103
  0
LINE
  8
_0-2_線色２__白__
  6
CONTINUOUS
 62
    7
 10
831.59943422197557
 20
792.08750944649103
 11
830.87114001180953
 21
791.40515832111566
  0
LINE
  8
_0-2_線色２__白__
  6
CONTINUOUS
 62
    7
 10
830.87114001180953
 20
791.40515832111566
 11
830.30462768394978
 21
790.63888625842492
  0
LINE
  8
_0-2_線色２__白__
  6
CONTINUOUS
 62
    7
 10
830.30462768394978
 20
790.63888625842492
 11
829.917110428809
 21
789.8119760472913
  0
LINE
  8
_0-2_線色２__白__
  6
CONTINUOUS
 62
    7
 10
829.917110428809
 20
789.8119760472913
 11
829.72036276209155
 21
788.94955293604312
  0
LINE
  8
_0-2_線色２__白__
  6
CONTINUOUS
 62
    7
 10
829.72036276209155
 20
788.94955293604312
 11
829.72036276209144
 21
788.07782121450873
  0
LINE
  8
_0-2_線色２__白__
  6
CONTINUOUS
 62
    7
 10
829.72036276209144
 20
788.07782121450873
 11
829.91711042880877
 21
787.22326800992926
  0
LINE
  8
_0-2_線色２__白__
  6
CONTINUOUS
 62
    7
 10
829.91711042880877
 20
787.22326800992926
 11
830.30462768394955
 21
786.41185848900113
  0
LINE
  8
_0-2_線色２__白__
  6
CONTINUOUS
 62
    7
 10
830.30462768394955
 20
786.41185848900113
 11
830.87114001180919
 21
785.66824691942475
  0
LINE
  8
_0-2_線色２__白__
  6
CONTINUOUS
 62
    7
 10
830.87114001180919
 20
785.66824691942475
 11
831.59943422197512
 21
785.01502756245611
  0
LINE
  8
_0-2_線色２__白__
  6
CONTINUOUS
 62
    7
 10
831.59943422197512
 20
785.01502756245611
 11
832.4673814634059
 21
784.4720481577117
  0
LINE
  8
_0-2_線色２__白__
  6
CONTINUOUS
 62
    7
 10
832.4673814634059
 20
784.4720481577117
 11
833.44860959837308
 21
784.05580685964378
  0
LINE
  8
_0-2_線色２__白__
  6
CONTINUOUS
 62
    7
 10
833.44860959837308
 20
784.05580685964378
 11
834.51330450652131
 21
783.77895094946598
  0
LINE
  8
_0-2_線色２__白__
  6
CONTINUOUS
 62
    7
 10
834.51330450652131
 20
783.77895094946598
 11
835.6291159718279
 21
783.64989255391322
  0
LINE
  8
_0-2_線色２__白__
  6
CONTINUOUS
 62
    7
 10
835.6291159718279
 20
783.64989255391322
 11
836.76214062754752
 21
783.67255304702758
  0
LINE
  8
_0-2_線色２__白__
  6
CONTINUOUS
 62
    7
 10
836.76214062754752
 20
783.67255304702758
 11
837.87795209285412
 21
783.84624390119257
  0
LINE
  8
_0-2_線色２__白__
  6
CONTINUOUS
 62
    7
 10
837.87795209285412
 20
783.84624390119257
 11
838.94264700100234
 21
784.16568760769633
  0
LINE
  8
_0-2_線色２__白__
  6
CONTINUOUS
 62
    7
 10
838.94264700100234
 20
784.16568760769633
 11
839.92387513596964
 21
784.6211780311628
  0
LINE
  8
_0-2_線色２__白__
  6
CONTINUOUS
 62
    7
 10
839.92387513596964
 20
784.6211780311628
 11
840.79182237740042
 21
785.19887532556447
  0
LINE
  8
_0-2_線色２__白__
  6
CONTINUOUS
 62
    7
 10
840.79182237740042
 20
785.19887532556447
 11
841.52011658756635
 21
785.88122645093983
  0
LINE
  8
_0-2_線色２__白__
  6
CONTINUOUS
 62
    7
 10
841.52011658756635
 20
785.88122645093983
 11
842.08662891542622
 21
786.64749851363058
  0
LINE
  8
_0-2_線色２__白__
  6
CONTINUOUS
 62
    7
 10
842.08662891542622
 20
786.64749851363058
 11
842.474146170567
 21
787.4744087247642
  0
LINE
  8
_0-2_線色２__白__
  6
CONTINUOUS
 62
    7
 10
842.474146170567
 20
787.4744087247642
 11
842.67089383728444
 21
788.33683183601238
  0
LINE
  8
_0-2_線色２__白__
  6
CONTINUOUS
 62
    7
 10
842.67089383728444
 20
788.33683183601238
 11
842.67089383728455
 21
789.20856355754677
  0
LINE
  8
_0-2_線色２__白__
  6
CONTINUOUS
 62
    7
 10
842.67089383728455
 20
789.20856355754677
 11
842.47414617056722
 21
790.06311676212624
  0
LINE
  8
_0-2_線色２__白__
  6
CONTINUOUS
 62
    7
 10
842.47414617056722
 20
790.06311676212624
 11
842.08662891542656
 21
790.87452628305437
  0
LINE
  8
_0-2_線色２__白__
  6
CONTINUOUS
 62
    7
 10
842.08662891542656
 20
790.87452628305437
 11
841.5201165875668
 21
791.61813785263064
  0
LINE
  8
_0-2_線色２__白__
  6
CONTINUOUS
 62
    7
 10
841.5201165875668
 20
791.61813785263064
 11
840.79182237740088
 21
792.27135720959939
  0
LINE
  8
_0-2_線色２__白__
  6
CONTINUOUS
 62
    7
 10
840.79182237740088
 20
792.27135720959939
 11
840.79182237740088
 21
792.27135720959939
  0
LINE
  8
_0-2_線色２__白__
  6
CONTINUOUS
 62
    7
 10
840.79182237740088
 20
674.26921534736687
 11
840.79182237740088
 21
674.26921534736687
  0
LINE
  8
_0-2_線色２__白__
  6
CONTINUOUS
 62
    7
 10
840.79182237740088
 20
674.26921534736687
 11
839.92387513597009
 21
674.8121947521114
  0
LINE
  8
_0-2_線色２__白__
  6
CONTINUOUS
 62
    7
 10
839.92387513597009
 20
674.8121947521114
 11
838.9426470010028
 21
675.22843605017931
  0
LINE
  8
_0-2_線色２__白__
  6
CONTINUOUS
 62
    7
 10
838.9426470010028
 20
675.22843605017931
 11
837.87795209285468
 21
675.50529196035711
  0
LINE
  8
_0-2_線色２__白__
  6
CONTINUOUS
 62
    7
 10
837.87795209285468
 20
675.50529196035711
 11
836.76214062754809
 21
675.63435035590999
  0
LINE
  8
_0-2_線色２__白__
  6
CONTINUOUS
 62
    7
 10
836.76214062754809
 20
675.63435035590999
 11
835.62911597182847
 21
675.61168986279563
  0
LINE
  8
_0-2_線色２__白__
  6
CONTINUOUS
 62
    7
 10
835.62911597182847
 20
675.61168986279563
 11
834.51330450652176
 21
675.43799900863064
  0
LINE
  8
_0-2_線色２__白__
  6
CONTINUOUS
 62
    7
 10
834.51330450652176
 20
675.43799900863064
 11
833.44860959837365
 21
675.11855530212699
  0
LINE
  8
_0-2_線色２__白__
  6
CONTINUOUS
 62
    7
 10
833.44860959837365
 20
675.11855530212699
 11
832.46738146340635
 21
674.66306487866052
  0
LINE
  8
_0-2_線色２__白__
  6
CONTINUOUS
 62
    7
 10
832.46738146340635
 20
674.66306487866052
 11
831.59943422197546
 21
674.08536758425885
  0
LINE
  8
_0-2_線色２__白__
  6
CONTINUOUS
 62
    7
 10
831.59943422197546
 20
674.08536758425885
 11
830.87114001180953
 21
673.4030164588836
  0
LINE
  8
_0-2_線色２__白__
  6
CONTINUOUS
 62
    7
 10
830.87114001180953
 20
673.4030164588836
 11
830.30462768394978
 21
672.63674439619285
  0
LINE
  8
_0-2_線色２__白__
  6
CONTINUOUS
 62
    7
 10
830.30462768394978
 20
672.63674439619285
 11
829.917110428809
 21
671.80983418505923
  0
LINE
  8
_0-2_線色２__白__
  6
CONTINUOUS
 62
    7
 10
829.917110428809
 20
671.80983418505923
 11
829.72036276209155
 21
670.94741107381105
  0
LINE
  8
_0-2_線色２__白__
  6
CONTINUOUS
 62
    7
 10
829.72036276209155
 20
670.94741107381105
 11
829.72036276209144
 21
670.07567935227667
  0
LINE
  8
_0-2_線色２__白__
  6
CONTINUOUS
 62
    7
 10
829.72036276209144
 20
670.07567935227667
 11
829.91711042880877
 21
669.22112614769719
  0
LINE
  8
_0-2_線色２__白__
  6
CONTINUOUS
 62
    7
 10
829.91711042880877
 20
669.22112614769719
 11
830.30462768394955
 21
668.40971662676907
  0
LINE
  8
_0-2_線色２__白__
  6
CONTINUOUS
 62
    7
 10
830.30462768394955
 20
668.40971662676907
 11
830.8711400118093
 21
667.66610505719268
  0
LINE
  8
_0-2_線色２__白__
  6
CONTINUOUS
 62
    7
 10
830.8711400118093
 20
667.66610505719268
 11
831.59943422197512
 21
667.01288570022405
  0
LINE
  8
_0-2_線色２__白__
  6
CONTINUOUS
 62
    7
 10
831.59943422197512
 20
667.01288570022405
 11
832.4673814634059
 21
666.46990629547952
  0
LINE
  8
_0-2_線色２__白__
  6
CONTINUOUS
 62
    7
 10
832.4673814634059
 20
666.46990629547952
 11
833.44860959837308
 21
666.0536649974116
  0
LINE
  8
_0-2_線色２__白__
  6
CONTINUOUS
 62
    7
 10
833.44860959837308
 20
666.0536649974116
 11
834.51330450652131
 21
665.7768090872338
  0
LINE
  8
_0-2_線色２__白__
  6
CONTINUOUS
 62
    7
 10
834.51330450652131
 20
665.7768090872338
 11
835.6291159718279
 21
665.64775069168093
  0
LINE
  8
_0-2_線色２__白__
  6
CONTINUOUS
 62
    7
 10
835.6291159718279
 20
665.64775069168093
 11
836.76214062754752
 21
665.67041118479528
  0
LINE
  8
_0-2_線色２__白__
  6
CONTINUOUS
 62
    7
 10
836.76214062754752
 20
665.67041118479528
 11
837.87795209285412
 21
665.84410203896027
  0
LINE
  8
_0-2_線色２__白__
  6
CONTINUOUS
 62
    7
 10
837.87795209285412
 20
665.84410203896027
 11
838.94264700100234
 21
666.16354574546392
  0
LINE
  8
_0-2_線色２__白__
  6
CONTINUOUS
 62
    7
 10
838.94264700100234
 20
666.16354574546392
 11
839.92387513596964
 21
666.61903616893039
  0
LINE
  8
_0-2_線色２__白__
  6
CONTINUOUS
 62
    7
 10
839.92387513596964
 20
666.61903616893039
 11
840.79182237740054
 21
667.19673346333207
  0
LINE
  8
_0-2_線色２__白__
  6
CONTINUOUS
 62
    7
 10
840.79182237740054
 20
667.19673346333207
 11
841.52011658756646
 21
667.87908458870731
  0
LINE
  8
_0-2_線色２__白__
  6
CONTINUOUS
 62
    7
 10
841.52011658756646
 20
667.87908458870731
 11
842.08662891542622
 21
668.64535665139806
  0
LINE
  8
_0-2_線色２__白__
  6
CONTINUOUS
 62
    7
 10
842.08662891542622
 20
668.64535665139806
 11
842.474146170567
 21
669.47226686253168
  0
LINE
  8
_0-2_線色２__白__
  6
CONTINUOUS
 62
    7
 10
842.474146170567
 20
669.47226686253168
 11
842.67089383728444
 21
670.33468997377986
  0
LINE
  8
_0-2_線色２__白__
  6
CONTINUOUS
 62
    7
 10
842.67089383728444
 20
670.33468997377986
 11
842.67089383728455
 21
671.20642169531425
  0
LINE
  8
_0-2_線色２__白__
  6
CONTINUOUS
 62
    7
 10
842.67089383728455
 20
671.20642169531425
 11
842.47414617056722
 21
672.06097489989372
  0
LINE
  8
_0-2_線色２__白__
  6
CONTINUOUS
 62
    7
 10
842.47414617056722
 20
672.06097489989372
 11
842.08662891542645
 21
672.87238442082185
  0
LINE
  8
_0-2_線色２__白__
  6
CONTINUOUS
 62
    7
 10
842.08662891542645
 20
672.87238442082185
 11
841.52011658756669
 21
673.61599599039823
  0
LINE
  8
_0-2_線色２__白__
  6
CONTINUOUS
 62
    7
 10
841.52011658756669
 20
673.61599599039823
 11
840.79182237740088
 21
674.26921534736687
  0
LINE
  8
_0-2_線色２__白__
  6
CONTINUOUS
 62
    7
 10
840.79182237740088
 20
674.26921534736687
 11
840.79182237740088
 21
674.26921534736687
  0
LINE
  8
_0-2_線色２__白__
  6
CONTINUOUS
 62
    7
 10
841.32984368325651
 20
667.67680989001519
 11
831.06141291611948
 21
673.60529115757572
  0
LINE
  8
_0-2_線色２__白__
  6
CONTINUOUS
 62
    7
 10
830.93168612952468
 20
667.60191209485356
 11
841.45957046984677
 21
673.68018895273735
  0
LINE
  8
_0-2_線色２__白__
  6
CONTINUOUS
 62
    7
 10
830.93168612952468
 20
785.60405395708813
 11
841.45957046984677
 21
791.68233081496965
  0
LINE
  8
_0-2_線色２__白__
  6
CONTINUOUS
 62
    7
 10
841.32984368325651
 20
785.67895175224749
 11
831.06141291611948
 21
791.60743301981029
  0
LINE
  8
_0-2_線色２__白__
  6
CONTINUOUS
 62
    7
 10
1105.974674837862
 20
708.70404242381255
 11
1295.6086814683158
 21
708.70404242381255
  0
LINE
  8
_0-2_線色２__白__
  6
CONTINUOUS
 62
    7
 10
1081.7976282996869
 20
688.97191540489302
 11
1107.3144208000167
 21
703.70404242381255
  0
LINE
  8
_0-2_線色２__白__
  6
CONTINUOUS
 62
    7
 10
1107.3144208000167
 20
703.70404242381255
 11
1295.6086814683158
 21
703.70404242381255
  0
LINE
  8
_0-2_線色２__白__
  6
CONTINUOUS
 62
    7
 10
1079.2976282996869
 20
693.30204242381342
 11
1081.7976282996869
 21
688.97191540489302
  0
LINE
  8
_0-4_線色４__黄__
  6
CONTINUOUS
 62
    2
 10
1077.9578823375323
 20
698.30204242381342
 11
1048.3258035236395
 21
698.30204242381342
  0
ARC
  8
_0-1_線色１__水色__
  6
CONTINUOUS
 62
    4
 10
1090.288195590374
 20
697.86728608382191
 40
1.2083333333333581
 50
337.52351319535012
 51
262.47648679666088
  0
ARC
  8
_0-1_線色１__水色__
  6
CONTINUOUS
 62
    4
 10
1089.9717740451979
 20
695.47142398772166
 40
1.2083333333333177
 50
157.52351319811916
 51
82.476486793893059
  0
ARC
  8
_0-1_線色１__水色__
  6
CONTINUOUS
 62
    4
 10
1092.8377053471922
 20
699.33924622798486
 40
1.2083333333333581
 50
337.52351319535012
 51
262.47648679666088
  0
ARC
  8
_0-1_線色１__水色__
  6
CONTINUOUS
 62
    4
 10
1092.5212838020207
 20
696.94338413188689
 40
1.2083333333333177
 50
157.52351319811916
 51
82.476486793893059
  0
ARC
  8
_0-1_線色１__水色__
  6
CONTINUOUS
 62
    4
 10
1095.3872151040105
 20
700.81120637215008
 40
1.2083333333333581
 50
337.52351319535012
 51
262.47648679666088
  0
ARC
  8
_0-1_線色１__水色__
  6
CONTINUOUS
 62
    4
 10
1095.0707935588389
 20
698.41534427604984
 40
1.2083333333333177
 50
157.52351319811916
 51
82.476486793893059
  0
ARC
  8
_0-1_線色１__水色__
  6
CONTINUOUS
 62
    4
 10
1097.9367248608287
 20
702.28316651631303
 40
1.2083333333333581
 50
337.52351319535012
 51
262.47648679666088
  0
ARC
  8
_0-1_線色１__水色__
  6
CONTINUOUS
 62
    4
 10
1097.6203033156571
 20
699.88730442021506
 40
1.2083333333333177
 50
157.52351319811916
 51
82.476486793893059
  0
ARC
  8
_0-1_線色１__水色__
  6
CONTINUOUS
 62
    4
 10
1100.4862346176469
 20
703.75512666047825
 40
1.2083333333333581
 50
337.52351319535012
 51
262.47648679666088
  0
ARC
  8
_0-1_線色１__水色__
  6
CONTINUOUS
 62
    4
 10
1100.1698130724753
 20
701.35926456437801
 40
1.2083333333333177
 50
157.52351319811916
 51
82.476486793893059
  0
ARC
  8
_0-1_線色１__水色__
  6
CONTINUOUS
 62
    4
 10
1105.5852541312879
 20
706.69904694880643
 40
1.2083333333333581
 50
337.52351319535012
 51
262.47648679666088
  0
ARC
  8
_0-1_線色１__水色__
  6
CONTINUOUS
 62
    4
 10
1103.0357443744697
 20
705.2270868046412
 40
1.2083333333333581
 50
337.52351319535012
 51
262.47648679666088
  0
ARC
  8
_0-1_線色１__水色__
  6
CONTINUOUS
 62
    4
 10
1102.7193228292936
 20
702.83122470854096
 40
1.2083333333333177
 50
157.52351319811916
 51
82.476486793893059
  0
ARC
  8
_0-1_線色１__水色__
  6
CONTINUOUS
 62
    4
 10
1150.1246224951319
 20
707.16237576291405
 40
1.2083333333333581
 50
307.52351320333912
 51
232.47648680464988
  0
ARC
  8
_0-1_線色１__水色__
  6
CONTINUOUS
 62
    4
 10
1147.1807022064513
 20
707.16237576270714
 40
1.2083333333333581
 50
307.52351320333912
 51
232.47648680464988
  0
ARC
  8
_0-1_線色１__水色__
  6
CONTINUOUS
 62
    4
 10
1148.652662350928
 20
705.24570909610702
 40
1.2083333333333179
 50
127.52351320610693
 51
52.47648680188081
  0
ARC
  8
_0-1_線色１__水色__
  6
CONTINUOUS
 62
    4
 10
1144.2367819177662
 20
707.16237576250251
 40
1.2083333333333581
 50
307.52351320333912
 51
232.47648680464988
  0
ARC
  8
_0-1_線色１__水色__
  6
CONTINUOUS
 62
    4
 10
1145.7087420622429
 20
705.24570909590238
 40
1.2083333333333179
 50
127.52351320610693
 51
52.47648680188081
  0
ARC
  8
_0-1_線色１__水色__
  6
CONTINUOUS
 62
    4
 10
1141.2928616290856
 20
707.16237576229787
 40
1.2083333333333581
 50
307.52351320333912
 51
232.47648680464988
  0
ARC
  8
_0-1_線色１__水色__
  6
CONTINUOUS
 62
    4
 10
1142.7648217735577
 20
705.24570909569775
 40
1.2083333333333179
 50
127.52351320610693
 51
52.47648680188081
  0
ARC
  8
_0-1_線色１__水色__
  6
CONTINUOUS
 62
    4
 10
1138.3489413404004
 20
707.16237576209323
 40
1.2083333333333581
 50
307.52351320333912
 51
232.47648680464988
  0
ARC
  8
_0-1_線色１__水色__
  6
CONTINUOUS
 62
    4
 10
1139.8209014848771
 20
705.24570909549311
 40
1.2083333333333179
 50
127.52351320610693
 51
52.47648680188081
  0
ARC
  8
_0-1_線色１__水色__
  6
CONTINUOUS
 62
    4
 10
1135.4050210517153
 20
707.16237576188632
 40
1.2083333333333581
 50
307.52351320333912
 51
232.47648680464988
  0
ARC
  8
_0-1_線色１__水色__
  6
CONTINUOUS
 62
    4
 10
1136.876981196192
 20
705.24570909528848
 40
1.2083333333333179
 50
127.52351320610693
 51
52.47648680188081
  0
ARC
  8
_0-1_線色１__水色__
  6
CONTINUOUS
 62
    4
 10
1167.788144227211
 20
707.16237576291405
 40
1.2083333333333581
 50
307.52351320333912
 51
232.47648680464988
  0
ARC
  8
_0-1_線色１__水色__
  6
CONTINUOUS
 62
    4
 10
1164.8442239385258
 20
707.16237576270714
 40
1.2083333333333581
 50
307.52351320333912
 51
232.47648680464988
  0
ARC
  8
_0-1_線色１__水色__
  6
CONTINUOUS
 62
    4
 10
1166.3161840830026
 20
705.24570909610702
 40
1.2083333333333179
 50
127.52351320610693
 51
52.47648680188081
  0
ARC
  8
_0-1_線色１__水色__
  6
CONTINUOUS
 62
    4
 10
1161.9003036498452
 20
707.16237576250251
 40
1.2083333333333581
 50
307.52351320333912
 51
232.47648680464988
  0
ARC
  8
_0-1_線色１__水色__
  6
CONTINUOUS
 62
    4
 10
1163.3722637943174
 20
705.24570909590238
 40
1.2083333333333179
 50
127.52351320610693
 51
52.47648680188081
  0
ARC
  8
_0-1_線色１__水色__
  6
CONTINUOUS
 62
    4
 10
1158.9563833611601
 20
707.16237576229787
 40
1.2083333333333581
 50
307.52351320333912
 51
232.47648680464988
  0
ARC
  8
_0-1_線色１__水色__
  6
CONTINUOUS
 62
    4
 10
1160.4283435056368
 20
705.24570909569775
 40
1.2083333333333179
 50
127.52351320610693
 51
52.47648680188081
  0
ARC
  8
_0-1_線色１__水色__
  6
CONTINUOUS
 62
    4
 10
1156.0124630724795
 20
707.16237576209323
 40
1.2083333333333581
 50
307.52351320333912
 51
232.47648680464988
  0
ARC
  8
_0-1_線色１__水色__
  6
CONTINUOUS
 62
    4
 10
1157.4844232169517
 20
705.24570909549311
 40
1.2083333333333179
 50
127.52351320610693
 51
52.47648680188081
  0
ARC
  8
_0-1_線色１__水色__
  6
CONTINUOUS
 62
    4
 10
1153.0685427837943
 20
707.16237576188632
 40
1.2083333333333581
 50
307.52351320333912
 51
232.47648680464988
  0
ARC
  8
_0-1_線色１__水色__
  6
CONTINUOUS
 62
    4
 10
1154.5405029282711
 20
705.24570909528848
 40
1.2083333333333179
 50
127.52351320610693
 51
52.47648680188081
  0
ARC
  8
_0-1_線色１__水色__
  6
CONTINUOUS
 62
    4
 10
1151.5965826395859
 20
705.24570909508157
 40
1.2083333333333179
 50
127.52351320610693
 51
52.47648680188081
  0
ARC
  8
_0-1_線色１__水色__
  6
CONTINUOUS
 62
    4
 10
1169.260104371665
 20
705.24570909508157
 40
1.2083333333333179
 50
127.52351320610693
 51
52.47648680188081
  0
ARC
  8
_0-1_線色１__水色__
  6
CONTINUOUS
 62
    4
 10
1170.7320645158961
 20
707.16237576291405
 40
1.2083333333333581
 50
307.52351320333912
 51
232.47648680464988
  0
ARC
  8
_0-1_線色１__水色__
  6
CONTINUOUS
 62
    4
 10
1172.2040246603456
 20
705.24570909508157
 40
1.2083333333333179
 50
127.52351320610693
 51
52.47648680188081
  0
ARC
  8
_0-1_線色１__水色__
  6
CONTINUOUS
 62
    4
 10
1173.6759848045767
 20
707.16237576291405
 40
1.2083333333333581
 50
307.52351320333912
 51
232.47648680464988
  0
ARC
  8
_0-1_線色１__水色__
  6
CONTINUOUS
 62
    4
 10
1175.1479449490307
 20
705.24570909508157
 40
1.2083333333333179
 50
127.52351320610693
 51
52.47648680188081
  0
ARC
  8
_0-1_線色１__水色__
  6
CONTINUOUS
 62
    4
 10
1176.6199050932619
 20
707.16237576291405
 40
1.2083333333333581
 50
307.52351320333912
 51
232.47648680464988
  0
ARC
  8
_0-1_線色１__水色__
  6
CONTINUOUS
 62
    4
 10
1178.0918652377159
 20
705.24570909508157
 40
1.2083333333333179
 50
127.52351320610693
 51
52.47648680188081
  0
ARC
  8
_0-1_線色１__水色__
  6
CONTINUOUS
 62
    4
 10
1179.563825381947
 20
707.16237576291405
 40
1.2083333333333581
 50
307.52351320333912
 51
232.47648680464988
  0
ARC
  8
_0-1_線色１__水色__
  6
CONTINUOUS
 62
    4
 10
1181.035785526401
 20
705.24570909508157
 40
1.2083333333333179
 50
127.52351320610693
 51
52.47648680188081
  0
ARC
  8
_0-1_線色１__水色__
  6
CONTINUOUS
 62
    4
 10
1182.5077456706322
 20
707.16237576291405
 40
1.2083333333333581
 50
307.52351320333912
 51
232.47648680464988
  0
ARC
  8
_0-1_線色１__水色__
  6
CONTINUOUS
 62
    4
 10
1183.9797058150816
 20
705.24570909508157
 40
1.2083333333333179
 50
127.52351320610693
 51
52.47648680188081
  0
ARC
  8
_0-1_線色１__水色__
  6
CONTINUOUS
 62
    4
 10
1185.4516659593128
 20
707.16237576291405
 40
1.2083333333333581
 50
307.52351320333912
 51
232.47648680464988
  0
ARC
  8
_0-1_線色１__水色__
  6
CONTINUOUS
 62
    4
 10
1186.9236261037668
 20
705.24570909508157
 40
1.2083333333333179
 50
127.52351320610693
 51
52.47648680188081
  0
ARC
  8
_0-1_線色１__水色__
  6
CONTINUOUS
 62
    4
 10
1188.3955862479979
 20
707.16237576291405
 40
1.2083333333333581
 50
307.52351320333912
 51
232.47648680464988
  0
ARC
  8
_0-1_線色１__水色__
  6
CONTINUOUS
 62
    4
 10
1189.8675463924474
 20
705.24570909508157
 40
1.2083333333333179
 50
127.52351320610693
 51
52.47648680188081
  0
ARC
  8
_0-1_線色１__水色__
  6
CONTINUOUS
 62
    4
 10
1191.3395065366785
 20
707.16237576291405
 40
1.2083333333333581
 50
307.52351320333912
 51
232.47648680464988
  0
ARC
  8
_0-1_線色１__水色__
  6
CONTINUOUS
 62
    4
 10
1192.8114666811325
 20
705.24570909508157
 40
1.2083333333333179
 50
127.52351320610693
 51
52.47648680188081
  0
ARC
  8
_0-1_線色１__水色__
  6
CONTINUOUS
 62
    4
 10
1194.2834268253637
 20
707.16237576291405
 40
1.2083333333333581
 50
307.52351320333912
 51
232.47648680464988
  0
ARC
  8
_0-1_線色１__水色__
  6
CONTINUOUS
 62
    4
 10
1195.7553869698177
 20
705.24570909508157
 40
1.2083333333333179
 50
127.52351320610693
 51
52.47648680188081
  0
ARC
  8
_0-1_線色１__水色__
  6
CONTINUOUS
 62
    4
 10
1197.2273471140488
 20
707.16237576291405
 40
1.2083333333333581
 50
307.52351320333912
 51
232.47648680464988
  0
ARC
  8
_0-1_線色１__水色__
  6
CONTINUOUS
 62
    4
 10
1198.6993072584983
 20
705.24570909508157
 40
1.2083333333333179
 50
127.52351320610693
 51
52.47648680188081
  0
ARC
  8
_0-1_線色１__水色__
  6
CONTINUOUS
 62
    4
 10
1200.1712674027294
 20
707.16237576291405
 40
1.2083333333333581
 50
307.52351320333912
 51
232.47648680464988
  0
ARC
  8
_0-1_線色１__水色__
  6
CONTINUOUS
 62
    4
 10
1201.6432275471834
 20
705.24570909508157
 40
1.2083333333333179
 50
127.52351320610693
 51
52.47648680188081
  0
ARC
  8
_0-1_線色１__水色__
  6
CONTINUOUS
 62
    4
 10
1203.1151876914146
 20
707.16237576291405
 40
1.2083333333333581
 50
307.52351320333912
 51
232.47648680464988
  0
ARC
  8
_0-1_線色１__水色__
  6
CONTINUOUS
 62
    4
 10
1204.5871478358686
 20
705.24570909508157
 40
1.2083333333333179
 50
127.52351320610693
 51
52.47648680188081
  0
ARC
  8
_0-1_線色１__水色__
  6
CONTINUOUS
 62
    4
 10
1206.0591079800997
 20
707.16237576291405
 40
1.2083333333333581
 50
307.52351320333912
 51
232.47648680464988
  0
ARC
  8
_0-1_線色１__水色__
  6
CONTINUOUS
 62
    4
 10
1207.5310681245492
 20
705.24570909508157
 40
1.2083333333333179
 50
127.52351320610693
 51
52.47648680188081
  0
ARC
  8
_0-1_線色１__水色__
  6
CONTINUOUS
 62
    4
 10
1210.4749884129933
 20
705.24570909508157
 40
1.2083333333333179
 50
127.52351320610693
 51
52.47648680188081
  0
ARC
  8
_0-1_線色１__水色__
  6
CONTINUOUS
 62
    4
 10
1211.9469485572245
 20
707.16237576291405
 40
1.2083333333333581
 50
307.52351320333912
 51
232.47648680464988
  0
ARC
  8
_0-1_線色１__水色__
  6
CONTINUOUS
 62
    4
 10
1213.4189087016784
 20
705.24570909508157
 40
1.2083333333333179
 50
127.52351320610693
 51
52.47648680188081
  0
ARC
  8
_0-1_線色１__水色__
  6
CONTINUOUS
 62
    4
 10
1214.8908688459096
 20
707.16237576291405
 40
1.2083333333333581
 50
307.52351320333912
 51
232.47648680464988
  0
ARC
  8
_0-1_線色１__水色__
  6
CONTINUOUS
 62
    4
 10
1216.362828990359
 20
705.24570909508157
 40
1.2083333333333179
 50
127.52351320610693
 51
52.47648680188081
  0
ARC
  8
_0-1_線色１__水色__
  6
CONTINUOUS
 62
    4
 10
1209.0030282685393
 20
707.16237576291405
 40
1.2083333333333581
 50
307.52351320333912
 51
232.47648680464988
  0
ARC
  8
_0-1_線色１__水色__
  6
CONTINUOUS
 62
    4
 10
1219.3067492788032
 20
705.24570909508157
 40
1.2083333333333179
 50
127.52351320610693
 51
52.47648680188081
  0
ARC
  8
_0-1_線色１__水色__
  6
CONTINUOUS
 62
    4
 10
1220.7787094230343
 20
707.16237576291405
 40
1.2083333333333581
 50
307.52351320333912
 51
232.47648680464988
  0
ARC
  8
_0-1_線色１__水色__
  6
CONTINUOUS
 62
    4
 10
1222.2506695674883
 20
705.24570909508157
 40
1.2083333333333179
 50
127.52351320610693
 51
52.47648680188081
  0
ARC
  8
_0-1_線色１__水色__
  6
CONTINUOUS
 62
    4
 10
1223.7226297117195
 20
707.16237576291405
 40
1.2083333333333581
 50
307.52351320333912
 51
232.47648680464988
  0
ARC
  8
_0-1_線色１__水色__
  6
CONTINUOUS
 62
    4
 10
1225.1945898561689
 20
705.24570909508157
 40
1.2083333333333179
 50
127.52351320610693
 51
52.47648680188081
  0
ARC
  8
_0-1_線色１__水色__
  6
CONTINUOUS
 62
    4
 10
1217.8347891343492
 20
707.16237576291405
 40
1.2083333333333581
 50
307.52351320333912
 51
232.47648680464988
  0
ARC
  8
_0-1_線色１__水色__
  6
CONTINUOUS
 62
    4
 10
1228.1385101446131
 20
705.24570909508157
 40
1.2083333333333179
 50
127.52351320610693
 51
52.47648680188081
  0
ARC
  8
_0-1_線色１__水色__
  6
CONTINUOUS
 62
    4
 10
1229.6104702888442
 20
707.16237576291405
 40
1.2083333333333581
 50
307.52351320333912
 51
232.47648680464988
  0
ARC
  8
_0-1_線色１__水色__
  6
CONTINUOUS
 62
    4
 10
1231.0824304332982
 20
705.24570909508157
 40
1.2083333333333179
 50
127.52351320610693
 51
52.47648680188081
  0
ARC
  8
_0-1_線色１__水色__
  6
CONTINUOUS
 62
    4
 10
1232.5543905775294
 20
707.16237576291405
 40
1.2083333333333581
 50
307.52351320333912
 51
232.47648680464988
  0
ARC
  8
_0-1_線色１__水色__
  6
CONTINUOUS
 62
    4
 10
1234.0263507219788
 20
705.24570909508157
 40
1.2083333333333179
 50
127.52351320610693
 51
52.47648680188081
  0
ARC
  8
_0-1_線色１__水色__
  6
CONTINUOUS
 62
    4
 10
1226.6665500001591
 20
707.16237576291405
 40
1.2083333333333581
 50
307.52351320333912
 51
232.47648680464988
  0
ARC
  8
_0-1_線色１__水色__
  6
CONTINUOUS
 62
    4
 10
1236.9702710104229
 20
705.24570909508157
 40
1.2083333333333179
 50
127.52351320610693
 51
52.47648680188081
  0
ARC
  8
_0-1_線色１__水色__
  6
CONTINUOUS
 62
    4
 10
1238.4422311546541
 20
707.16237576291405
 40
1.2083333333333581
 50
307.52351320333912
 51
232.47648680464988
  0
ARC
  8
_0-1_線色１__水色__
  6
CONTINUOUS
 62
    4
 10
1239.9141912991081
 20
705.24570909508157
 40
1.2083333333333179
 50
127.52351320610693
 51
52.47648680188081
  0
ARC
  8
_0-1_線色１__水色__
  6
CONTINUOUS
 62
    4
 10
1241.3861514433393
 20
707.16237576291405
 40
1.2083333333333581
 50
307.52351320333912
 51
232.47648680464988
  0
ARC
  8
_0-1_線色１__水色__
  6
CONTINUOUS
 62
    4
 10
1242.8581115877887
 20
705.24570909508157
 40
1.2083333333333179
 50
127.52351320610693
 51
52.47648680188081
  0
ARC
  8
_0-1_線色１__水色__
  6
CONTINUOUS
 62
    4
 10
1235.498310865969
 20
707.16237576291405
 40
1.2083333333333581
 50
307.52351320333912
 51
232.47648680464988
  0
ARC
  8
_0-1_線色１__水色__
  6
CONTINUOUS
 62
    4
 10
1245.8020318762328
 20
705.24570909508157
 40
1.2083333333333179
 50
127.52351320610693
 51
52.47648680188081
  0
ARC
  8
_0-1_線色１__水色__
  6
CONTINUOUS
 62
    4
 10
1247.273992020464
 20
707.16237576291405
 40
1.2083333333333581
 50
307.52351320333912
 51
232.47648680464988
  0
ARC
  8
_0-1_線色１__水色__
  6
CONTINUOUS
 62
    4
 10
1248.745952164918
 20
705.24570909508157
 40
1.2083333333333179
 50
127.52351320610693
 51
52.47648680188081
  0
ARC
  8
_0-1_線色１__水色__
  6
CONTINUOUS
 62
    4
 10
1250.2179123091491
 20
707.16237576291405
 40
1.2083333333333581
 50
307.52351320333912
 51
232.47648680464988
  0
ARC
  8
_0-1_線色１__水色__
  6
CONTINUOUS
 62
    4
 10
1251.6898724535986
 20
705.24570909508157
 40
1.2083333333333179
 50
127.52351320610693
 51
52.47648680188081
  0
ARC
  8
_0-1_線色１__水色__
  6
CONTINUOUS
 62
    4
 10
1244.3300717317788
 20
707.16237576291405
 40
1.2083333333333581
 50
307.52351320333912
 51
232.47648680464988
  0
ARC
  8
_0-1_線色１__水色__
  6
CONTINUOUS
 62
    4
 10
1254.6337927420427
 20
705.24570909508157
 40
1.2083333333333179
 50
127.52351320610693
 51
52.47648680188081
  0
ARC
  8
_0-1_線色１__水色__
  6
CONTINUOUS
 62
    4
 10
1256.1057528862739
 20
707.16237576291405
 40
1.2083333333333581
 50
307.52351320333912
 51
232.47648680464988
  0
ARC
  8
_0-1_線色１__水色__
  6
CONTINUOUS
 62
    4
 10
1257.5777130307279
 20
705.24570909508157
 40
1.2083333333333179
 50
127.52351320610693
 51
52.47648680188081
  0
ARC
  8
_0-1_線色１__水色__
  6
CONTINUOUS
 62
    4
 10
1259.049673174959
 20
707.16237576291405
 40
1.2083333333333581
 50
307.52351320333912
 51
232.47648680464988
  0
ARC
  8
_0-1_線色１__水色__
  6
CONTINUOUS
 62
    4
 10
1260.5216333194085
 20
705.24570909508157
 40
1.2083333333333179
 50
127.52351320610693
 51
52.47648680188081
  0
ARC
  8
_0-1_線色１__水色__
  6
CONTINUOUS
 62
    4
 10
1253.1618325975887
 20
707.16237576291405
 40
1.2083333333333581
 50
307.52351320333912
 51
232.47648680464988
  0
ARC
  8
_0-1_線色１__水色__
  6
CONTINUOUS
 62
    4
 10
1263.4655536078526
 20
705.24570909508157
 40
1.2083333333333179
 50
127.52351320610693
 51
52.47648680188081
  0
ARC
  8
_0-1_線色１__水色__
  6
CONTINUOUS
 62
    4
 10
1264.9375137520838
 20
707.16237576291405
 40
1.2083333333333581
 50
307.52351320333912
 51
232.47648680464988
  0
ARC
  8
_0-1_線色１__水色__
  6
CONTINUOUS
 62
    4
 10
1266.4094738965377
 20
705.24570909508157
 40
1.2083333333333179
 50
127.52351320610693
 51
52.47648680188081
  0
ARC
  8
_0-1_線色１__水色__
  6
CONTINUOUS
 62
    4
 10
1267.8814340407689
 20
707.16237576291405
 40
1.2083333333333581
 50
307.52351320333912
 51
232.47648680464988
  0
ARC
  8
_0-1_線色１__水色__
  6
CONTINUOUS
 62
    4
 10
1269.3533941852183
 20
705.24570909508157
 40
1.2083333333333179
 50
127.52351320610693
 51
52.47648680188081
  0
ARC
  8
_0-1_線色１__水色__
  6
CONTINUOUS
 62
    4
 10
1261.9935934633986
 20
707.16237576291405
 40
1.2083333333333581
 50
307.52351320333912
 51
232.47648680464988
  0
ARC
  8
_0-1_線色１__水色__
  6
CONTINUOUS
 62
    4
 10
1272.2973144736625
 20
705.24570909508157
 40
1.2083333333333179
 50
127.52351320610693
 51
52.47648680188081
  0
ARC
  8
_0-1_線色１__水色__
  6
CONTINUOUS
 62
    4
 10
1273.7692746178936
 20
707.16237576291405
 40
1.2083333333333581
 50
307.52351320333912
 51
232.47648680464988
  0
ARC
  8
_0-1_線色１__水色__
  6
CONTINUOUS
 62
    4
 10
1275.2412347623476
 20
705.24570909508157
 40
1.2083333333333179
 50
127.52351320610693
 51
52.47648680188081
  0
ARC
  8
_0-1_線色１__水色__
  6
CONTINUOUS
 62
    4
 10
1276.7131949065788
 20
707.16237576291405
 40
1.2083333333333581
 50
307.52351320333912
 51
232.47648680464988
  0
ARC
  8
_0-1_線色１__水色__
  6
CONTINUOUS
 62
    4
 10
1278.1851550510282
 20
705.24570909508157
 40
1.2083333333333179
 50
127.52351320610693
 51
52.47648680188081
  0
ARC
  8
_0-1_線色１__水色__
  6
CONTINUOUS
 62
    4
 10
1270.8253543292085
 20
707.16237576291405
 40
1.2083333333333581
 50
307.52351320333912
 51
232.47648680464988
  0
ARC
  8
_0-1_線色１__水色__
  6
CONTINUOUS
 62
    4
 10
1281.1290753394724
 20
705.24570909508157
 40
1.2083333333333179
 50
127.52351320610693
 51
52.47648680188081
  0
ARC
  8
_0-1_線色１__水色__
  6
CONTINUOUS
 62
    4
 10
1282.6010354837035
 20
707.16237576291405
 40
1.2083333333333581
 50
307.52351320333912
 51
232.47648680464988
  0
ARC
  8
_0-1_線色１__水色__
  6
CONTINUOUS
 62
    4
 10
1279.6571151950184
 20
707.16237576291405
 40
1.2083333333333581
 50
307.52351320333912
 51
232.47648680464988
  0
ARC
  8
_0-1_線色１__水色__
  6
CONTINUOUS
 62
    4
 10
1132.4611007630347
 20
707.16237576250251
 40
1.2083333333333581
 50
307.52351320333912
 51
232.47648680464988
  0
ARC
  8
_0-1_線色１__水色__
  6
CONTINUOUS
 62
    4
 10
1129.5171804743495
 20
707.16237576229787
 40
1.2083333333333581
 50
307.52351320333912
 51
232.47648680464988
  0
ARC
  8
_0-1_線色１__水色__
  6
CONTINUOUS
 62
    4
 10
1130.9891406188262
 20
705.24570909569775
 40
1.2083333333333179
 50
127.52351320610693
 51
52.47648680188081
  0
ARC
  8
_0-1_線色１__水色__
  6
CONTINUOUS
 62
    4
 10
1126.5732601856689
 20
707.16237576209323
 40
1.2083333333333581
 50
307.52351320333912
 51
232.47648680464988
  0
ARC
  8
_0-1_線色１__水色__
  6
CONTINUOUS
 62
    4
 10
1128.0452203301411
 20
705.24570909549311
 40
1.2083333333333179
 50
127.52351320610693
 51
52.47648680188081
  0
ARC
  8
_0-1_線色１__水色__
  6
CONTINUOUS
 62
    4
 10
1123.6293398969838
 20
707.16237576188632
 40
1.2083333333333581
 50
307.52351320333912
 51
232.47648680464988
  0
ARC
  8
_0-1_線色１__水色__
  6
CONTINUOUS
 62
    4
 10
1125.1013000414605
 20
705.24570909528848
 40
1.2083333333333179
 50
127.52351320610693
 51
52.47648680188081
  0
ARC
  8
_0-1_線色１__水色__
  6
CONTINUOUS
 62
    4
 10
1133.9330609075068
 20
705.24570909590238
 40
1.2083333333333179
 50
127.52351320610693
 51
52.47648680188081
  0
ARC
  8
_0-1_線色１__水色__
  6
CONTINUOUS
 62
    4
 10
1120.6854196082986
 20
707.16237576250251
 40
1.2083333333333581
 50
307.52351320333912
 51
232.47648680464988
  0
ARC
  8
_0-1_線色１__水色__
  6
CONTINUOUS
 62
    4
 10
1117.741499319618
 20
707.16237576229787
 40
1.2083333333333581
 50
307.52351320333912
 51
232.47648680464988
  0
ARC
  8
_0-1_線色１__水色__
  6
CONTINUOUS
 62
    4
 10
1119.2134594640902
 20
705.24570909569775
 40
1.2083333333333179
 50
127.52351320610693
 51
52.47648680188081
  0
ARC
  8
_0-1_線色１__水色__
  6
CONTINUOUS
 62
    4
 10
1114.7975790309329
 20
707.16237576209323
 40
1.2083333333333581
 50
307.52351320333912
 51
232.47648680464988
  0
ARC
  8
_0-1_線色１__水色__
  6
CONTINUOUS
 62
    4
 10
1116.2695391754096
 20
705.24570909549311
 40
1.2083333333333179
 50
127.52351320610693
 51
52.47648680188081
  0
ARC
  8
_0-1_線色１__水色__
  6
CONTINUOUS
 62
    4
 10
1111.8536587422477
 20
707.16237576188632
 40
1.2083333333333581
 50
307.52351320333912
 51
232.47648680464988
  0
ARC
  8
_0-1_線色１__水色__
  6
CONTINUOUS
 62
    4
 10
1113.3256188867244
 20
705.24570909528848
 40
1.2083333333333179
 50
127.52351320610693
 51
52.47648680188081
  0
ARC
  8
_0-1_線色１__水色__
  6
CONTINUOUS
 62
    4
 10
1122.1573797527753
 20
705.24570909590238
 40
1.2083333333333179
 50
127.52351320610693
 51
52.47648680188081
  0
ARC
  8
_0-1_線色１__水色__
  6
CONTINUOUS
 62
    4
 10
1108.9097384535671
 20
707.16237576250251
 40
1.2083333333333581
 50
307.52351320333912
 51
232.47648680464988
  0
ARC
  8
_0-1_線色１__水色__
  6
CONTINUOUS
 62
    4
 10
1107.4377783093587
 20
705.24570909569775
 40
1.2083333333333179
 50
127.52351320610693
 51
52.47648680188081
  0
ARC
  8
_0-1_線色１__水色__
  6
CONTINUOUS
 62
    4
 10
1110.3816985980393
 20
705.24570909590238
 40
1.2083333333333179
 50
127.52351320610693
 51
52.47648680188081
  0
ARC
  8
_0-1_線色１__水色__
  6
CONTINUOUS
 62
    4
 10
1105.2688325861118
 20
704.30318485270618
 40
1.2083333333333177
 50
157.52351319811916
 51
5.8892754324127168
  0
ARC
  8
_0-1_線色１__水色__
  6
CONTINUOUS
 62
    4
 10
1105.2688325861118
 20
704.30318485270618
 40
1.2083333333333177
 50
42.861225635030301
 51
82.476486793893088
  0
ARC
  8
_0-1_線色１__水色__
  6
CONTINUOUS
 62
    4
 10
1087.7386858335421
 20
696.39532593963168
 40
1.2083333333333581
 50
337.52351319535012
 51
262.47648679666088
  0
ARC
  8
_0-1_線色１__水色__
  6
CONTINUOUS
 62
    4
 10
1087.4222642883706
 20
693.99946384353143
 40
1.2083333333333177
 50
157.52351319811916
 51
82.476486793893059
  0
ARC
  8
_0-1_線色１__水色__
  6
CONTINUOUS
 62
    4
 10
1085.1891760767148
 20
694.92336579544144
 40
1.2083333333333581
 50
337.52351319535012
 51
262.47648679666088
  0
ARC
  8
_0-1_線色１__水色__
  6
CONTINUOUS
 62
    4
 10
1084.8727545315387
 20
692.5275036993412
 40
1.2083333333333177
 50
157.52351319811916
 51
82.476486793893059
  0
ARC
  8
_0-1_線色１__水色__
  6
CONTINUOUS
 62
    4
 10
1082.639666319883
 20
693.45140565124893
 40
1.2083333333333581
 50
337.52351319535012
 51
262.47648679666088
  0
ARC
  8
_0-1_線色１__水色__
  6
CONTINUOUS
 62
    4
 10
1082.3232447747114
 20
691.05554355515096
 40
1.2083333333333177
 50
157.52351319811916
 51
82.476486793893059
  0
ARC
  8
_0-1_線色１__水色__
  6
CONTINUOUS
 62
    4
 10
1080.0901565630556
 20
691.9794455070587
 40
1.2083333333333581
 50
337.52351319535012
 51
121.18794046356159
  0
ARC
  8
_0-1_線色１__水色__
  6
CONTINUOUS
 62
    4
 10
1287.0169159166198
 20
705.2457090963162
 40
1.2083333333333179
 50
127.52351320610693
 51
52.47648680188081
  0
ARC
  8
_0-1_線色１__水色__
  6
CONTINUOUS
 62
    4
 10
1288.488876060851
 20
707.16237576414869
 40
1.2083333333333581
 50
307.52351320333912
 51
232.47648680464988
  0
ARC
  8
_0-1_線色１__水色__
  6
CONTINUOUS
 62
    4
 10
1289.960836205305
 20
705.2457090963162
 40
1.2083333333333179
 50
127.52351320610693
 51
52.47648680188081
  0
ARC
  8
_0-1_線色１__水色__
  6
CONTINUOUS
 62
    4
 10
1291.4327963495361
 20
707.16237576414869
 40
1.2083333333333581
 50
307.52351320333912
 51
232.47648680464988
  0
ARC
  8
_0-1_線色１__水色__
  6
CONTINUOUS
 62
    4
 10
1292.9047564939856
 20
705.2457090963162
 40
1.2083333333333179
 50
127.52351320610693
 51
52.47648680188081
  0
ARC
  8
_0-1_線色１__水色__
  6
CONTINUOUS
 62
    4
 10
1285.5449557721658
 20
707.16237576414869
 40
1.2083333333333581
 50
307.52351320333912
 51
232.47648680464988
  0
ARC
  8
_0-1_線色１__水色__
  6
CONTINUOUS
 62
    4
 10
1294.3767166379757
 20
707.16237576414869
 40
1.2083333333333581
 50
307.52351320333912
 51
232.47648680464988
  0
ARC
  8
_0-1_線色１__水色__
  6
CONTINUOUS
 62
    4
 10
1284.0729956281757
 20
705.2457090963162
 40
1.2083333333333179
 50
127.52351320610693
 51
52.47648680188081
  0
ARC
  8
_0-1_線色１__水色__
  6
CONTINUOUS
 62
    4
 10
1295.8486767824297
 20
705.2457090963162
 40
1.2083333333333179
 50
127.52351320610693
 51
258.54391440641695
  0
LINE
  8
_0-d_断熱__ハッチ
  6
CONTINUOUS
 62
    4
 10
1078.0637662217123
 20
670.30404242381337
 11
1111.4637662217092
 21
703.70404242381255
  0
LINE
  8
_0-d_断熱__ハッチ
  6
CONTINUOUS
 62
    4
 10
1130.6825361877327
 20
703.70404242381255
 11
1164.0825361877341
 21
670.30404242381337
  0
LINE
  8
_0-d_断熱__ハッチ
  6
CONTINUOUS
 62
    4
 10
1158.9668074351903
 20
703.70404242381255
 11
1192.3668074351917
 21
670.30404242381564
  0
LINE
  8
_0-d_断熱__ハッチ
  6
CONTINUOUS
 62
    4
 10
1104.1977028738984
 20
701.90460449018246
 11
1135.7982649402629
 21
670.30404242381564
  0
LINE
  8
_0-d_断熱__ハッチ
  6
CONTINUOUS
 62
    4
 10
1086.2661934305424
 20
691.55184268608309
 11
1107.5139936928099
 21
670.30404242381337
  0
LINE
  8
_0-a_文字
  6
CONTINUOUS
 62
    7
 10
1113.1298378893962
 20
833.70404242381483
 11
1133.1298378893962
 21
833.70404242381483
  0
TEXT
  8
_0-a_文字
 62
    7
 10
1138.1298378893973
 20
826.20404242381483
 40
14.999999999999858
 41
1.0000000000000004
 50
0
  1
プルーフシーラー
  0
LINE
  8
_0-a_文字
  6
CONTINUOUS
 62
    7
 10
1030.3251204342087
 20
690.28206468503868
 11
1113.1298378893962
 21
833.70404242381483
  0
LINE
  8
_0-a_文字
  6
CONTINUOUS
 62
    7
 10
1009.0423222866912
 20
858.70404242381483
 11
1029.0423222866912
 21
858.70404242381483
  0
LINE
  8
_0-a_文字
  6
CONTINUOUS
 62
    7
 10
980.52087257856329
 20
809.30344242381807
 11
1009.0423222866912
 21
858.70404242381483
  0
TEXT
  8
_0-a_文字
 62
    7
 10
1034.0423222866871
 20
851.2040424238138
 40
15.000000000000213
 41
0.9999999999999796
 50
0
  1
ディッピングドレイン 横型
  0
LINE
  8
_0-a_文字
  6
CONTINUOUS
 62
    7
 10
1236.2047159769918
 20
783.70404242381483
 11
1256.2047159769918
 21
783.70404242381483
  0
LINE
  8
_0-a_文字
  6
CONTINUOUS
 62
    7
 10
1221.7709592472511
 20
758.70404242381483
 11
1256.2047159769918
 21
758.70404242381483
  0
TEXT
  8
_0-a_文字
 62
    7
 10
1261.2047159769918
 20
776.20404242381494
 40
14.999999999999503
 41
1.0000000000000384
 50
0
  1
塩ビシート機械的固定工法
  0
LINE
  8
_0-a_文字
  6
CONTINUOUS
 62
    7
 10
1207.3372025175104
 20
733.70404242381483
 11
1256.2047159769918
 21
733.70404242381483
  0
TEXT
  8
_0-a_文字
 62
    7
 10
1261.2047159769929
 20
751.20404242381494
 40
14.999999999999147
 41
1.000000000000042
 50
0
  1
ラジアルシートＬ６００
  0
TEXT
  8
_0-a_文字
 62
    7
 10
1261.2047159769932
 20
726.20404242381267
 40
14.999999999999147
 41
1.0000000000000187
 50
0
  1
断熱材
  0
LINE
  8
_0-a_文字
  6
CONTINUOUS
 62
    7
 10
1179.9130647310039
 20
686.20404242381255
 11
1236.2047159769918
 21
783.70404242381483
  0
LINE
  8
_0-6_鋼板__アングル
  6
CONTINUOUS
 62
    2
 10
942.69562829968891
 20
900.30404242381564
 11
944.295628299692
 21
900.30404242381564
  0
LINE
  8
_0-6_鋼板__アングル
  6
CONTINUOUS
 62
    2
 10
1194.2956282996875
 20
670.30404242381337
 11
1194.2956282996875
 21
668.70404242381255
  0
LINE
  8
_0-6_鋼板__アングル
  6
CONTINUOUS
 62
    2
 10
959.29762829968695
 20
670.30404242381337
 11
1194.2956282996875
 21
670.30404242381337
  0
LINE
  8
_0-6_鋼板__アングル
  6
CONTINUOUS
 62
    2
 10
959.29762829968695
 20
668.70404242381255
 11
1194.2956282996875
 21
668.70404242381255
  0
LINE
  8
_0-6_鋼板__アングル
  6
CONTINUOUS
 62
    2
 10
959.29762829968695
 20
670.30404242381337
 11
959.29762829968695
 21
668.70404242381255
  0
LINE
  8
_0-6_鋼板__アングル
  6
CONTINUOUS
 62
    2
 10
942.69562829968891
 20
900.30404242381564
 11
942.69562829968891
 21
792.74024242381529
  0
LINE
  8
_0-6_鋼板__アングル
  6
CONTINUOUS
 62
    2
 10
942.69562829968891
 20
792.74024242381529
 11
944.295628299692
 21
792.74024242381529
  0
LINE
  8
_0-6_鋼板__アングル
  6
CONTINUOUS
 62
    2
 10
944.295628299692
 20
900.30404242381564
 11
944.295628299692
 21
792.74024242381529
  0
LINE
  8
_0-6_鋼板__アングル
  6
CONTINUOUS
 62
    4
 10
1143.8047100452513
 20
712.50404242381364
 11
1130.8047100452495
 21
712.50404242381364
  0
LINE
  8
_0-6_鋼板__アングル
  6
CONTINUOUS
 62
    2
 10
1130.8047100452495
 20
712.50404242381364
 11
1134.0547486041896
 21
709.59868350336819
  0
LINE
  8
_0-6_鋼板__アングル
  6
CONTINUOUS
 62
    2
 10
1133.254987803216
 20
708.70404242381255
 11
1134.0547486041896
 21
709.59868350336819
  0
LINE
  8
_0-6_鋼板__アングル
  6
CONTINUOUS
 62
    2
 10
1130.3465346707071
 20
711.30404242381246
 11
1133.254987803216
 21
708.70404242381255
  0
LINE
  8
_0-6_鋼板__アングル
  6
CONTINUOUS
 62
    2
 10
1143.8047100452513
 20
712.50404242381364
 11
1140.5546714863158
 21
709.59868350336819
  0
LINE
  8
_0-6_鋼板__アングル
  6
CONTINUOUS
 62
    2
 10
1141.3544322872849
 20
708.70404242381255
 11
1140.5546714863158
 21
709.59868350336819
  0
LINE
  8
_0-6_鋼板__アングル
  6
CONTINUOUS
 62
    2
 10
1144.2628854197983
 20
711.30404242381246
 11
1141.3544322872849
 21
708.70404242381255
  0
LINE
  8
_0-6_鋼板__アングル
  6
CONTINUOUS
 62
    4
 10
1134.0547100452522
 20
709.59864036996123
 11
1140.5546714863158
 21
709.59864036996123
  0
LINE
  8
_0-6_鋼板__アングル
  6
CONTINUOUS
 62
    4
 10
1133.254987803216
 20
708.70404242381255
 11
1141.3544322872849
 21
708.70404242381255
  0
LINE
  8
_0-6_鋼板__アングル
  6
CONTINUOUS
 62
    2
 10
1157.2887440510431
 20
711.30404242381246
 11
1157.2887440510431
 21
710.10404242381355
  0
LINE
  8
ADD_LINE
  6
DOT
 62
    4
 10
1137.3047100452504
 20
697.65689475916361
 11
1137.3047100452504
 21
731.84125094922592
  0
LINE
  8
ADD_LINE
  6
DOT
 62
    4
 10
1110.3056285137427
 20
708.70404242381255
 11
1110.3056285137427
 21
712.50404242381364
  0
LINE
  8
ADD_LINE
  6
DOT
 62
    4
 10
1111.5056285137416
 20
710.51169937140457
 11
1108.2961779356583
 21
710.51169937140457
  0
LINE
  8
_0-6_鋼板__アングル
  6
CONTINUOUS
 62
    2
 10
1144.2628854197983
 20
711.30404242381246
 11
1160.1467270481453
 21
711.30404242381246
  0
LINE
  8
_0-6_鋼板__アングル
  6
CONTINUOUS
 62
    2
 10
1163.1037915767592
 20
710.51169937140457
 11
1160.1467270481453
 21
711.30404242381246
  0
LINE
  8
_0-6_鋼板__アングル
  6
CONTINUOUS
 62
    2
 10
1143.8047100452513
 20
712.50404242381364
 11
1160.3047100452522
 21
712.50404242381364
  0
LINE
  8
_0-6_鋼板__アングル
  6
CONTINUOUS
 62
    2
 10
1160.3047100452522
 20
712.50404242381364
 11
1163.4143744308813
 21
711.67081036295031
  0
ARC
  8
_0-6_鋼板__アングル
  6
CONTINUOUS
 62
    2
 10
1163.1037915767592
 20
710.51169937140457
 40
1.2000000000000006
 50
254.99999999999449
 51
74.9999999999945
  0
LINE
  8
_0-6_鋼板__アングル
  6
CONTINUOUS
 62
    2
 10
1157.2887440510431
 20
710.10404242381355
 11
1159.9887440510429
 21
710.10404242381355
  0
LINE
  8
_0-6_鋼板__アングル
  6
CONTINUOUS
 62
    2
 10
1159.9887440510429
 20
710.10404242381355
 11
1162.7932087226372
 21
709.35258837985657
  0
LINE
  8
_0-6_鋼板__アングル
  6
CONTINUOUS
 62
    2
 10
1111.5056285137416
 20
710.51169937140457
 11
1114.4626930423556
 21
711.30404242381246
  0
LINE
  8
_0-6_鋼板__アングル
  6
CONTINUOUS
 62
    2
 10
1130.3465346707071
 20
711.30404242381246
 11
1114.4626930423556
 21
711.30404242381246
  0
LINE
  8
_0-6_鋼板__アングル
  6
CONTINUOUS
 62
    2
 10
1130.8047100452495
 20
712.50404242381364
 11
1114.3047100452532
 21
712.50404242381364
  0
LINE
  8
_0-6_鋼板__アングル
  6
CONTINUOUS
 62
    2
 10
1114.3047100452532
 20
712.50404242381364
 11
1111.1950456596196
 21
711.67081036295031
  0
ARC
  8
_0-6_鋼板__アングル
  6
CONTINUOUS
 62
    2
 10
1111.5056285137416
 20
710.51169937140457
 40
1.2000000000000002
 50
105.00000000000549
 51
285.00000000000546
  0
LINE
  8
_0-6_鋼板__アングル
  6
CONTINUOUS
 62
    2
 10
1114.6206760394625
 20
710.10404242381355
 11
1111.8162113678636
 21
709.35258837985657
  0
LINE
  8
_0-6_鋼板__アングル
  6
CONTINUOUS
 62
    2
 10
1117.3206760394623
 20
710.10404242381355
 11
1114.6206760394625
 21
710.10404242381355
  0
LINE
  8
_0-6_鋼板__アングル
  6
CONTINUOUS
 62
    2
 10
1117.3206760394623
 20
711.30404242381246
 11
1117.3206760394623
 21
710.10404242381355
  0
LINE
  8
_0-2_線色２__白__
  6
CONTINUOUS
 62
    7
 10
1130.3914554868607
 20
722.50404242381364
 11
1130.3732366993381
 21
722.63494737049314
  0
LINE
  8
_0-2_線色２__白__
  6
CONTINUOUS
 62
    7
 10
1130.3732366993381
 20
722.63494737049314
 11
1130.3401699196775
 21
722.86002130551196
  0
LINE
  8
_0-2_線色２__白__
  6
CONTINUOUS
 62
    7
 10
1130.3401699196775
 20
722.86002130551196
 11
1130.3025057038121
 21
723.08336121576986
  0
LINE
  8
_0-2_線色２__白__
  6
CONTINUOUS
 62
    7
 10
1130.3025057038121
 20
723.08336121576986
 11
1130.2573342819869
 21
723.30386961724116
  0
LINE
  8
_0-2_線色２__白__
  6
CONTINUOUS
 62
    7
 10
1130.2573342819869
 20
723.30386961724116
 11
1130.2017458844557
 21
723.52044902590023
  0
LINE
  8
_0-2_線色２__白__
  6
CONTINUOUS
 62
    7
 10
1130.2017458844557
 20
723.52044902590023
 11
1130.1328307414678
 21
723.73200195771915
  0
LINE
  8
_0-2_線色２__白__
  6
CONTINUOUS
 62
    7
 10
1130.1328307414678
 20
723.73200195771915
 11
1130.0856070431746
 21
723.85196706071156
  0
LINE
  8
_0-2_線色２__白__
  6
CONTINUOUS
 62
    7
 10
1130.0856070431746
 20
723.85196706071156
 11
1130.044665981909
 21
723.94408390030094
  0
LINE
  8
_0-2_線色２__白__
  6
CONTINUOUS
 62
    7
 10
1130.044665981909
 20
723.94408390030094
 11
1129.9662508092297
 21
724.099798203315
  0
LINE
  8
_0-2_線色２__白__
  6
CONTINUOUS
 62
    7
 10
1129.9662508092297
 20
724.099798203315
 11
1129.8791437949012
 21
724.25180180619463
  0
LINE
  8
_0-2_線色２__白__
  6
CONTINUOUS
 62
    7
 10
1129.8791437949012
 20
724.25180180619463
 11
1129.7847588057539
 21
724.40035432199693
  0
LINE
  8
_0-2_線色２__白__
  6
CONTINUOUS
 62
    7
 10
1129.7847588057539
 20
724.40035432199693
 11
1129.6845097086089
 21
724.54571536376761
  0
LINE
  8
_0-2_線色２__白__
  6
CONTINUOUS
 62
    7
 10
1129.6845097086089
 20
724.54571536376761
 11
1129.5798103702919
 21
724.68814454456378
  0
LINE
  8
_0-2_線色２__白__
  6
CONTINUOUS
 62
    7
 10
1129.5798103702919
 20
724.68814454456378
 11
1129.5176027906155
 21
724.76951239176969
  0
LINE
  8
_0-2_線色２__白__
  6
CONTINUOUS
 62
    7
 10
1129.5176027906155
 20
724.76951239176969
 11
1129.4433865166775
 21
724.86419598457132
  0
LINE
  8
_0-2_線色２__白__
  6
CONTINUOUS
 62
    7
 10
1129.4433865166775
 20
724.86419598457132
 11
1129.3131615765742
 21
725.0249147784325
  0
LINE
  8
_0-2_線色２__白__
  6
CONTINUOUS
 62
    7
 10
1129.3131615765742
 20
725.0249147784325
 11
1129.1803097573529
 21
725.18278154082282
  0
LINE
  8
_0-2_線色２__白__
  6
CONTINUOUS
 62
    7
 10
1129.1803097573529
 20
725.18278154082282
 11
1129.0451116192253
 21
725.33820203429059
  0
LINE
  8
_0-2_線色２__白__
  6
CONTINUOUS
 62
    7
 10
1129.0451116192253
 20
725.33820203429059
 11
1128.9078477224029
 21
725.49158202137733
  0
LINE
  8
_0-2_線色２__白__
  6
CONTINUOUS
 62
    7
 10
1128.9078477224029
 20
725.49158202137733
 11
1128.768798627093
 21
725.64332726463135
  0
LINE
  8
_0-2_線色２__白__
  6
CONTINUOUS
 62
    7
 10
1128.768798627093
 20
725.64332726463135
 11
1128.6874427291832
 21
725.7307503576385
  0
LINE
  8
_0-2_線色２__白__
  6
CONTINUOUS
 62
    7
 10
1128.6874427291832
 20
725.7307503576385
 11
1128.6018076557684
 21
725.82182053203724
  0
LINE
  8
_0-2_線色２__白__
  6
CONTINUOUS
 62
    7
 10
1128.6018076557684
 20
725.82182053203724
 11
1128.4526102974587
 21
725.97752228087074
  0
LINE
  8
_0-2_線色２__白__
  6
CONTINUOUS
 62
    7
 10
1128.4526102974587
 20
725.97752228087074
 11
1128.3008600838912
 21
726.13086825926985
  0
LINE
  8
_0-2_線色２__白__
  6
CONTINUOUS
 62
    7
 10
1128.3008600838912
 20
726.13086825926985
 11
1128.1458710043853
 21
726.28105589819143
  0
LINE
  8
_0-2_線色２__白__
  6
CONTINUOUS
 62
    7
 10
1128.1458710043853
 20
726.28105589819143
 11
1127.9869570482788
 21
726.42728262858782
  0
LINE
  8
_0-2_線色２__白__
  6
CONTINUOUS
 62
    7
 10
1127.9869570482788
 20
726.42728262858782
 11
1127.8234322049002
 21
726.56874588141591
  0
LINE
  8
_0-2_線色２__白__
  6
CONTINUOUS
 62
    7
 10
1127.8234322049002
 20
726.56874588141591
 11
1127.7262047633121
 21
726.64829568869663
  0
LINE
  8
_0-2_線色２__白__
  6
CONTINUOUS
 62
    7
 10
1127.7262047633121
 20
726.64829568869663
 11
1127.6385510637692
 21
726.71702104119277
  0
LINE
  8
_0-2_線色２__白__
  6
CONTINUOUS
 62
    7
 10
1127.6385510637692
 20
726.71702104119277
 11
1127.4839379638479
 21
726.8312338089936
  0
LINE
  8
_0-2_線色２__白__
  6
CONTINUOUS
 62
    7
 10
1127.4839379638479
 20
726.8312338089936
 11
1127.3249728206611
 21
726.9392064979229
  0
LINE
  8
_0-2_線色２__白__
  6
CONTINUOUS
 62
    7
 10
1127.3249728206611
 20
726.9392064979229
 11
1127.161726163431
 21
727.03998172934917
  0
LINE
  8
_0-2_線色２__白__
  6
CONTINUOUS
 62
    7
 10
1127.161726163431
 20
727.03998172934917
 11
1126.9942685214028
 21
727.13260212463638
  0
LINE
  8
_0-2_線色２__白__
  6
CONTINUOUS
 62
    7
 10
1126.9942685214028
 20
727.13260212463638
 11
1126.8226704237986
 21
727.2161103051485
  0
LINE
  8
_0-2_線色２__白__
  6
CONTINUOUS
 62
    7
 10
1126.8226704237986
 20
727.2161103051485
 11
1126.7212741626281
 21
727.25999257606873
  0
LINE
  8
_0-2_線色２__白__
  6
CONTINUOUS
 62
    7
 10
1126.7212741626281
 20
727.25999257606873
 11
1126.6073686698883
 21
727.30452128933166
  0
LINE
  8
_0-2_線色２__白__
  6
CONTINUOUS
 62
    7
 10
1126.6073686698883
 20
727.30452128933166
 11
1126.4074802120376
 21
727.37183191774648
  0
LINE
  8
_0-2_線色２__白__
  6
CONTINUOUS
 62
    7
 10
1126.4074802120376
 20
727.37183191774648
 11
1126.2037781131767
 21
727.42843546924405
  0
LINE
  8
_0-2_線色２__白__
  6
CONTINUOUS
 62
    7
 10
1126.2037781131767
 20
727.42843546924405
 11
1125.9969790363675
 21
727.47581034297355
  0
LINE
  8
_0-2_線色２__白__
  6
CONTINUOUS
 62
    7
 10
1125.9969790363675
 20
727.47581034297355
 11
1125.7877996446587
 21
727.51543493808413
  0
LINE
  8
_0-2_線色２__白__
  6
CONTINUOUS
 62
    7
 10
1125.7877996446587
 20
727.51543493808413
 11
1125.5769566011031
 21
727.54878765372041
  0
LINE
  8
_0-2_線色２__白__
  6
CONTINUOUS
 62
    7
 10
1125.5769566011031
 20
727.54878765372041
 11
1125.4541877530755
 21
727.56584101975477
  0
LINE
  8
_0-2_線色２__白__
  6
CONTINUOUS
 62
    7
 10
1125.4541877530755
 20
727.56584101975477
 11
1125.3057307829931
 21
727.58455801902073
  0
LINE
  8
_0-2_線色２__白__
  6
CONTINUOUS
 62
    7
 10
1125.3057307829931
 20
727.58455801902073
 11
1125.049410517704
 21
727.61146478011142
  0
LINE
  8
_0-2_線色２__白__
  6
CONTINUOUS
 62
    7
 10
1125.049410517704
 20
727.61146478011142
 11
1124.7930151891251
 21
727.63032302741067
  0
LINE
  8
_0-2_線色２__白__
  6
CONTINUOUS
 62
    7
 10
1124.7930151891251
 20
727.63032302741067
 11
1124.5369873524942
 21
727.63966911859598
  0
LINE
  8
_0-2_線色２__白__
  6
CONTINUOUS
 62
    7
 10
1124.5369873524942
 20
727.63966911859598
 11
1124.2817695630583
 21
727.63803941134938
  0
LINE
  8
_0-2_線色２__白__
  6
CONTINUOUS
 62
    7
 10
1124.2817695630583
 20
727.63803941134938
 11
1124.0278043760691
 21
727.62397026334611
  0
LINE
  8
_0-2_線色２__白__
  6
CONTINUOUS
 62
    7
 10
1124.0278043760691
 20
727.62397026334611
 11
1123.8812528998324
 21
727.60953365456544
  0
LINE
  8
_0-2_線色２__白__
  6
CONTINUOUS
 62
    7
 10
1123.8812528998324
 20
727.60953365456544
 11
1123.7739087082673
 21
727.59584386848019
  0
LINE
  8
_0-2_線色２__白__
  6
CONTINUOUS
 62
    7
 10
1123.7739087082673
 20
727.59584386848019
 11
1123.5894586474978
 21
727.56688423723972
  0
LINE
  8
_0-2_線色２__白__
  6
CONTINUOUS
 62
    7
 10
1123.5894586474978
 20
727.56688423723972
 11
1123.4054877900553
 21
727.53256875570059
  0
LINE
  8
_0-2_線色２__白__
  6
CONTINUOUS
 62
    7
 10
1123.4054877900553
 20
727.53256875570059
 11
1123.2216317541997
 21
727.4945539296732
  0
LINE
  8
_0-2_線色２__白__
  6
CONTINUOUS
 62
    7
 10
1123.2216317541997
 20
727.4945539296732
 11
1123.0375261581776
 21
727.45449626496793
  0
LINE
  8
_0-2_線色２__白__
  6
CONTINUOUS
 62
    7
 10
1123.0375261581776
 20
727.45449626496793
 11
1122.8528066202489
 21
727.41405226739289
  0
LINE
  8
_0-2_線色２__白__
  6
CONTINUOUS
 62
    7
 10
1122.8528066202489
 20
727.41405226739289
 11
1122.7452443947141
 21
727.39107048050528
  0
LINE
  8
_0-2_線色２__白__
  6
CONTINUOUS
 62
    7
 10
1122.7452443947141
 20
727.39107048050528
 11
1122.6231331633835
 21
727.36579675900657
  0
LINE
  8
_0-2_線色２__白__
  6
CONTINUOUS
 62
    7
 10
1122.6231331633835
 20
727.36579675900657
 11
1122.4123351398202
 21
727.3224472427728
  0
LINE
  8
_0-2_線色２__白__
  6
CONTINUOUS
 62
    7
 10
1122.4123351398202
 20
727.3224472427728
 11
1122.2026299159825
 21
727.2763140846223
  0
LINE
  8
_0-2_線色２__白__
  6
CONTINUOUS
 62
    7
 10
1122.2026299159825
 20
727.2763140846223
 11
1121.9956729667183
 21
727.2238280429201
  0
LINE
  8
_0-2_線色２__白__
  6
CONTINUOUS
 62
    7
 10
1121.9956729667183
 20
727.2238280429201
 11
1121.7931197668622
 21
727.16141987602214
  0
LINE
  8
_0-2_線色２__白__
  6
CONTINUOUS
 62
    7
 10
1121.7931197668622
 20
727.16141987602214
 11
1121.5966257912623
 21
727.0855203422866
  0
LINE
  8
_0-2_線色２__白__
  6
CONTINUOUS
 62
    7
 10
1121.5966257912623
 20
727.0855203422866
 11
1121.4860879651405
 21
727.03391040163069
  0
LINE
  8
_0-2_線色２__白__
  6
CONTINUOUS
 62
    7
 10
1121.4860879651405
 20
727.03391040163069
 11
1121.3867657339642
 21
726.9808249297057
  0
LINE
  8
_0-2_線色２__白__
  6
CONTINUOUS
 62
    7
 10
1121.3867657339642
 20
726.9808249297057
 11
1121.221341818773
 21
726.87753864860724
  0
LINE
  8
_0-2_線色２__白__
  6
CONTINUOUS
 62
    7
 10
1121.221341818773
 20
726.87753864860724
 11
1121.0632902474117
 21
726.7609890168751
  0
LINE
  8
_0-2_線色２__白__
  6
CONTINUOUS
 62
    7
 10
1121.0632902474117
 20
726.7609890168751
 11
1120.9126152009958
 21
726.63306234356241
  0
LINE
  8
_0-2_線色２__白__
  6
CONTINUOUS
 62
    7
 10
1120.9126152009958
 20
726.63306234356241
 11
1120.7693208606315
 21
726.4956449377155
  0
LINE
  8
_0-2_線色２__白__
  6
CONTINUOUS
 62
    7
 10
1120.7693208606315
 20
726.4956449377155
 11
1120.6334114074252
 21
726.35062310838521
  0
LINE
  8
_0-2_線色２__白__
  6
CONTINUOUS
 62
    7
 10
1120.6334114074252
 20
726.35062310838521
 11
1120.5579693274376
 21
726.26376940438831
  0
LINE
  8
_0-2_線色２__白__
  6
CONTINUOUS
 62
    7
 10
1120.5579693274376
 20
726.26376940438831
 11
1120.4736743030662
 21
726.1612020163966
  0
LINE
  8
_0-2_線色２__白__
  6
CONTINUOUS
 62
    7
 10
1120.4736743030662
 20
726.1612020163966
 11
1120.3355024437997
 21
725.97991700665943
  0
LINE
  8
_0-2_線色２__白__
  6
CONTINUOUS
 62
    7
 10
1120.3355024437997
 20
725.97991700665943
 11
1120.2053921767811
 21
725.79369233204034
  0
LINE
  8
_0-2_線色２__白__
  6
CONTINUOUS
 62
    7
 10
1120.2053921767811
 20
725.79369233204034
 11
1120.0821722747924
 21
725.60332627095022
  0
LINE
  8
_0-2_線色２__白__
  6
CONTINUOUS
 62
    7
 10
1120.0821722747924
 20
725.60332627095022
 11
1119.9646715106246
 21
725.40961710180682
  0
LINE
  8
_0-2_線色２__白__
  6
CONTINUOUS
 62
    7
 10
1119.9646715106246
 20
725.40961710180682
 11
1119.8517186570552
 21
725.21336310302331
  0
LINE
  8
_0-2_線色２__白__
  6
CONTINUOUS
 62
    7
 10
1119.8517186570552
 20
725.21336310302331
 11
1119.7878283301952
 21
725.09868430599454
  0
LINE
  8
_0-2_線色２__白__
  6
CONTINUOUS
 62
    7
 10
1119.7878283301952
 20
725.09868430599454
 11
1119.7205609626917
 21
724.97561771386017
  0
LINE
  8
_0-2_線色２__白__
  6
CONTINUOUS
 62
    7
 10
1119.7205609626917
 20
724.97561771386017
 11
1119.6065797214806
 21
724.76241095749174
  0
LINE
  8
_0-2_線色２__白__
  6
CONTINUOUS
 62
    7
 10
1119.6065797214806
 20
724.76241095749174
 11
1119.4944651731157
 21
724.54811395795332
  0
LINE
  8
_0-2_線色２__白__
  6
CONTINUOUS
 62
    7
 10
1119.4944651731157
 20
724.54811395795332
 11
1119.3834485638718
 21
724.33296469688003
  0
LINE
  8
_0-2_線色２__白__
  6
CONTINUOUS
 62
    7
 10
1119.3834485638718
 20
724.33296469688003
 11
1119.2727611400142
 21
724.11720115590015
  0
LINE
  8
_0-2_線色２__白__
  6
CONTINUOUS
 62
    7
 10
1119.2727611400142
 20
724.11720115590015
 11
1119.1616341478129
 21
723.90106131664425
  0
LINE
  8
_0-2_線色２__白__
  6
CONTINUOUS
 62
    7
 10
1119.1616341478129
 20
723.90106131664425
 11
1119.0966761531854
 21
723.77562156714248
  0
LINE
  8
_0-2_線色２__白__
  6
CONTINUOUS
 62
    7
 10
1119.0966761531854
 20
723.77562156714248
 11
1119.0082626990079
 21
723.60679338413547
  0
LINE
  8
_0-2_線色２__白__
  6
CONTINUOUS
 62
    7
 10
1119.0082626990079
 20
723.60679338413547
 11
1118.8517578830761
 21
723.31739761824792
  0
LINE
  8
_0-2_線色２__白__
  6
CONTINUOUS
 62
    7
 10
1118.8517578830761
 20
723.31739761824792
 11
1118.687536289849
 21
723.03268944199772
  0
LINE
  8
_0-2_線色２__白__
  6
CONTINUOUS
 62
    7
 10
1118.687536289849
 20
723.03268944199772
 11
1118.5126123024656
 21
722.75563601398062
  0
LINE
  8
_0-2_線色２__白__
  6
CONTINUOUS
 62
    7
 10
1118.5126123024656
 20
722.75563601398062
 11
1118.3240003040646
 21
722.4892044927924
  0
LINE
  8
_0-2_線色２__白__
  6
CONTINUOUS
 62
    7
 10
1118.3240003040646
 20
722.4892044927924
 11
1118.1187146777893
 21
722.23636203703563
  0
LINE
  8
_0-2_線色２__白__
  6
CONTINUOUS
 62
    7
 10
1118.1187146777893
 20
722.23636203703563
 11
1117.9908326699615
 21
722.0971091372553
  0
LINE
  8
_0-2_線色２__白__
  6
CONTINUOUS
 62
    7
 10
1117.9908326699615
 20
722.0971091372553
 11
1117.9446174976601
 21
722.05000413134485
  0
LINE
  8
_0-2_線色２__白__
  6
CONTINUOUS
 62
    7
 10
1117.9446174976601
 20
722.05000413134485
 11
1117.8629182361192
 21
721.97065903631028
  0
LINE
  8
_0-2_線色２__白__
  6
CONTINUOUS
 62
    7
 10
1117.8629182361192
 20
721.97065903631028
 11
1117.7787158437877
 21
721.89385892686687
  0
LINE
  8
_0-2_線色２__白__
  6
CONTINUOUS
 62
    7
 10
1117.7787158437877
 20
721.89385892686687
 11
1117.6920698682943
 21
721.81981002354178
  0
LINE
  8
_0-2_線色２__白__
  6
CONTINUOUS
 62
    7
 10
1117.6920698682943
 20
721.81981002354178
 11
1117.6030398572584
 21
721.74871854685307
  0
LINE
  8
_0-2_線色２__白__
  6
CONTINUOUS
 62
    7
 10
1117.6030398572584
 20
721.74871854685307
 11
1117.511685358304
 21
721.68079071732336
  0
LINE
  8
_0-2_線色２__白__
  6
CONTINUOUS
 62
    7
 10
1117.511685358304
 20
721.68079071732336
 11
1117.4576581334122
 21
721.64292342093177
  0
LINE
  8
_0-2_線色２__白__
  6
CONTINUOUS
 62
    7
 10
1117.4576581334122
 20
721.64292342093177
 11
1117.3680567223209
 21
721.58363073055398
  0
LINE
  8
_0-2_線色２__白__
  6
CONTINUOUS
 62
    7
 10
1117.3680567223209
 20
721.58363073055398
 11
1117.2098652781506
 21
721.48721746635829
  0
LINE
  8
_0-2_線色２__白__
  6
CONTINUOUS
 62
    7
 10
1117.2098652781506
 20
721.48721746635829
 11
1117.0484539911195
 21
721.39588905728942
  0
LINE
  8
_0-2_線色２__白__
  6
CONTINUOUS
 62
    7
 10
1117.0484539911195
 20
721.39588905728942
 11
1116.8855340428263
 21
721.30699834883671
  0
LINE
  8
_0-2_線色２__白__
  6
CONTINUOUS
 62
    7
 10
1116.8855340428263
 20
721.30699834883671
 11
1116.7228166148743
 21
721.21789818650086
  0
LINE
  8
_0-2_線色２__白__
  6
CONTINUOUS
 62
    7
 10
1116.7228166148743
 20
721.21789818650086
 11
1116.5620128888622
 21
721.12594141577574
  0
LINE
  8
_0-2_線色２__白__
  6
CONTINUOUS
 62
    7
 10
1116.5620128888622
 20
721.12594141577574
 11
1116.4702978805371
 21
721.07025447426395
  0
LINE
  8
_0-2_線色２__白__
  6
CONTINUOUS
 62
    7
 10
1116.4702978805371
 20
721.07025447426395
 11
1116.3778868881354
 21
721.01088970439378
  0
LINE
  8
_0-2_線色２__白__
  6
CONTINUOUS
 62
    7
 10
1116.3778868881354
 20
721.01088970439378
 11
1116.2219438859847
 21
720.90338794262379
  0
LINE
  8
_0-2_線色２__白__
  6
CONTINUOUS
 62
    7
 10
1116.2219438859847
 20
720.90338794262379
 11
1116.0696213437632
 21
720.79040475265629
  0
LINE
  8
_0-2_線色２__白__
  6
CONTINUOUS
 62
    7
 10
1116.0696213437632
 20
720.79040475265629
 11
1115.9201448550266
 21
720.67314470026076
  0
LINE
  8
_0-2_線色２__白__
  6
CONTINUOUS
 62
    7
 10
1115.9201448550266
 20
720.67314470026076
 11
1115.7727400133308
 21
720.55281235121356
  0
LINE
  8
_0-2_線色２__白__
  6
CONTINUOUS
 62
    7
 10
1115.7727400133308
 20
720.55281235121356
 11
1115.6266324122362
 21
720.43061227128646
  0
LINE
  8
_0-2_線色２__白__
  6
CONTINUOUS
 62
    7
 10
1115.6266324122362
 20
720.43061227128646
 11
1115.5421792428342
 21
720.35935509219371
  0
LINE
  8
_0-2_線色２__白__
  6
CONTINUOUS
 62
    7
 10
1115.5421792428342
 20
720.35935509219371
 11
1115.4363373792148
 21
720.26987450829438
  0
LINE
  8
_0-2_線色２__白__
  6
CONTINUOUS
 62
    7
 10
1115.4363373792148
 20
720.26987450829438
 11
1115.2547646009043
 21
720.11479145449812
  0
LINE
  8
_0-2_線色２__白__
  6
CONTINUOUS
 62
    7
 10
1115.2547646009043
 20
720.11479145449812
 11
1115.0755899482783
 21
719.95740228625664
  0
LINE
  8
_0-2_線色２__白__
  6
CONTINUOUS
 62
    7
 10
1115.0755899482783
 20
719.95740228625664
 11
1114.9002578220552
 21
719.79621208833123
  0
LINE
  8
_0-2_線色２__白__
  6
CONTINUOUS
 62
    7
 10
1114.9002578220552
 20
719.79621208833123
 11
1114.7302126229442
 21
719.62972594548319
  0
LINE
  8
_0-2_線色２__白__
  6
CONTINUOUS
 62
    7
 10
1114.7302126229442
 20
719.62972594548319
 11
1114.5668987516683
 21
719.45644894247152
  0
LINE
  8
_0-2_線色２__白__
  6
CONTINUOUS
 62
    7
 10
1114.5668987516683
 20
719.45644894247152
 11
1114.4758301697266
 21
719.35224763426277
  0
LINE
  8
_0-2_線色２__白__
  6
CONTINUOUS
 62
    7
 10
1114.4758301697266
 20
719.35224763426277
 11
1114.4241708970912
 21
719.29016035873929
  0
LINE
  8
_0-2_線色２__白__
  6
CONTINUOUS
 62
    7
 10
1114.4241708970912
 20
719.29016035873929
 11
1114.3378457867857
 21
719.18068761890254
  0
LINE
  8
_0-2_線色２__白__
  6
CONTINUOUS
 62
    7
 10
1114.3378457867857
 20
719.18068761890254
 11
1114.2554859146549
 21
719.06818636114167
  0
LINE
  8
_0-2_線色２__白__
  6
CONTINUOUS
 62
    7
 10
1114.2554859146549
 20
719.06818636114167
 11
1114.1776652239105
 21
718.95270542843036
  0
LINE
  8
_0-2_線色２__白__
  6
CONTINUOUS
 62
    7
 10
1114.1776652239105
 20
718.95270542843036
 11
1114.1049576577643
 21
718.83429366373775
  0
LINE
  8
_0-2_線色２__白__
  6
CONTINUOUS
 62
    7
 10
1114.1049576577643
 20
718.83429366373775
 11
1114.0379371594372
 21
718.71299991003525
  0
LINE
  8
_0-2_線色２__白__
  6
CONTINUOUS
 62
    7
 10
1114.0379371594372
 20
718.71299991003525
 11
1114.0018972483495
 21
718.64134825219253
  0
LINE
  8
_0-2_線色２__白__
  6
CONTINUOUS
 62
    7
 10
1114.0018972483495
 20
718.64134825219253
 11
1113.9552453949909
 21
718.53987236114108
  0
LINE
  8
_0-2_線色２__白__
  6
CONTINUOUS
 62
    7
 10
1113.9552453949909
 20
718.53987236114108
 11
1113.883758636639
 21
718.3611079820912
  0
LINE
  8
_0-2_線色２__白__
  6
CONTINUOUS
 62
    7
 10
1113.883758636639
 20
718.3611079820912
 11
1113.821807298018
 21
718.17828756394192
  0
LINE
  8
_0-2_線色２__白__
  6
CONTINUOUS
 62
    7
 10
1113.821807298018
 20
718.17828756394192
 11
1113.7673094097454
 21
717.9922967047537
  0
LINE
  8
_0-2_線色２__白__
  6
CONTINUOUS
 62
    7
 10
1113.7673094097454
 20
717.9922967047537
 11
1113.718183002461
 21
717.80402100257788
  0
LINE
  8
_0-2_線色２__白__
  6
CONTINUOUS
 62
    7
 10
1113.718183002461
 20
717.80402100257788
 11
1113.6723461067822
 21
717.61434605547493
  0
LINE
  8
_0-2_線色２__白__
  6
CONTINUOUS
 62
    7
 10
1113.6723461067822
 20
717.61434605547493
 11
1113.6464475573121
 21
717.50404242381364
  0
LINE
  8
_0-4_線色４__黄__
  6
CONTINUOUS
 62
    2
 10
1161.6212350211254
 20
722.50404242381364
 11
1124.3943234199287
 21
722.50404242381364
  0
LINE
  8
_0-4_線色４__黄__
  6
CONTINUOUS
 62
    2
 10
1161.6212350211254
 20
722.50404242381364
 11
1166.6383976194857
 21
721.15969775728672
  0
LINE
  8
_0-2_線色２__白__
  6
CONTINUOUS
 62
    7
 10
1160.9629725331888
 20
717.50404242381364
 11
1164.7084696563979
 21
716.50043949439578
  0
LINE
  8
_0-2_線色２__白__
  6
CONTINUOUS
 62
    7
 10
1164.7084696563979
 20
716.50043949439578
 11
1163.4143744308813
 21
711.67081036295031
  0
LINE
  8
_0-4_線色４__黄__
  6
CONTINUOUS
 62
    2
 10
1113.6464475573121
 20
717.50404242381364
 11
1124.3943234199287
 21
717.50404242381364
  0
LINE
  8
_0-4_線色４__黄__
  6
CONTINUOUS
 62
    2
 10
1124.3943234199287
 20
722.50404242381364
 11
1124.3943234199287
 21
717.50404242381364
  0
LINE
  8
_0-2_線色２__白__
  6
CONTINUOUS
 62
    7
 10
1124.3943234199287
 20
717.50404242381364
 11
1160.9629725331888
 21
717.50404242381364
  0
LINE
  8
_0-2_線色２__白__
  6
CONTINUOUS
 62
    7
 10
1164.7084696563979
 20
716.50043949439578
 11
1178.212225498628
 21
708.70404242381255
  0
LINE
  8
_0-2_線色２__白__
  6
CONTINUOUS
 62
    7
 10
1079.2976282996869
 20
693.30204242381342
 11
1110.9056285137422
 21
711.55092985594592
  0
LINE
  8
_0-4_線色４__黄__
  6
CONTINUOUS
 62
    2
 10
1166.6383976194857
 20
721.15969775728672
 11
1179.5519714607826
 21
713.70404242381255
  0
LINE
  8
_0-4_線色４__黄__
  6
CONTINUOUS
 62
    2
 10
1179.5519714607826
 20
713.70404242381255
 11
1295.6086814683158
 21
713.70404242381255
  0
LINE
  8
_0-4_線色４__黄__
  6
CONTINUOUS
 62
    2
 10
1077.9578823375323
 20
698.30204242381342
 11
1109.1125178395168
 21
716.28917961739035
  0
LINE
  8
_0-4_線色４__黄__
  6
CONTINUOUS
 62
    2
 10
1113.6464475573121
 20
717.50404242381364
 11
1109.1125178395168
 21
716.28917961739035
  0
LINE
  8
_0-6_鋼板__アングル
  6
CONTINUOUS
 62
    4
 10
964.49562829968727
 20
867.20404342441498
 11
964.49562829968727
 21
880.20404342441452
  0
LINE
  8
_0-6_鋼板__アングル
  6
CONTINUOUS
 62
    2
 10
964.49562829968727
 20
880.20404342441452
 11
961.59026937924409
 21
876.95400486547669
  0
LINE
  8
_0-6_鋼板__アングル
  6
CONTINUOUS
 62
    2
 10
960.69562829969072
 20
877.75376566644809
 11
961.59026937924409
 21
876.95400486547669
  0
LINE
  8
_0-6_鋼板__アングル
  6
CONTINUOUS
 62
    2
 10
963.29562829968836
 20
880.66221879896148
 11
960.69562829969072
 21
877.75376566644809
  0
LINE
  8
_0-6_鋼板__アングル
  6
CONTINUOUS
 62
    2
 10
964.49562829968727
 20
867.20404342441498
 11
961.59026937924409
 21
870.45408198335053
  0
LINE
  8
_0-6_鋼板__アングル
  6
CONTINUOUS
 62
    2
 10
960.69562829969072
 20
869.65432118237914
 11
961.59026937924409
 21
870.45408198335053
  0
LINE
  8
_0-6_鋼板__アングル
  6
CONTINUOUS
 62
    2
 10
963.29562829968836
 20
866.74586804986802
 11
960.69562829969072
 21
869.65432118237914
  0
LINE
  8
_0-6_鋼板__アングル
  6
CONTINUOUS
 62
    4
 10
961.5902262458394
 20
876.95404342441407
 11
961.5902262458394
 21
870.45408198335053
  0
LINE
  8
_0-6_鋼板__アングル
  6
CONTINUOUS
 62
    4
 10
960.69562829969072
 20
877.75376566644809
 11
960.69562829969072
 21
869.65432118237914
  0
LINE
  8
_0-6_鋼板__アングル
  6
CONTINUOUS
 62
    2
 10
963.29562829968836
 20
853.72000941862325
 11
962.09562829968945
 21
853.72000941862325
  0
LINE
  8
ADD_LINE
  6
DOT
 62
    4
 10
949.64848063504178
 20
873.70404342441361
 11
983.8328368251041
 21
873.70404342441361
  0
LINE
  8
ADD_LINE
  6
DOT
 62
    4
 10
960.69562829969072
 20
900.70312495592361
 11
964.49562829968727
 21
900.70312495592361
  0
LINE
  8
ADD_LINE
  6
DOT
 62
    4
 10
962.50328524728047
 20
899.50312495592243
 11
962.50328524728047
 21
902.71257553400801
  0
LINE
  8
_0-6_鋼板__アングル
  6
CONTINUOUS
 62
    2
 10
963.29562829968836
 20
866.74586804986802
 11
963.29562829968836
 21
850.86202642151875
  0
LINE
  8
_0-6_鋼板__アングル
  6
CONTINUOUS
 62
    2
 10
962.50328524728047
 20
847.90496189290479
 11
963.29562829968836
 21
850.86202642151875
  0
LINE
  8
_0-6_鋼板__アングル
  6
CONTINUOUS
 62
    2
 10
964.49562829968727
 20
867.20404342441498
 11
964.49562829968727
 21
850.70404342441407
  0
LINE
  8
_0-6_鋼板__アングル
  6
CONTINUOUS
 62
    2
 10
964.49562829968727
 20
850.70404342441407
 11
963.66239623882848
 21
847.59437903878279
  0
ARC
  8
_0-6_鋼板__アングル
  6
CONTINUOUS
 62
    2
 10
962.50328524728047
 20
847.90496189290479
 40
1.2000000000000006
 50
164.99999999999449
 51
344.99999999999449
  0
LINE
  8
_0-6_鋼板__アングル
  6
CONTINUOUS
 62
    2
 10
962.09562829968945
 20
853.72000941862325
 11
962.09562829968945
 21
851.02000941862343
  0
LINE
  8
_0-6_鋼板__アングル
  6
CONTINUOUS
 62
    2
 10
962.09562829968945
 20
851.02000941862343
 11
961.34417425573247
 21
848.21554474702907
  0
LINE
  8
_0-6_鋼板__アングル
  6
CONTINUOUS
 62
    2
 10
962.50328524728047
 20
899.50312495592243
 11
963.29562829968836
 21
896.54606042730848
  0
LINE
  8
_0-6_鋼板__アングル
  6
CONTINUOUS
 62
    2
 10
963.29562829968836
 20
880.66221879896148
 11
963.29562829968836
 21
896.54606042730848
  0
LINE
  8
_0-6_鋼板__アングル
  6
CONTINUOUS
 62
    2
 10
964.49562829968727
 20
880.20404342441452
 11
964.49562829968727
 21
896.70404342441543
  0
LINE
  8
_0-6_鋼板__アングル
  6
CONTINUOUS
 62
    2
 10
964.49562829968727
 20
896.70404342441543
 11
963.66239623882848
 21
899.81370781004671
  0
ARC
  8
_0-6_鋼板__アングル
  6
CONTINUOUS
 62
    2
 10
962.50328524728047
 20
899.50312495592243
 40
1.2000000000000002
 50
15.000000000005457
 51
195.00000000000551
  0
LINE
  8
_0-6_鋼板__アングル
  6
CONTINUOUS
 62
    2
 10
962.09562829968945
 20
896.38807743020379
 11
961.34417425573247
 21
899.19254210180043
  0
LINE
  8
_0-6_鋼板__アングル
  6
CONTINUOUS
 62
    2
 10
962.09562829968945
 20
893.68807743020398
 11
962.09562829968945
 21
896.38807743020379
  0
LINE
  8
_0-6_鋼板__アングル
  6
CONTINUOUS
 62
    2
 10
963.29562829968836
 20
893.68807743020398
 11
962.09562829968945
 21
893.68807743020398
  0
LINE
  8
_0-7_ビス
  6
CONTINUOUS
 62
    4
 10
953.29582494029637
 20
877.20404342441498
 11
954.49562829968727
 21
872.72646298247309
  0
LINE
  8
_0-7_ビス
  6
CONTINUOUS
 62
    4
 10
940.98960441092004
 20
877.20404342441498
 11
942.86531019100494
 21
870.20404342441452
  0
LINE
  8
_0-7_ビス
  6
CONTINUOUS
 62
    4
 10
942.98960441091822
 20
877.20404342441498
 11
944.86531019100767
 21
870.20404342441452
  0
LINE
  8
_0-7_ビス
  6
CONTINUOUS
 62
    4
 10
944.9896044109164
 20
877.20404342441498
 11
946.86531019100585
 21
870.20404342441452
  0
LINE
  8
_0-7_ビス
  6
CONTINUOUS
 62
    4
 10
946.98960441091913
 20
877.20404342441498
 11
948.86531019100858
 21
870.20404342441452
  0
LINE
  8
_0-7_ビス
  6
CONTINUOUS
 62
    4
 10
948.98960441091731
 20
877.20404342441498
 11
950.86531019100676
 21
870.20404342441452
  0
LINE
  8
_0-7_ビス
  6
CONTINUOUS
 62
    4
 10
950.98960441092004
 20
877.20404342441498
 11
952.86531019100494
 21
870.20404342441452
  0
LINE
  8
_0-7_ビス
  6
CONTINUOUS
 62
    4
 10
938.98960441091731
 20
877.20404342441498
 11
940.86531019100676
 21
870.20404342441452
  0
LINE
  8
_0-7_ビス
  6
CONTINUOUS
 62
    4
 10
926.68338388154098
 20
877.20404342441498
 11
928.55908966163042
 21
870.20404342441452
  0
LINE
  8
_0-7_ビス
  6
CONTINUOUS
 62
    4
 10
928.68338388153916
 20
877.20404342441498
 11
930.5590896616286
 21
870.20404342441452
  0
LINE
  8
_0-7_ビス
  6
CONTINUOUS
 62
    4
 10
930.68338388154189
 20
877.20404342441498
 11
932.55908966163133
 21
870.20404342441452
  0
LINE
  8
_0-7_ビス
  6
CONTINUOUS
 62
    4
 10
932.68338388154007
 20
877.20404342441498
 11
934.55908966162951
 21
870.20404342441452
  0
LINE
  8
_0-7_ビス
  6
CONTINUOUS
 62
    4
 10
934.6833838815428
 20
877.20404342441498
 11
936.5590896616277
 21
870.20404342441452
  0
LINE
  8
_0-7_ビス
  6
CONTINUOUS
 62
    4
 10
936.68338388154098
 20
877.20404342441498
 11
938.55908966163042
 21
870.20404342441452
  0
LINE
  8
_0-7_ビス
  6
CONTINUOUS
 62
    4
 10
924.6833838815428
 20
877.20404342441498
 11
926.5590896616277
 21
870.20404342441452
  0
LINE
  8
_0-7_ビス
  6
CONTINUOUS
 62
    4
 10
920.37716335216373
 20
877.20404342441498
 11
922.25286913225318
 21
870.20404342441452
  0
LINE
  8
_0-7_ビス
  6
CONTINUOUS
 62
    4
 10
922.37716335216192
 20
877.20404342441498
 11
924.25286913225136
 21
870.20404342441452
  0
LINE
  8
ADD_LINE
  6
DOT
 62
    4
 10
906.37626363773961
 20
873.70404342441361
 11
970.99298338035624
 21
873.70404342441361
  0
LINE
  8
_0-7_ビス
  6
CONTINUOUS
 62
    7
 10
964.11101291507293
 20
867.70404342441452
 11
964.49562829968727
 21
867.70404342441452
  0
LINE
  8
_0-7_ビス
  6
DASHED3
 62
    7
 10
961.94625876886221
 20
872.23657530815899
 11
964.49562829968727
 21
871.15402758826576
  0
LINE
  8
_0-7_ビス
  6
CONTINUOUS
 62
    7
 10
964.11101291507293
 20
879.70404342441498
 11
964.49562829968727
 21
879.70404342441498
  0
LINE
  8
_0-7_ビス
  6
DASHED3
 62
    7
 10
961.94625876886221
 20
875.17151154066823
 11
964.49562829968727
 21
876.25405926056374
  0
LINE
  8
_0-7_ビス
  6
CONTINUOUS
 62
    7
 10
964.11101291507293
 20
867.70404342441452
 11
964.11101291507293
 21
879.70404342441498
  0
LINE
  8
_0-7_ビス
  6
CONTINUOUS
 62
    7
 10
964.49562829968727
 20
867.70404342441452
 11
964.49562829968727
 21
879.70404342441498
  0
ARC
  8
_0-7_ビス
  6
DASHED3
 62
    7
 10
963.05680186712834
 20
873.70404342441361
 40
1.8403175392666382
 50
127.11750793457028
 51
232.88247680664062
  0
LINE
  8
_0-7_ビス
  6
CONTINUOUS
 62
    7
 10
962.19679935270051
 20
869.61825698678695
 11
964.11101291507293
 21
867.70404342441452
  0
ARC
  8
_0-7_ビス
  6
CONTINUOUS
 62
    7
 10
960.78258579032536
 20
868.20404342441407
 40
2
 50
45.000000000001528
 51
90.000000000000028
  0
LINE
  8
_0-7_ビス
  6
CONTINUOUS
 62
    7
 10
962.19679935270051
 20
877.78982986204028
 11
964.11101291507293
 21
879.70404342441498
  0
ARC
  8
_0-7_ビス
  6
CONTINUOUS
 62
    7
 10
960.78258579032536
 20
879.20404342441316
 40
2
 50
270
 51
314.99999999999852
  0
LINE
  8
_0-7_ビス
  6
CONTINUOUS
 62
    7
 10
960.49562829969091
 20
870.20404342441452
 11
960.49562829969091
 21
877.20404342441498
  0
LINE
  8
_0-7_ビス
  6
CONTINUOUS
 62
    7
 10
954.49562829968727
 20
870.20404342441452
 11
954.49562829968727
 21
877.20404342441498
  0
LINE
  8
_0-7_ビス
  6
CONTINUOUS
 62
    7
 10
916.51635424185315
 20
877.20404342441498
 11
914.49562829968727
 21
873.70404342441361
  0
LINE
  8
_0-7_ビス
  6
CONTINUOUS
 62
    7
 10
960.78258579032536
 20
877.20404342441498
 11
916.51635424185315
 21
877.20404342441498
  0
LINE
  8
_0-7_ビス
  6
CONTINUOUS
 62
    7
 10
919.99562829968909
 20
870.20404342441452
 11
919.99562829968909
 21
877.20404342441498
  0
LINE
  8
_0-7_ビス
  6
CONTINUOUS
 62
    7
 10
916.51635424185315
 20
870.20404342441452
 11
914.49562829968727
 21
873.70404342441361
  0
LINE
  8
_0-7_ビス
  6
CONTINUOUS
 62
    7
 10
960.78258579032536
 20
870.20404342441452
 11
916.51635424185315
 21
870.20404342441452
  0
LINE
  8
_0-4_線色４__黄__
  6
CONTINUOUS
 62
    2
 10
969.49562829968727
 20
850.04578093647524
 11
965.69562829969072
 21
835.86398786772179
  0
LINE
  8
_0-4_線色４__黄__
  6
CONTINUOUS
 62
    2
 10
965.69562829969072
 20
819.05834772060643
 11
965.69562829969072
 21
835.86398786772179
  0
LINE
  8
_0-2_線色２__白__
  6
CONTINUOUS
 62
    7
 10
963.66239623882848
 20
847.59437903878279
 11
960.69562829969072
 21
836.52225035566062
  0
LINE
  8
_0-2_線色２__白__
  6
CONTINUOUS
 62
    7
 10
974.49562829968727
 20
866.79078886602156
 11
974.62653324636904
 21
866.77257007849903
  0
LINE
  8
_0-2_線色２__白__
  6
CONTINUOUS
 62
    7
 10
974.62653324636904
 20
866.77257007849903
 11
974.85160718138559
 21
866.73950329883837
  0
LINE
  8
_0-2_線色２__白__
  6
CONTINUOUS
 62
    7
 10
974.85160718138559
 20
866.73950329883837
 11
975.07494709164348
 21
866.70183908297304
  0
LINE
  8
_0-2_線色２__白__
  6
CONTINUOUS
 62
    7
 10
975.07494709164348
 20
866.70183908297304
 11
975.29545549311479
 21
866.65666766114782
  0
LINE
  8
_0-2_線色２__白__
  6
CONTINUOUS
 62
    7
 10
975.29545549311479
 20
866.65666766114782
 11
975.51203490177159
 21
866.60107926361889
  0
LINE
  8
_0-2_線色２__白__
  6
CONTINUOUS
 62
    7
 10
975.51203490177159
 20
866.60107926361889
 11
975.7235878335905
 21
866.53216412062875
  0
LINE
  8
_0-2_線色２__白__
  6
CONTINUOUS
 62
    7
 10
975.7235878335905
 20
866.53216412062875
 11
975.84355293658518
 21
866.48494042233551
  0
LINE
  8
_0-2_線色２__白__
  6
CONTINUOUS
 62
    7
 10
975.84355293658518
 20
866.48494042233551
 11
975.93566977617684
 21
866.4439993610722
  0
LINE
  8
_0-2_線色２__白__
  6
CONTINUOUS
 62
    7
 10
975.93566977617684
 20
866.4439993610722
 11
976.09138407918635
 21
866.36558418839059
  0
LINE
  8
_0-2_線色２__白__
  6
CONTINUOUS
 62
    7
 10
976.09138407918635
 20
866.36558418839059
 11
976.24338768207053
 21
866.27847717406439
  0
LINE
  8
_0-2_線色２__白__
  6
CONTINUOUS
 62
    7
 10
976.24338768207053
 20
866.27847717406439
 11
976.39194019786828
 21
866.18409218491706
  0
LINE
  8
_0-2_線色２__白__
  6
CONTINUOUS
 62
    7
 10
976.39194019786828
 20
866.18409218491706
 11
976.53730123964124
 21
866.08384308777204
  0
LINE
  8
_0-2_線色２__白__
  6
CONTINUOUS
 62
    7
 10
976.53730123964124
 20
866.08384308777204
 11
976.67973042043741
 21
865.97914374945503
  0
LINE
  8
_0-2_線色２__白__
  6
CONTINUOUS
 62
    7
 10
976.67973042043741
 20
865.97914374945503
 11
976.76109826764332
 21
865.91693616977636
  0
LINE
  8
_0-2_線色２__白__
  6
CONTINUOUS
 62
    7
 10
976.76109826764332
 20
865.91693616977636
 11
976.85578186044495
 21
865.84271989584067
  0
LINE
  8
_0-2_線色２__白__
  6
CONTINUOUS
 62
    7
 10
976.85578186044495
 20
865.84271989584067
 11
977.0165006543084
 21
865.71249495573738
  0
LINE
  8
_0-2_線色２__白__
  6
CONTINUOUS
 62
    7
 10
977.0165006543084
 20
865.71249495573738
 11
977.17436741669644
 21
865.5796431365161
  0
LINE
  8
_0-2_線色２__白__
  6
CONTINUOUS
 62
    7
 10
977.17436741669644
 20
865.5796431365161
 11
977.32978791016194
 21
865.44444499838846
  0
LINE
  8
_0-2_線色２__白__
  6
CONTINUOUS
 62
    7
 10
977.32978791016194
 20
865.44444499838846
 11
977.48316789724868
 21
865.30718110156386
  0
LINE
  8
_0-2_線色２__白__
  6
CONTINUOUS
 62
    7
 10
977.48316789724868
 20
865.30718110156386
 11
977.63491314050498
 21
865.1681320062562
  0
LINE
  8
_0-2_線色２__白__
  6
CONTINUOUS
 62
    7
 10
977.63491314050498
 20
865.1681320062562
 11
977.7223362335144
 21
865.08677610834411
  0
LINE
  8
_0-2_線色２__白__
  6
CONTINUOUS
 62
    7
 10
977.7223362335144
 20
865.08677610834411
 11
977.81340640790859
 21
865.00114103492933
  0
LINE
  8
_0-2_線色２__白__
  6
CONTINUOUS
 62
    7
 10
977.81340640790859
 20
865.00114103492933
 11
977.96910815674437
 21
864.85194367662189
  0
LINE
  8
_0-2_線色２__白__
  6
CONTINUOUS
 62
    7
 10
977.96910815674437
 20
864.85194367662189
 11
978.1224541351412
 21
864.70019346305207
  0
LINE
  8
_0-2_線色２__白__
  6
CONTINUOUS
 62
    7
 10
978.1224541351412
 20
864.70019346305207
 11
978.27264177406505
 21
864.54520438354848
  0
LINE
  8
_0-2_線色２__白__
  6
CONTINUOUS
 62
    7
 10
978.27264177406505
 20
864.54520438354848
 11
978.41886850445917
 21
864.38629042744196
  0
LINE
  8
_0-2_線色２__白__
  6
CONTINUOUS
 62
    7
 10
978.41886850445917
 20
864.38629042744196
 11
978.56033175728953
 21
864.22276558406111
  0
LINE
  8
_0-2_線色２__白__
  6
CONTINUOUS
 62
    7
 10
978.56033175728953
 20
864.22276558406111
 11
978.63988156456799
 21
864.12553814247303
  0
LINE
  8
_0-2_線色２__白__
  6
CONTINUOUS
 62
    7
 10
978.63988156456799
 20
864.12553814247303
 11
978.70860691706639
 21
864.03788444293241
  0
LINE
  8
_0-2_線色２__白__
  6
CONTINUOUS
 62
    7
 10
978.70860691706639
 20
864.03788444293241
 11
978.82281968486495
 21
863.88327134301107
  0
LINE
  8
_0-2_線色２__白__
  6
CONTINUOUS
 62
    7
 10
978.82281968486495
 20
863.88327134301107
 11
978.93079237379879
 21
863.72430619982197
  0
LINE
  8
_0-2_線色２__白__
  6
CONTINUOUS
 62
    7
 10
978.93079237379879
 20
863.72430619982197
 11
979.03156760522506
 21
863.56105954259419
  0
LINE
  8
_0-2_線色２__白__
  6
CONTINUOUS
 62
    7
 10
979.03156760522506
 20
863.56105954259419
 11
979.12418800051
 21
863.39360190056368
  0
LINE
  8
_0-2_線色２__白__
  6
CONTINUOUS
 62
    7
 10
979.12418800051
 20
863.39360190056368
 11
979.20769618101986
 21
863.22200380295953
  0
LINE
  8
_0-2_線色２__白__
  6
CONTINUOUS
 62
    7
 10
979.20769618101986
 20
863.22200380295953
 11
979.25157845194008
 21
863.12060754179129
  0
LINE
  8
_0-2_線色２__白__
  6
CONTINUOUS
 62
    7
 10
979.25157845194008
 20
863.12060754179129
 11
979.29610716520529
 21
863.00670204905146
  0
LINE
  8
_0-2_線色２__白__
  6
CONTINUOUS
 62
    7
 10
979.29610716520529
 20
863.00670204905146
 11
979.3634177936201
 21
862.80681359119853
  0
LINE
  8
_0-2_線色２__白__
  6
CONTINUOUS
 62
    7
 10
979.3634177936201
 20
862.80681359119853
 11
979.42002134511768
 21
862.60311149233985
  0
LINE
  8
_0-2_線色２__白__
  6
CONTINUOUS
 62
    7
 10
979.42002134511768
 20
862.60311149233985
 11
979.46739621884717
 21
862.3963124155307
  0
LINE
  8
_0-2_線色２__白__
  6
CONTINUOUS
 62
    7
 10
979.46739621884717
 20
862.3963124155307
 11
979.50702081395775
 21
862.18713302382184
  0
LINE
  8
_0-2_線色２__白__
  6
CONTINUOUS
 62
    7
 10
979.50702081395775
 20
862.18713302382184
 11
979.54037352959404
 21
861.9762899802663
  0
LINE
  8
_0-2_線色２__白__
  6
CONTINUOUS
 62
    7
 10
979.54037352959404
 20
861.9762899802663
 11
979.55742689562612
 21
861.85352113223644
  0
LINE
  8
_0-2_線色２__白__
  6
CONTINUOUS
 62
    7
 10
979.55742689562612
 20
861.85352113223644
 11
979.57614389489208
 21
861.70506416215403
  0
LINE
  8
_0-2_線色２__白__
  6
CONTINUOUS
 62
    7
 10
979.57614389489208
 20
861.70506416215403
 11
979.60305065598277
 21
861.4487438968672
  0
LINE
  8
_0-2_線色２__白__
  6
CONTINUOUS
 62
    7
 10
979.60305065598277
 20
861.4487438968672
 11
979.62190890328202
 21
861.19234856828598
  0
LINE
  8
_0-2_線色２__白__
  6
CONTINUOUS
 62
    7
 10
979.62190890328202
 20
861.19234856828598
 11
979.6312549944696
 21
860.93632073165509
  0
LINE
  8
_0-2_線色２__白__
  6
CONTINUOUS
 62
    7
 10
979.6312549944696
 20
860.93632073165509
 11
979.62962528722073
 21
860.68110294222151
  0
LINE
  8
_0-2_線色２__白__
  6
CONTINUOUS
 62
    7
 10
979.62962528722073
 20
860.68110294222151
 11
979.61555613921973
 21
860.42713775522998
  0
LINE
  8
_0-2_線色２__白__
  6
CONTINUOUS
 62
    7
 10
979.61555613921973
 20
860.42713775522998
 11
979.60111953043906
 21
860.28058627899554
  0
LINE
  8
_0-2_線色２__白__
  6
CONTINUOUS
 62
    7
 10
979.60111953043906
 20
860.28058627899554
 11
979.58742974435609
 21
860.17324208742821
  0
LINE
  8
_0-2_線色２__白__
  6
CONTINUOUS
 62
    7
 10
979.58742974435609
 20
860.17324208742821
 11
979.55847011311562
 21
859.98879202665876
  0
LINE
  8
_0-2_線色２__白__
  6
CONTINUOUS
 62
    7
 10
979.55847011311562
 20
859.98879202665876
 11
979.52415463157649
 21
859.80482116921849
  0
LINE
  8
_0-2_線色２__白__
  6
CONTINUOUS
 62
    7
 10
979.52415463157649
 20
859.80482116921849
 11
979.4861398055491
 21
859.62096513336064
  0
LINE
  8
_0-2_線色２__白__
  6
CONTINUOUS
 62
    7
 10
979.4861398055491
 20
859.62096513336064
 11
979.44608214083928
 21
859.43685953733848
  0
LINE
  8
_0-2_線色２__白__
  6
CONTINUOUS
 62
    7
 10
979.44608214083928
 20
859.43685953733848
 11
979.40563814326651
 21
859.25213999941207
  0
LINE
  8
_0-2_線色２__白__
  6
CONTINUOUS
 62
    7
 10
979.40563814326651
 20
859.25213999941207
 11
979.3826563563789
 21
859.14457777387497
  0
LINE
  8
_0-2_線色２__白__
  6
CONTINUOUS
 62
    7
 10
979.3826563563789
 20
859.14457777387497
 11
979.3573826348802
 21
859.02246654254668
  0
LINE
  8
_0-2_線色２__白__
  6
CONTINUOUS
 62
    7
 10
979.3573826348802
 20
859.02246654254668
 11
979.31403311864415
 21
858.81166851898342
  0
LINE
  8
_0-2_線色２__白__
  6
CONTINUOUS
 62
    7
 10
979.31403311864415
 20
858.81166851898342
 11
979.26789996049592
 21
858.60196329514565
  0
LINE
  8
_0-2_線色２__白__
  6
CONTINUOUS
 62
    7
 10
979.26789996049592
 20
858.60196329514565
 11
979.21541391879146
 21
858.39500634587921
  0
LINE
  8
_0-2_線色２__白__
  6
CONTINUOUS
 62
    7
 10
979.21541391879146
 20
858.39500634587921
 11
979.15300575189576
 21
858.19245314602313
  0
LINE
  8
_0-2_線色２__白__
  6
CONTINUOUS
 62
    7
 10
979.15300575189576
 20
858.19245314602313
 11
979.07710621816022
 21
857.99595917042325
  0
LINE
  8
_0-2_線色２__白__
  6
CONTINUOUS
 62
    7
 10
979.07710621816022
 20
857.99595917042325
 11
979.02549627750432
 21
857.88542134430372
  0
LINE
  8
_0-2_線色２__白__
  6
CONTINUOUS
 62
    7
 10
979.02549627750432
 20
857.88542134430372
 11
978.9724108055816
 21
857.78609911312515
  0
LINE
  8
_0-2_線色２__白__
  6
CONTINUOUS
 62
    7
 10
978.9724108055816
 20
857.78609911312515
 11
978.86912452448087
 21
857.62067519793391
  0
LINE
  8
_0-2_線色２__白__
  6
CONTINUOUS
 62
    7
 10
978.86912452448087
 20
857.62067519793391
 11
978.752574892751
 21
857.4626236265749
  0
LINE
  8
_0-2_線色２__白__
  6
CONTINUOUS
 62
    7
 10
978.752574892751
 20
857.4626236265749
 11
978.62464821943377
 21
857.3119485801567
  0
LINE
  8
_0-2_線色２__白__
  6
CONTINUOUS
 62
    7
 10
978.62464821943377
 20
857.3119485801567
 11
978.48723081358912
 21
857.16865423979243
  0
LINE
  8
_0-2_線色２__白__
  6
CONTINUOUS
 62
    7
 10
978.48723081358912
 20
857.16865423979243
 11
978.34220898425883
 21
857.03274478658614
  0
LINE
  8
_0-2_線色２__白__
  6
CONTINUOUS
 62
    7
 10
978.34220898425883
 20
857.03274478658614
 11
978.25535528026194
 21
856.95730270660079
  0
LINE
  8
_0-2_線色２__白__
  6
CONTINUOUS
 62
    7
 10
978.25535528026194
 20
856.95730270660079
 11
978.15278789226795
 21
856.8730076822294
  0
LINE
  8
_0-2_線色２__白__
  6
CONTINUOUS
 62
    7
 10
978.15278789226795
 20
856.8730076822294
 11
977.97150288253306
 21
856.73483582296058
  0
LINE
  8
_0-2_線色２__白__
  6
CONTINUOUS
 62
    7
 10
977.97150288253306
 20
856.73483582296058
 11
977.78527820791169
 21
856.60472555594197
  0
LINE
  8
_0-2_線色２__白__
  6
CONTINUOUS
 62
    7
 10
977.78527820791169
 20
856.60472555594197
 11
977.59491214682384
 21
856.48150565395554
  0
LINE
  8
_0-2_線色２__白__
  6
CONTINUOUS
 62
    7
 10
977.59491214682384
 20
856.48150565395554
 11
977.40120297768044
 21
856.36400488978552
  0
LINE
  8
_0-2_線色２__白__
  6
CONTINUOUS
 62
    7
 10
977.40120297768044
 20
856.36400488978552
 11
977.20494897889694
 21
856.25105203621843
  0
LINE
  8
_0-2_線色２__白__
  6
CONTINUOUS
 62
    7
 10
977.20494897889694
 20
856.25105203621843
 11
977.09027018187044
 21
856.18716170935841
  0
LINE
  8
_0-2_線色２__白__
  6
CONTINUOUS
 62
    7
 10
977.09027018187044
 20
856.18716170935841
 11
976.9672035897338
 21
856.11989434185261
  0
LINE
  8
_0-2_線色２__白__
  6
CONTINUOUS
 62
    7
 10
976.9672035897338
 20
856.11989434185261
 11
976.75399683336309
 21
856.00591310064374
  0
LINE
  8
_0-2_線色２__白__
  6
CONTINUOUS
 62
    7
 10
976.75399683336309
 20
856.00591310064374
 11
976.53969983382922
 21
855.89379855227889
  0
LINE
  8
_0-2_線色２__白__
  6
CONTINUOUS
 62
    7
 10
976.53969983382922
 20
855.89379855227889
 11
976.32455057275365
 21
855.78278194303266
  0
LINE
  8
_0-2_線色２__白__
  6
CONTINUOUS
 62
    7
 10
976.32455057275365
 20
855.78278194303266
 11
976.1087870317715
 21
855.67209451917506
  0
LINE
  8
_0-2_線色２__白__
  6
CONTINUOUS
 62
    7
 10
976.1087870317715
 20
855.67209451917506
 11
975.89264719251787
 21
855.56096752697613
  0
LINE
  8
_0-2_線色２__白__
  6
CONTINUOUS
 62
    7
 10
975.89264719251787
 20
855.56096752697613
 11
975.76720744301383
 21
855.49600953234631
  0
LINE
  8
_0-2_線色２__白__
  6
CONTINUOUS
 62
    7
 10
975.76720744301383
 20
855.49600953234631
 11
975.5983792600091
 21
855.40759607817108
  0
LINE
  8
_0-2_線色２__白__
  6
CONTINUOUS
 62
    7
 10
975.5983792600091
 20
855.40759607817108
 11
975.30898349412382
 21
855.25109126223924
  0
LINE
  8
_0-2_線色２__白__
  6
CONTINUOUS
 62
    7
 10
975.30898349412382
 20
855.25109126223924
 11
975.02427531786907
 21
855.08686966901223
  0
LINE
  8
_0-2_線色２__白__
  6
CONTINUOUS
 62
    7
 10
975.02427531786907
 20
855.08686966901223
 11
974.74722188985197
 21
854.91194568162655
  0
LINE
  8
_0-2_線色２__白__
  6
CONTINUOUS
 62
    7
 10
974.74722188985197
 20
854.91194568162655
 11
974.48079036866602
 21
854.72333368322779
  0
LINE
  8
_0-2_線色２__白__
  6
CONTINUOUS
 62
    7
 10
974.48079036866602
 20
854.72333368322779
 11
974.22794791290926
 21
854.51804805695247
  0
LINE
  8
_0-2_線色２__白__
  6
CONTINUOUS
 62
    7
 10
974.22794791290926
 20
854.51804805695247
 11
974.08869501312893
 21
854.39016604912467
  0
LINE
  8
_0-2_線色２__白__
  6
CONTINUOUS
 62
    7
 10
974.08869501312893
 20
854.39016604912467
 11
974.04159000721847
 21
854.34395087682105
  0
LINE
  8
_0-2_線色２__白__
  6
CONTINUOUS
 62
    7
 10
974.04159000721847
 20
854.34395087682105
 11
973.96224491218163
 21
854.26225161528009
  0
LINE
  8
_0-2_線色２__白__
  6
CONTINUOUS
 62
    7
 10
973.96224491218163
 20
854.26225161528009
 11
973.88544480274049
 21
854.1780492229509
  0
LINE
  8
_0-2_線色２__白__
  6
CONTINUOUS
 62
    7
 10
973.88544480274049
 20
854.1780492229509
 11
973.8113958994154
 21
854.09140324745522
  0
LINE
  8
_0-2_線色２__白__
  6
CONTINUOUS
 62
    7
 10
973.8113958994154
 20
854.09140324745522
 11
973.74030442272669
 21
854.00237323641932
  0
LINE
  8
_0-2_線色２__白__
  6
CONTINUOUS
 62
    7
 10
973.74030442272669
 20
854.00237323641932
 11
973.67237659319471
 21
853.9110187374672
  0
LINE
  8
_0-2_線色２__白__
  6
CONTINUOUS
 62
    7
 10
973.67237659319471
 20
853.9110187374672
 11
973.63450929680766
 21
853.85699151257313
  0
LINE
  8
_0-2_線色２__白__
  6
CONTINUOUS
 62
    7
 10
973.63450929680766
 20
853.85699151257313
 11
973.5752166064276
 21
853.76739010148412
  0
LINE
  8
_0-2_線色２__白__
  6
CONTINUOUS
 62
    7
 10
973.5752166064276
 20
853.76739010148412
 11
973.47880334223191
 21
853.60919865731375
  0
LINE
  8
_0-2_線色２__白__
  6
CONTINUOUS
 62
    7
 10
973.47880334223191
 20
853.60919865731375
 11
973.38747493316077
 21
853.44778737028264
  0
LINE
  8
_0-2_線色２__白__
  6
CONTINUOUS
 62
    7
 10
973.38747493316077
 20
853.44778737028264
 11
973.29858422471261
 21
853.28486742198947
  0
LINE
  8
_0-2_線色２__白__
  6
CONTINUOUS
 62
    7
 10
973.29858422471261
 20
853.28486742198947
 11
973.20948406237676
 21
853.12214999403523
  0
LINE
  8
_0-2_線色２__白__
  6
CONTINUOUS
 62
    7
 10
973.20948406237676
 20
853.12214999403523
 11
973.11752729165164
 21
852.96134626802314
  0
LINE
  8
_0-2_線色２__白__
  6
CONTINUOUS
 62
    7
 10
973.11752729165164
 20
852.96134626802314
 11
973.06184035013757
 21
852.86963125969805
  0
LINE
  8
_0-2_線色２__白__
  6
CONTINUOUS
 62
    7
 10
973.06184035013757
 20
852.86963125969805
 11
973.00247558026513
 21
852.77722026729862
  0
LINE
  8
_0-2_線色２__白__
  6
CONTINUOUS
 62
    7
 10
973.00247558026513
 20
852.77722026729862
 11
972.89497381849742
 21
852.62127726514564
  0
LINE
  8
_0-2_線色２__白__
  6
CONTINUOUS
 62
    7
 10
972.89497381849742
 20
852.62127726514564
 11
972.78199062852764
 21
852.46895472292408
  0
LINE
  8
_0-2_線色２__白__
  6
CONTINUOUS
 62
    7
 10
972.78199062852764
 20
852.46895472292408
 11
972.66473057613439
 21
852.3194782341875
  0
LINE
  8
_0-2_線色２__白__
  6
CONTINUOUS
 62
    7
 10
972.66473057613439
 20
852.3194782341875
 11
972.54439822708719
 21
852.17207339249399
  0
LINE
  8
_0-2_線色２__白__
  6
CONTINUOUS
 62
    7
 10
972.54439822708719
 20
852.17207339249399
 11
972.42219814716009
 21
852.02596579139936
  0
LINE
  8
_0-2_線色２__白__
  6
CONTINUOUS
 62
    7
 10
972.42219814716009
 20
852.02596579139936
 11
972.35094096806733
 21
851.94151262199512
  0
LINE
  8
_0-2_線色２__白__
  6
CONTINUOUS
 62
    7
 10
972.35094096806733
 20
851.94151262199512
 11
972.26146038416573
 21
851.835670758378
  0
LINE
  8
_0-2_線色２__白__
  6
CONTINUOUS
 62
    7
 10
972.26146038416573
 20
851.835670758378
 11
972.10637733037402
 21
851.65409798006749
  0
LINE
  8
_0-2_線色２__白__
  6
CONTINUOUS
 62
    7
 10
972.10637733037402
 20
851.65409798006749
 11
971.94898816213026
 21
851.4749233274415
  0
LINE
  8
_0-2_線色２__白__
  6
CONTINUOUS
 62
    7
 10
971.94898816213026
 20
851.4749233274415
 11
971.78779796420258
 21
851.29959120121839
  0
LINE
  8
_0-2_線色２__白__
  6
CONTINUOUS
 62
    7
 10
971.78779796420258
 20
851.29959120121839
 11
971.62131182135454
 21
851.12954600210742
  0
LINE
  8
_0-2_線色２__白__
  6
CONTINUOUS
 62
    7
 10
971.62131182135454
 20
851.12954600210742
 11
971.44803481834515
 21
850.96623213082921
  0
LINE
  8
_0-2_線色２__白__
  6
CONTINUOUS
 62
    7
 10
971.44803481834515
 20
850.96623213082921
 11
971.34383351013639
 21
850.87516354888976
  0
LINE
  8
_0-2_線色２__白__
  6
CONTINUOUS
 62
    7
 10
971.34383351013639
 20
850.87516354888976
 11
971.28174623461291
 21
850.82350427625443
  0
LINE
  8
_0-2_線色２__白__
  6
CONTINUOUS
 62
    7
 10
971.28174623461291
 20
850.82350427625443
 11
971.17227349477616
 21
850.73717916594887
  0
LINE
  8
_0-2_線色２__白__
  6
CONTINUOUS
 62
    7
 10
971.17227349477616
 20
850.73717916594887
 11
971.05977223701757
 21
850.65481929381576
  0
LINE
  8
_0-2_線色２__白__
  6
CONTINUOUS
 62
    7
 10
971.05977223701757
 20
850.65481929381576
 11
970.94429130430399
 21
850.57699860307139
  0
LINE
  8
_0-2_線色２__白__
  6
CONTINUOUS
 62
    7
 10
970.94429130430399
 20
850.57699860307139
 11
970.82587953961138
 21
850.50429103692522
  0
LINE
  8
_0-2_線色２__白__
  6
CONTINUOUS
 62
    7
 10
970.82587953961138
 20
850.50429103692522
 11
970.7045857859066
 21
850.43727053859811
  0
LINE
  8
_0-2_線色２__白__
  6
CONTINUOUS
 62
    7
 10
970.7045857859066
 20
850.43727053859811
 11
970.63293412806615
 21
850.40123062751036
  0
LINE
  8
_0-2_線色２__白__
  6
CONTINUOUS
 62
    7
 10
970.63293412806615
 20
850.40123062751036
 11
970.5314582370147
 21
850.35457877415183
  0
LINE
  8
_0-2_線色２__白__
  6
CONTINUOUS
 62
    7
 10
970.5314582370147
 20
850.35457877415183
 11
970.35269385796255
 21
850.28309201580214
  0
LINE
  8
_0-2_線色２__白__
  6
CONTINUOUS
 62
    7
 10
970.35269385796255
 20
850.28309201580214
 11
970.16987343981782
 21
850.22114067717894
  0
LINE
  8
_0-2_線色２__白__
  6
CONTINUOUS
 62
    7
 10
970.16987343981782
 20
850.22114067717894
 11
969.98388258062732
 21
850.16664278890858
  0
LINE
  8
_0-2_線色２__白__
  6
CONTINUOUS
 62
    7
 10
969.98388258062732
 20
850.16664278890858
 11
969.79560687845151
 21
850.11751638162195
  0
LINE
  8
_0-2_線色２__白__
  6
CONTINUOUS
 62
    7
 10
969.79560687845151
 20
850.11751638162195
 11
969.60593193134628
 21
850.07167948594542
  0
LINE
  8
_0-2_線色２__白__
  6
CONTINUOUS
 62
    7
 10
969.60593193134628
 20
850.07167948594542
 11
969.49562829968727
 21
850.04578093647524
  0
LINE
  8
_0-4_線色４__黄__
  6
CONTINUOUS
 62
    2
 10
974.49562829968727
 20
898.02056840029081
 11
974.49562829968727
 21
860.7936567990896
  0
LINE
  8
_0-2_線色２__白__
  6
CONTINUOUS
 62
    7
 10
968.49202537027395
 20
901.10780303555885
 11
960.69562829969072
 21
914.61155887779114
  0
LINE
  8
_0-4_線色４__黄__
  6
CONTINUOUS
 62
    2
 10
965.69562829969072
 20
915.95130483994581
 11
965.69562829969072
 21
1004.7987481719429
  0
LINE
  8
_0-4_線色４__黄__
  6
CONTINUOUS
 62
    2
 10
973.15128363316489
 20
903.03773099864657
 11
965.69562829969072
 21
915.95130483994581
  0
LINE
  8
_0-4_線色４__黄__
  6
CONTINUOUS
 62
    2
 10
974.49562829968727
 20
898.02056840029081
 11
973.15128363316489
 21
903.03773099864657
  0
LINE
  8
_0-2_線色２__白__
  6
CONTINUOUS
 62
    7
 10
969.49562829968727
 20
897.36230591235199
 11
968.49202537027395
 21
901.10780303555885
  0
LINE
  8
_0-2_線色２__白__
  6
CONTINUOUS
 62
    7
 10
968.49202537027395
 20
901.10780303555885
 11
963.66239623882848
 21
899.81370781004671
  0
LINE
  8
_0-2_線色２__白__
  6
CONTINUOUS
 62
    7
 10
969.49562829968727
 20
860.7936567990896
 11
969.49562829968727
 21
897.36230591235199
  0
LINE
  8
_0-4_線色４__黄__
  6
CONTINUOUS
 62
    2
 10
974.49562829968727
 20
860.7936567990896
 11
969.49562829968727
 21
860.7936567990896
  0
LINE
  8
_0-4_線色４__黄__
  6
CONTINUOUS
 62
    2
 10
969.49562829968727
 20
850.04578093647524
 11
969.49562829968727
 21
860.7936567990896
  0
LINE
  8
ADD_LINE
  6
DOT
 62
    4
 10
972.69562911439607
 20
556.75005142730697
 11
972.69562911439607
 21
685.40440227050794
  0
LINE
  8
ADD_LINE
  6
DOT
 62
    4
 10
1172.6956291143961
 20
556.75005142730697
 11
1172.6956291143961
 21
685.40440227050794
  0
LINE
  8
_0-5_金属
  6
CONTINUOUS
 62
    7
 10
862.69562829968891
 20
676.17205042381556
 11
862.69562829968891
 21
503.40489265907536
  0
LINE
  8
_0-5_金属
  6
CONTINUOUS
 62
    7
 10
922.69562829968891
 20
670.24481531964511
 11
922.69562829968891
 21
503.40489265907536
  0
LINE
  8
_0-5_金属
  6
CONTINUOUS
 62
    7
 10
942.69562829968891
 20
669.89646157203424
 11
942.69562829968891
 21
503.40489265907536
  0
LINE
  8
_0-3_線色３__緑__
  6
CONTINUOUS
 62
    3
 10
807.69562829968891
 20
503.40489265907536
 11
807.69562829968891
 21
665.0700506237763
  0
LINE
  8
_0-d_断熱__ハッチ
  6
CONTINUOUS
 62
    4
 10
833.94562829968891
 20
665.59505062377639
 11
833.94562829968891
 21
503.40489265907536
  0
LINE
  8
_0-d_断熱__ハッチ
  6
CONTINUOUS
 62
    4
 10
825.19562829968891
 20
665.42005062377484
 11
825.19562829968891
 21
503.40489265907536
  0
LINE
  8
_0-d_断熱__ハッチ
  6
CONTINUOUS
 62
    4
 10
816.44562829968891
 20
665.24505062377557
 11
816.44562829968891
 21
503.40489265907536
  0
LINE
  8
_0-5_金属
  6
CONTINUOUS
 62
    7
 10
842.69562829968891
 20
665.77005062377566
 11
842.69562829968891
 21
503.40489265907536
  0
LINE
  8
_0-a_文字
  6
CONTINUOUS
 62
    7
 10
1192.8458059412924
 20
808.70404242381483
 11
1212.8458059412924
 21
808.70404242381483
  0
TEXT
  8
_0-a_文字
 62
    7
 10
1217.8458059412935
 20
801.20404242381483
 40
14.999999999999858
 41
0.9999999999999839
 50
0
  1
ＢＰ－Ｈ２Ｎ
  0
LINE
  8
_0-a_文字
  6
CONTINUOUS
 62
    7
 10
1137.3047100452504
 20
712.50404242381364
 11
1192.8458059412924
 21
808.70404242381483
  0
LINE
  8
_0-a_文字
  6
CONTINUOUS
 62
    7
 10
1061.5266857320194
 20
543.70402242381488
 11
1081.5266857320194
 21
543.70402242381488
  0
TEXT
  8
_0-a_文字
 62
    7
 10
1086.5266857320221
 20
536.20402242381488
 40
14.999999999999858
 41
1.0000000000000093
 50
0
  1
横型ドレイン用補強鋼板
  0
TEXT
  8
_0-a_文字
 62
    7
 10
1086.5266857320214
 20
516.20402242381488
 40
14.999999999999858
 41
1.0000000000000471
 50
0
  1
t=1.6
  0
LINE
  8
_0-a_文字
  6
CONTINUOUS
 62
    7
 10
988.89503100419915
 20
669.50573865020033
 11
1061.5266857320194
 21
543.70402242381488
  0
LINE
  8
_0-5_金属
  6
CONTINUOUS
 62
    7
 10
942.69562829968891
 20
568.70402242381488
 11
1295.6086814683158
 21
568.70402242381488
  0
LINE
  8
ADD_LINE
  6
DOT
 62
    4
 10
1137.3047100452504
 20
629.38467776186144
 11
1137.3047100452504
 21
719.00139750447806
  0
LINE
  8
_0-7_ビス
  6
CONTINUOUS
 62
    7
 10
1143.3047100452495
 20
712.11942703919703
 11
1143.3047100452495
 21
712.50404242381364
  0
LINE
  8
_0-7_ビス
  6
DASHED3
 62
    7
 10
1138.7721781615062
 20
709.95467289298517
 11
1139.8547258814006
 21
712.50404242381364
  0
LINE
  8
_0-7_ビス
  6
CONTINUOUS
 62
    7
 10
1131.3047100452513
 20
712.11942703919703
 11
1131.3047100452513
 21
712.50404242381364
  0
LINE
  8
_0-7_ビス
  6
DASHED3
 62
    7
 10
1135.8372419289958
 20
709.95467289298517
 11
1134.7546942091037
 21
712.50404242381364
  0
LINE
  8
_0-7_ビス
  6
CONTINUOUS
 62
    7
 10
1143.3047100452495
 20
712.11942703919703
 11
1131.3047100452513
 21
712.11942703919703
  0
LINE
  8
_0-7_ビス
  6
CONTINUOUS
 62
    7
 10
1143.3047100452495
 20
712.50404242381364
 11
1131.3047100452513
 21
712.50404242381364
  0
ARC
  8
_0-7_ビス
  6
DASHED3
 62
    7
 10
1137.3047100452504
 20
711.06521599125244
 40
1.8403175392666382
 50
217.11750793457031
 51
322.88247680664062
  0
LINE
  8
_0-7_ビス
  6
CONTINUOUS
 62
    7
 10
1141.3904964828771
 20
710.20521347682461
 11
1143.3047100452495
 21
712.11942703919703
  0
ARC
  8
_0-7_ビス
  6
CONTINUOUS
 62
    7
 10
1142.80471004525
 20
708.79099991445173
 40
2
 50
135.00000000000153
 51
180.00000000000003
  0
LINE
  8
_0-7_ビス
  6
CONTINUOUS
 62
    7
 10
1133.2189236076238
 20
710.20521347682461
 11
1131.3047100452513
 21
712.11942703919703
  0
ARC
  8
_0-7_ビス
  6
CONTINUOUS
 62
    7
 10
1131.804710045252
 20
708.79099991445173
 40
2
 50
0
 51
44.999999999998501
  0
LINE
  8
_0-7_ビス
  6
CONTINUOUS
 62
    7
 10
1140.8047100452495
 20
708.50404242381273
 11
1133.8047100452513
 21
708.50404242381273
  0
LINE
  8
_0-7_ビス
  6
CONTINUOUS
 62
    7
 10
1133.8047100452513
 20
639.52476836597498
 11
1137.3047100452504
 21
637.50404242381364
  0
LINE
  8
_0-7_ビス
  6
CONTINUOUS
 62
    7
 10
1133.8047100452513
 20
708.79099991445173
 11
1133.8047100452513
 21
639.52476836597498
  0
LINE
  8
_0-7_ビス
  6
CONTINUOUS
 62
    7
 10
1140.8047100452495
 20
643.00404242381319
 11
1133.8047100452513
 21
643.00404242381319
  0
LINE
  8
_0-7_ビス
  6
CONTINUOUS
 62
    7
 10
1140.8047100452495
 20
639.52476836597725
 11
1137.3047100452504
 21
637.50404242381364
  0
LINE
  8
_0-7_ビス
  6
CONTINUOUS
 62
    7
 10
1140.8047100452495
 20
708.79099991445173
 11
1140.8047100452495
 21
639.52476836597725
  0
LINE
  8
_0-7_ビス
  6
CONTINUOUS
 62
    7
 10
1140.8047100452495
 20
697.50404242381364
 11
1133.8047100452513
 21
697.50404242381364
  0
LINE
  8
_0-7_ビス
  6
CONTINUOUS
 62
    4
 10
1133.8047100452513
 20
696.3042390644182
 11
1138.2822904871909
 21
697.50404242381364
  0
LINE
  8
_0-7_ビス
  6
CONTINUOUS
 62
    4
 10
1133.8047100452513
 20
683.99801853504187
 11
1140.8047100452495
 21
685.87372431513131
  0
LINE
  8
_0-7_ビス
  6
CONTINUOUS
 62
    4
 10
1133.8047100452513
 20
685.99801853504232
 11
1140.8047100452495
 21
687.87372431512949
  0
LINE
  8
_0-7_ビス
  6
CONTINUOUS
 62
    4
 10
1133.8047100452513
 20
687.99801853504277
 11
1140.8047100452495
 21
689.87372431512995
  0
LINE
  8
_0-7_ビス
  6
CONTINUOUS
 62
    4
 10
1133.8047100452513
 20
689.99801853504096
 11
1140.8047100452495
 21
691.8737243151304
  0
LINE
  8
_0-7_ビス
  6
CONTINUOUS
 62
    4
 10
1133.8047100452513
 20
691.99801853504141
 11
1140.8047100452495
 21
693.87372431513086
  0
LINE
  8
_0-7_ビス
  6
CONTINUOUS
 62
    4
 10
1133.8047100452513
 20
693.99801853504187
 11
1140.8047100452495
 21
695.87372431513131
  0
LINE
  8
_0-7_ビス
  6
CONTINUOUS
 62
    4
 10
1133.8047100452513
 20
671.69179800566553
 11
1140.8047100452495
 21
673.56750378575271
  0
LINE
  8
_0-7_ビス
  6
CONTINUOUS
 62
    4
 10
1133.8047100452513
 20
673.69179800566599
 11
1140.8047100452495
 21
675.56750378575316
  0
LINE
  8
_0-7_ビス
  6
CONTINUOUS
 62
    4
 10
1133.8047100452513
 20
675.69179800566417
 11
1140.8047100452495
 21
677.56750378575362
  0
LINE
  8
_0-7_ビス
  6
CONTINUOUS
 62
    4
 10
1133.8047100452513
 20
677.69179800566462
 11
1140.8047100452495
 21
679.56750378575407
  0
LINE
  8
_0-7_ビス
  6
CONTINUOUS
 62
    4
 10
1133.8047100452513
 20
679.69179800566508
 11
1140.8047100452495
 21
681.56750378575339
  0
LINE
  8
_0-7_ビス
  6
CONTINUOUS
 62
    4
 10
1133.8047100452513
 20
681.69179800566553
 11
1140.8047100452495
 21
683.56750378575384
  0
LINE
  8
_0-7_ビス
  6
CONTINUOUS
 62
    4
 10
1133.8047100452513
 20
659.38557747628693
 11
1140.8047100452495
 21
661.26128325637637
  0
LINE
  8
_0-7_ビス
  6
CONTINUOUS
 62
    4
 10
1133.8047100452513
 20
661.38557747628738
 11
1140.8047100452495
 21
663.26128325637683
  0
LINE
  8
_0-7_ビス
  6
CONTINUOUS
 62
    4
 10
1133.8047100452513
 20
663.38557747628784
 11
1140.8047100452495
 21
665.26128325637728
  0
LINE
  8
_0-7_ビス
  6
CONTINUOUS
 62
    4
 10
1133.8047100452513
 20
665.38557747628829
 11
1140.8047100452495
 21
667.26128325637774
  0
LINE
  8
_0-7_ビス
  6
CONTINUOUS
 62
    4
 10
1133.8047100452513
 20
667.38557747628874
 11
1140.8047100452495
 21
669.26128325637592
  0
LINE
  8
_0-7_ビス
  6
CONTINUOUS
 62
    4
 10
1133.8047100452513
 20
669.3855774762892
 11
1140.8047100452495
 21
671.26128325637637
  0
LINE
  8
_0-7_ビス
  6
CONTINUOUS
 62
    4
 10
1133.8047100452513
 20
647.07935694691059
 11
1140.8047100452495
 21
648.95506272700004
  0
LINE
  8
_0-7_ビス
  6
CONTINUOUS
 62
    4
 10
1133.8047100452513
 20
649.07935694691105
 11
1140.8047100452495
 21
650.9550627270005
  0
LINE
  8
_0-7_ビス
  6
CONTINUOUS
 62
    4
 10
1133.8047100452513
 20
651.0793569469115
 11
1140.8047100452495
 21
652.95506272699868
  0
LINE
  8
_0-7_ビス
  6
CONTINUOUS
 62
    4
 10
1133.8047100452513
 20
653.07935694691196
 11
1140.8047100452495
 21
654.95506272699913
  0
LINE
  8
_0-7_ビス
  6
CONTINUOUS
 62
    4
 10
1133.8047100452513
 20
655.07935694691014
 11
1140.8047100452495
 21
656.95506272699959
  0
LINE
  8
_0-7_ビス
  6
CONTINUOUS
 62
    4
 10
1133.8047100452513
 20
657.07935694691059
 11
1140.8047100452495
 21
658.95506272700004
  0
LINE
  8
_0-7_ビス
  6
CONTINUOUS
 62
    4
 10
1133.8047100452513
 20
644.77313641753426
 11
1140.8047100452495
 21
646.64884219762371
  0
LINE
  8
_0-7_ビス
  6
CONTINUOUS
 62
    4
 10
1134.6664347683418
 20
643.00404242381319
 11
1140.8047100452495
 21
644.64884219762325
  0
LINE
  8
_0-5_金属
  6
CONTINUOUS
 62
    7
 10
952.69562829968891
 20
580.70404242381528
 11
992.6955691143985
 21
580.70404242381528
  0
ARC
  8
_0-5_金属
  6
CONTINUOUS
 62
    7
 10
1011.0326491143951
 20
664.94044242381506
 40
2.9999997999999999
 50
90
 51
167.90458000000001
  0
ARC
  8
_0-5_金属
  6
CONTINUOUS
 62
    7
 10
992.6955691143985
 20
580.70411242381624
 40
2.9999997999999999
 50
270
 51
347.90458000000001
  0
LINE
  8
_0-5_金属
  6
CONTINUOUS
 62
    7
 10
992.6955691143985
 20
580.70404242381528
 11
1008.0992493407939
 21
665.56906358813421
  0
LINE
  8
_0-5_金属
  6
CONTINUOUS
 62
    7
 10
1011.0209991143984
 20
664.90405242381485
 11
995.62896888799969
 21
580.07549125949708
  0
LINE
  8
_0-5_金属
  6
CONTINUOUS
 62
    7
 10
1152.6956392143939
 20
577.70408242381563
 11
1192.6955192143942
 21
577.70408242381563
  0
ARC
  8
_0-5_金属
  6
CONTINUOUS
 62
    7
 10
1211.0475392143962
 20
664.9000324238159
 40
2.9999997999999999
 50
90
 51
167.90458000000001
  0
ARC
  8
_0-5_金属
  6
CONTINUOUS
 62
    7
 10
1134.3324592143927
 20
664.89547242381605
 40
2.9999997999999999
 50
12.095412999999999
 51
90.000000000000028
  0
LINE
  8
_0-5_金属
  6
CONTINUOUS
 62
    7
 10
1134.3701492143964
 20
664.90405242381485
 11
1011.0209991143984
 21
664.90405242381485
  0
ARC
  8
_0-5_金属
  6
CONTINUOUS
 62
    7
 10
1152.6956392143939
 20
580.70411242381624
 40
2.9999997999999999
 50
192.09540999999999
 51
270
  0
ARC
  8
_0-5_金属
  6
CONTINUOUS
 62
    7
 10
1192.6955192143942
 20
580.70411242381624
 40
2.9999997999999999
 50
270
 51
347.90458000000001
  0
LINE
  8
_0-5_金属
  6
CONTINUOUS
 62
    7
 10
1149.7622393310758
 20
580.07549177147212
 11
1134.3701492143964
 21
664.90405242381485
  0
LINE
  8
_0-5_金属
  6
CONTINUOUS
 62
    7
 10
1211.020949214394
 20
664.90405242381485
 11
1195.6289189879953
 21
580.07549125949708
  0
LINE
  8
_0-5_金属
  6
CONTINUOUS
 62
    7
 10
1137.2658590647961
 20
665.52409322975109
 11
1152.6956447081329
 21
580.70395222381421
  0
LINE
  8
_0-5_金属
  6
CONTINUOUS
 62
    7
 10
1152.6956447081329
 20
580.70395222381421
 11
1192.6955028186876
 21
580.70395222381421
  0
LINE
  8
_0-5_金属
  6
CONTINUOUS
 62
    7
 10
1192.6955028186876
 20
580.70395222381421
 11
1208.1141394407905
 21
665.52865358813278
  0
LINE
  8
_0-5_金属
  6
CONTINUOUS
 62
    7
 10
952.69562829968891
 20
580.70404242381528
 11
952.69562829968891
 21
577.70402242381579
  0
LINE
  8
_0-5_金属
  6
CONTINUOUS
 62
    7
 10
1295.6086814683158
 20
577.70402242381579
 11
942.69562829968891
 21
577.70402242381579
  0
LINE
  8
_0-5_金属
  6
CONTINUOUS
 62
    7
 10
1211.020949214394
 20
664.90405242381485
 11
1295.6086814683158
 21
664.90405242381485
  0
ARC
  8
_0-5_金属
  6
CONTINUOUS
 62
    7
 10
958.74558911439635
 20
594.75399242381627
 40
1.0499997999999999
 50
90
 51
270
  0
ARC
  8
_0-5_金属
  6
CONTINUOUS
 62
    7
 10
958.74558911439635
 20
594.75399242381627
 40
0.2499999
 50
90
 51
270
  0
ARC
  8
_0-5_金属
  6
CONTINUOUS
 62
    7
 10
986.64566911439579
 20
594.75399242381627
 40
1.0499997999999999
 50
270
 51
90
  0
ARC
  8
_0-5_金属
  6
CONTINUOUS
 62
    7
 10
986.64566911439579
 20
594.75399242381627
 40
0.2499999
 50
270
 51
90
  0
ARC
  8
_0-5_金属
  6
CONTINUOUS
 62
    7
 10
971.09567911439626
 20
596.60404242381446
 40
0.7999998999999997
 50
270
 51
0
  0
ARC
  8
_0-5_金属
  6
CONTINUOUS
 62
    7
 10
971.09567911439626
 20
596.60404242381446
 40
1.5999999
 50
270
 51
0
  0
ARC
  8
_0-5_金属
  6
CONTINUOUS
 62
    7
 10
974.29557911439588
 20
596.60404242381446
 40
0.7999998999999997
 50
180
 51
270
  0
ARC
  8
_0-5_金属
  6
CONTINUOUS
 62
    7
 10
974.29557911439588
 20
596.60404242381446
 40
1.5999999
 50
180
 51
270
  0
ARC
  8
_0-5_金属
  6
CONTINUOUS
 62
    7
 10
971.09567911439626
 20
666.30406242381468
 40
0.7999998999999997
 50
0
 51
90
  0
ARC
  8
_0-5_金属
  6
CONTINUOUS
 62
    7
 10
971.09567911439626
 20
666.30406242381468
 40
1.5999999
 50
0
 51
90
  0
ARC
  8
_0-5_金属
  6
CONTINUOUS
 62
    7
 10
974.29557911439588
 20
667.10404242381628
 40
0.7999998999999997
 50
90
 51
180
  0
ARC
  8
_0-5_金属
  6
CONTINUOUS
 62
    7
 10
974.29557911439588
 20
667.10404242381628
 40
1.5999999
 50
90
 51
180
  0
LINE
  8
_0-5_金属
  6
CONTINUOUS
 62
    7
 10
972.69562911439607
 20
663.85292242381411
 11
972.69562911439607
 21
653.41208242381526
  0
LINE
  8
_0-5_金属
  6
CONTINUOUS
 62
    7
 10
971.13056911439799
 20
654.97707242381466
 11
972.69562911439607
 21
653.41208242381526
  0
LINE
  8
_0-5_金属
  6
CONTINUOUS
 62
    7
 10
972.69562911439607
 20
663.85292242381411
 11
971.13056911439799
 21
654.97707242381466
  0
LINE
  8
_0-5_金属
  6
CONTINUOUS
 62
    7
 10
972.69562911439607
 20
653.41208242381526
 11
972.69562911439607
 21
596.60404242381446
  0
LINE
  8
_0-5_金属
  6
CONTINUOUS
 62
    7
 10
970.27040911439599
 20
654.70588242381609
 11
971.89565911439786
 21
653.08063242381422
  0
LINE
  8
_0-5_金属
  6
CONTINUOUS
 62
    7
 10
971.89565911439786
 20
653.08063242381422
 11
971.89565911439786
 21
596.60404242381446
  0
LINE
  8
_0-5_金属
  6
CONTINUOUS
 62
    7
 10
971.89565911439786
 20
663.92307242381548
 11
970.27040911439599
 21
654.70588242381609
  0
LINE
  8
_0-5_金属
  6
CONTINUOUS
 62
    7
 10
972.69562911439607
 20
667.10404242381628
 11
972.69562911439607
 21
663.85292242381411
  0
LINE
  8
_0-5_金属
  6
CONTINUOUS
 62
    7
 10
971.89565911439786
 20
666.30406242381468
 11
971.89565911439786
 21
663.92307242381548
  0
LINE
  8
_0-5_金属
  6
CONTINUOUS
 62
    7
 10
973.49559911439883
 20
667.10404242381628
 11
973.49559911439883
 21
596.60404242381446
  0
LINE
  8
_0-5_金属
  6
CONTINUOUS
 62
    7
 10
958.74558911439635
 20
595.00403242381481
 11
971.09567911439626
 21
595.00403242381481
  0
LINE
  8
_0-5_金属
  6
CONTINUOUS
 62
    7
 10
958.74558911439635
 20
594.5039624238143
 11
986.64566911439579
 21
594.5039624238143
  0
LINE
  8
_0-5_金属
  6
CONTINUOUS
 62
    7
 10
958.74558911439635
 20
595.80394242381544
 11
971.09567911439626
 21
595.80394242381544
  0
LINE
  8
_0-5_金属
  6
CONTINUOUS
 62
    7
 10
974.29557911439588
 20
595.80394242381544
 11
986.64566911439579
 21
595.80394242381544
  0
LINE
  8
_0-5_金属
  6
CONTINUOUS
 62
    7
 10
974.29557911439588
 20
595.00403242381481
 11
986.64566911439579
 21
595.00403242381481
  0
LINE
  8
_0-5_金属
  6
CONTINUOUS
 62
    7
 10
958.74558911439635
 20
593.70399262381625
 11
986.64566911439579
 21
593.70399262381625
  0
LINE
  8
_0-5_金属
  6
CONTINUOUS
 62
    7
 10
1171.0956292143965
 20
667.90407242381434
 11
974.37912911439525
 21
667.90407242381434
  0
LINE
  8
_0-5_金属
  6
CONTINUOUS
 62
    7
 10
1171.0956292143965
 20
668.70404242381483
 11
974.1462091143967
 21
668.70404242381483
  0
ARC
  8
_0-5_金属
  6
CONTINUOUS
 62
    7
 10
1186.645619214396
 20
594.75399242381627
 40
1.0499997999999999
 50
270
 51
90
  0
ARC
  8
_0-5_金属
  6
CONTINUOUS
 62
    7
 10
1186.645619214396
 20
594.75399242381627
 40
0.2499999
 50
270
 51
90
  0
ARC
  8
_0-5_金属
  6
CONTINUOUS
 62
    7
 10
1158.7455392143966
 20
594.75399242381627
 40
1.0499997999999999
 50
90
 51
270
  0
ARC
  8
_0-5_金属
  6
CONTINUOUS
 62
    7
 10
1158.7455392143966
 20
594.75399242381627
 40
0.2499999
 50
90
 51
270
  0
ARC
  8
_0-5_金属
  6
CONTINUOUS
 62
    7
 10
1174.2955292143961
 20
596.60404242381446
 40
0.7999998999999997
 50
180
 51
270
  0
ARC
  8
_0-5_金属
  6
CONTINUOUS
 62
    7
 10
1174.2955292143961
 20
596.60404242381446
 40
1.5999999
 50
180
 51
270
  0
ARC
  8
_0-5_金属
  6
CONTINUOUS
 62
    7
 10
1171.0956292143965
 20
596.60404242381446
 40
0.7999998999999997
 50
270
 51
0
  0
ARC
  8
_0-5_金属
  6
CONTINUOUS
 62
    7
 10
1171.0956292143965
 20
596.60404242381446
 40
1.5999999
 50
270
 51
0
  0
ARC
  8
_0-5_金属
  6
CONTINUOUS
 62
    7
 10
1174.2955292143961
 20
667.10404242381628
 40
0.7999998999999997
 50
90
 51
180
  0
ARC
  8
_0-5_金属
  6
CONTINUOUS
 62
    7
 10
1174.2955292143961
 20
667.10404242381628
 40
1.5999999
 50
90
 51
180
  0
ARC
  8
_0-5_金属
  6
CONTINUOUS
 62
    7
 10
1171.0956292143965
 20
667.10404242381628
 40
0.7999998999999997
 50
0
 51
90
  0
ARC
  8
_0-5_金属
  6
CONTINUOUS
 62
    7
 10
1171.0956292143965
 20
667.10404242381628
 40
1.5999999
 50
0
 51
90
  0
LINE
  8
_0-5_金属
  6
CONTINUOUS
 62
    7
 10
1173.4955492143945
 20
667.10404242381628
 11
1173.4955492143945
 21
596.60404242381446
  0
LINE
  8
_0-5_金属
  6
CONTINUOUS
 62
    7
 10
1171.8956092143935
 20
667.10404242381628
 11
1171.8956092143935
 21
596.60404242381446
  0
LINE
  8
_0-5_金属
  6
CONTINUOUS
 62
    7
 10
1172.6955792143963
 20
667.10404242381628
 11
1172.6955792143963
 21
596.60404242381446
  0
LINE
  8
_0-5_金属
  6
CONTINUOUS
 62
    7
 10
1186.645619214396
 20
595.00403242381481
 11
1174.2955292143961
 21
595.00403242381481
  0
LINE
  8
_0-5_金属
  6
CONTINUOUS
 62
    7
 10
1186.645619214396
 20
594.5039624238143
 11
1158.7455392143966
 21
594.5039624238143
  0
LINE
  8
_0-5_金属
  6
CONTINUOUS
 62
    7
 10
1186.645619214396
 20
595.80394242381544
 11
1174.2955292143961
 21
595.80394242381544
  0
LINE
  8
_0-5_金属
  6
CONTINUOUS
 62
    7
 10
1171.0956292143965
 20
595.80394242381544
 11
1158.7455392143966
 21
595.80394242381544
  0
LINE
  8
_0-5_金属
  6
CONTINUOUS
 62
    7
 10
1171.0956292143965
 20
595.00403242381481
 11
1158.7455392143966
 21
595.00403242381481
  0
LINE
  8
_0-5_金属
  6
CONTINUOUS
 62
    7
 10
1158.7455392143966
 20
593.70399262381625
 11
1186.645619214396
 21
593.70399262381625
  0
LINE
  8
_0-5_金属
  6
CONTINUOUS
 62
    7
 10
959.2976282996915
 20
667.10410242381613
 11
971.09567911439626
 21
667.10410242381613
  0
LINE
  8
_0-5_金属
  6
CONTINUOUS
 62
    7
 10
959.2976282996915
 20
667.90407242381434
 11
959.2976282996915
 21
667.10410242381613
  0
LINE
  8
_0-5_金属
  6
CONTINUOUS
 62
    7
 10
959.2976282996915
 20
667.90407242381434
 11
971.09567911439626
 21
667.90407242381434
  0
LINE
  8
_0-5_金属
  6
CONTINUOUS
 62
    7
 10
1295.6086814683158
 20
667.90407242381434
 11
1174.1557292143943
 21
667.90407242381434
  0
LINE
  8
_0-5_金属
  6
CONTINUOUS
 62
    7
 10
1174.2955292143961
 20
668.70404242381483
 11
1295.6086814683158
 21
668.70404242381483
  0
LINE
  8
_0-a_文字
  6
CONTINUOUS
 62
    7
 10
1225.5147539215977
 20
668.33331487622218
 11
1297.469509467915
 21
543.70402242381488
  0
TEXT
  8
_0-a_文字
 62
    7
 10
1322.4695094679128
 20
536.20402242381488
 40
14.999999999999858
 41
1.0000000000000018
 50
0
  1
タイトフレーム（別途工事）
  0
LINE
  8
_0-a_文字
  6
CONTINUOUS
 62
    7
 10
1297.469509467915
 20
543.70402242381488
 11
1317.469509467915
 21
543.70402242381488
  0
LINE
  8
_0-a_文字
  6
CONTINUOUS
 62
    7
 10
1271.4887473543786
 20
588.70402242381488
 11
1317.469509467915
 21
588.70402242381488
  0
TEXT
  8
_0-a_文字
 62
    7
 10
1322.4695094679128
 20
581.20402242381499
 40
14.999999999999858
 41
1.0000000000000082
 50
0
  1
デッキプレート フラットタイプ H=75
  0
TEXT
  8
_0-a_文字
 62
    7
 10
1322.4695094679128
 20
561.20402242381499
 40
14.999999999999858
 41
1.0000000000000078
 50
0
  1
t=1.0 または t=1.2（別途工事）
  0
TEXT
  8
_f-0_
 62
    7
 10
405.30228976001922
 20
1163.75
 40
17.499999999999993
 41
0.9999999999999996
 50
0
  1
ＳＤ－Ｆ仕様 ドレイン 横型
  0
ENDSEC
  0
EOF
