  0
SECTION
  2
HEADER
  9
$ACADVER
  1
AC1009
  9
$INSBASE
 10
0
 20
0
 30
0
  9
$EXTMIN
 10
0
 20
0
  9
$EXTMAX
 10
2100
 20
1485
  9
$LIMMIN
 10
0
 20
0
  9
$LIMMAX
 10
2100
 20
1485
  9
$LTSCALE
 40
5
  0
ENDSEC
  0
SECTION
  2
TABLES
  0
TABLE
  2
LTYPE
 70
     9
  0
LTYPE
  2
CONTINUOUS
 70
    64
  3
実線
 72
    65
 73
     0
 40
0.0
  0
LTYPE
  2
DASHED1
 70
    64
  3
--  --  --  --  --  --  --  --  
 72
    65
 73
     2
 40
2.5
 49
1.25
 49
-1.25
  0
LTYPE
  2
DASHED2
 70
    64
  3
----    ----    ----    ----    
 72
    65
 73
     2
 40
5.0
 49
2.5
 49
-2.5
  0
LTYPE
  2
DASHED3
 70
    64
  3
------  ------  ------  ------  
 72
    65
 73
     2
 40
5.0
 49
3.75
 49
-1.25
  0
LTYPE
  2
CENTER1
 70
    64
  3
----- - ----- - ----- - ----- - 
 72
    65
 73
     4
 40
10.0
 49
6.25
 49
-1.25
 49
1.25
 49
-1.25
  0
LTYPE
  2
CENTER2
 70
    64
  3
----------  --  ----------  --  
 72
    65
 73
     4
 40
20.0
 49
12.5
 49
-2.5
 49
2.5
 49
-2.5
  0
LTYPE
  2
PHANTOM1
 70
    64
  3
--- - - --- - - --- - - --- - - 
 72
    65
 73
     6
 40
10.0
 49
3.25
 49
-1.25
 49
1.25
 49
-1.25
 49
1.25
 49
-1.25
  0
LTYPE
  2
PHANTOM2
 70
    64
  3
--------  -  -  --------  -  -  
 72
    65
 73
     6
 40
20.0
 49
10.0
 49
-2.5
 49
1.25
 49
-2.5
 49
1.25
 49
-2.5
  0
LTYPE
  2
DOT
 70
    64
  3
-   -   -   -   -   -   -   -   
 72
    65
 73
     2
 40
2.5
 49
0.625
 49
-1.875
  0
LTYPE
  2
DUMMY
 70
    64
  3
ダミー
 72
    65
 73
     0
 40
0.0
  0
LTYPE
  2
RAND1
 70
    64
  3
ランダム線1
 72
    65
 73
     4
 40
10.0
 49
1.0
 49
-2.0
 49
3.0
 49
-4.0
  0
LTYPE
  2
RAND2
 70
    64
  3
ランダム線2
 72
    65
 73
     4
 40
14.0
 49
2.0
 49
-3.0
 49
4.0
 49
-5.0
  0
LTYPE
  2
RAND3
 70
    64
  3
ランダム線3
 72
    65
 73
     4
 40
18.0
 49
3.0
 49
-4.0
 49
5.0
 49
-6.0
  0
LTYPE
  2
RAND4
 70
    64
  3
ランダム線4
 72
    65
 73
     4
 40
22.0
 49
4.0
 49
-5.0
 49
6.0
 49
-7.0
  0
LTYPE
  2
RAND5
 70
    64
  3
ランダム線5
 72
    65
 73
     4
 40
26.0
 49
5.0
 49
-6.0
 49
7.0
 49
-8.0
  0
LTYPE
  2
LONG1
 70
    64
  3
----------  --  ----------  --  
 72
    65
 73
     4
 40
40.0
 49
32.5
 49
-2.5
 49
2.5
 49
-2.5
  0
LTYPE
  2
LONG2
 70
    64
  3
--------  -  -  --------  -  -  
 72
    65
 73
     6
 40
40.0
 49
30.0
 49
-2.5
 49
1.25
 49
-2.5
 49
1.25
 49
-2.5
  0
LTYPE
  2
LONG3
 70
    64
  3
+++++++++++++++..+++++++++++++++
 72
    65
 73
     2
 40
40.0
 49
37.5
 49
-2.5
  0
LTYPE
  2
LONG4
 70
    64
  3
+++++++++++++++..+++++++++++++++
 72
    65
 73
     2
 40
80.0
 49
75.0
 49
-5.0
  0
LTYPE
  2
LONG5
 70
    64
  3
----------  --  ----------  --  
 72
    65
 73
     4
 40
60.0
 49
37.5
 49
-7.5
 49
7.5
 49
-7.5
  0
LTYPE
  2
dashed
 70
   64
  3
-------   -------------   ------
 72
   65
 73
    2
 40
7.5
 49
6
 49
-1.5
  0
LTYPE
  2
dashed_spaced
 70
   64
  3
----        --------        ----
 72
   65
 73
    2
 40
12
 49
6
 49
-6
  0
LTYPE
  2
long_dashed_dotted
 70
   64
  3
------------- --- --------------
 72
   65
 73
    4
 40
15.25
 49
12
 49
-1.5
 49
0.25
 49
-1.5
  0
LTYPE
  2
long_dashed_double-dotted
 70
   64
  3
----------- --- --- ------------
 72
   65
 73
    6
 40
17
 49
12
 49
-1.5
 49
0.25
 49
-1.5
 49
0.25
 49
-1.5
  0
LTYPE
  2
long_dashed_triplicate-dotted
 70
   64
  3
--------- --- --- --- ----------
 72
   65
 73
    8
 40
18.75
 49
12
 49
-1.5
 49
0.25
 49
-1.5
 49
0.25
 49
-1.5
 49
0.25
 49
-1.5
  0
LTYPE
  2
dotted
 70
   64
  3
   -       -       -       -    
 72
   65
 73
    2
 40
1.75
 49
0.25
 49
-1.5
  0
LTYPE
  2
chain
 70
   64
  3
-------------- -- --------------
 72
   65
 73
    4
 40
18.5
 49
12
 49
-1.5
 49
3.5
 49
-1.5
  0
LTYPE
  2
chain_double_dash
 70
   64
  3
------------ -- -- -------------
 72
   65
 73
    6
 40
23.5
 49
12
 49
-1.5
 49
3.5
 49
-1.5
 49
3.5
 49
-1.5
  0
LTYPE
  2
dashed_dotted
 70
   64
  3
-----------     -     ----------
 72
   65
 73
    4
 40
9.25
 49
6
 49
-1.5
 49
0.25
 49
-1.5
  0
LTYPE
  2
double-dashed_dotted
 70
   64
  3
------   -----------   -   -----
 72
   65
 73
    6
 40
16.75
 49
6
 49
-1.5
 49
6
 49
-1.5
 49
0.25
 49
-1.5
  0
LTYPE
  2
dashed_double-dotted
 70
   64
  3
---------    -    -    ---------
 72
   65
 73
    6
 40
11
 49
6
 49
-1.5
 49
0.25
 49
-1.5
 49
0.25
 49
-1.5
  0
LTYPE
  2
double-dashed_double-dotted
 70
   64
  3
-----   ---------   -   -   ----
 72
   65
 73
    8
 40
18.5
 49
6
 49
-1.5
 49
6
 49
-1.5
 49
0.25
 49
-1.5
 49
0.25
 49
-1.5
  0
LTYPE
  2
dashed_triplicate-dotted
 70
   64
  3
-------    -    -    -    ------
 72
   65
 73
    8
 40
12.75
 49
6
 49
-1.5
 49
0.25
 49
-1.5
 49
0.25
 49
-1.5
 49
0.25
 49
-1.5
  0
LTYPE
  2
double-dashed_triplicate-dotted
 70
   64
  3
-----  ---------  -  -  -  -----
 72
   65
 73
   10
 40
20.25
 49
6
 49
-1.5
 49
6
 49
-1.5
 49
0.25
 49
-1.5
 49
0.25
 49
-1.5
 49
0.25
 49
-1.5
  0
LTYPE
  2
undefined
 70
   64
  3
--------------------------------
 72
   65
 73
    0
 40
0
  0
ENDTAB
  0
TABLE
  2
STYLE
  5
3
100
AcDbSymbolTable
 70
     1
  0
STYLE
  5
10
100
AcDbSymbolTableRecord
100
AcDbTextStyleTableRecord
  2
STANDARD
 70
     0
 40
0.0
 41
1.0
 50
0.0
 71
     0
 42
0.2
  3
txt
  4
bigfont.shx
  0
STYLE
  5
26
100
AcDbSymbolTableRecord
100
AcDbTextStyleTableRecord
  2
TATEGAKI
 70
    68
 40
0.0
 41
1.0
 50
0.0
 71
     0
 42
1.0
  3
txt
  4
bigfont.shx
  0
ENDTAB
  0
TABLE
  2
LAYER
 70
   13
  0
LAYER
  2
_0-1_線色１__水色__
 70
   64
 62
    7
  6
CONTINUOUS
  0
LAYER
  2
_0-2_線色２__白__
 70
   64
 62
    7
  6
CONTINUOUS
  0
LAYER
  2
_0-4_線色４__黄__
 70
   64
 62
    7
  6
CONTINUOUS
  0
LAYER
  2
_0-5_金属
 70
   64
 62
    7
  6
CONTINUOUS
  0
LAYER
  2
_0-6_鋼板__アングル
 70
   64
 62
    7
  6
CONTINUOUS
  0
LAYER
  2
_0-7_ビス
 70
   64
 62
    7
  6
CONTINUOUS
  0
LAYER
  2
_0-8_笠木他
 70
   64
 62
    7
  6
CONTINUOUS
  0
LAYER
  2
_0-9_他
 70
   64
 62
    7
  6
CONTINUOUS
  0
LAYER
  2
_0-a_文字
 70
   64
 62
    7
  6
CONTINUOUS
  0
LAYER
  2
_0-d_断熱__ハッチ
 70
   64
 62
    7
  6
CONTINUOUS
  0
LAYER
  2
_f-0_
 70
   64
 62
    7
  6
CONTINUOUS
  0
LAYER
  2
_f-f_
 70
   64
 62
    7
  6
CONTINUOUS
  0
LAYER
  2
ADD_LINE
 70
   64
 62
    7
  6
CONTINUOUS
  0
ENDTAB
  0
ENDSEC
  0
SECTION
  2
BLOCKS
  0
ENDSEC
  0
SECTION
  2
ENTITIES
  0
LINE
  8
_f-0_
  6
CONTINUOUS
 62
  136
 10
1714.9999999999989
 20
1192.5
 11
385
 21
1192.5
  0
LINE
  8
_f-0_
  6
CONTINUOUS
 62
  136
 10
385
 20
277.50000000000341
 11
1714.9999999999989
 21
277.50000000000341
  0
LINE
  8
_f-0_
  6
CONTINUOUS
 62
  136
 10
385
 20
1192.5
 11
385
 21
277.50000000000341
  0
LINE
  8
_f-0_
  6
CONTINUOUS
 62
  136
 10
1714.9999999999989
 20
1192.5
 11
1714.9999999999989
 21
277.50000000000341
  0
LINE
  8
_f-0_
  6
CONTINUOUS
 62
    6
 10
1714.9999999999989
 20
1152.5
 11
385
 21
1152.5
  0
LINE
  8
_f-f_
  6
CONTINUOUS
 62
    9
 10
310
 20
217.5
 11
310
 21
1267.5
  0
LINE
  8
_f-f_
  6
CONTINUOUS
 62
    9
 10
1790
 20
217.5
 11
310
 21
217.5
  0
LINE
  8
_f-f_
  6
CONTINUOUS
 62
    9
 10
1790
 20
1267.5
 11
310
 21
1267.5
  0
LINE
  8
_f-f_
  6
CONTINUOUS
 62
    9
 10
1790
 20
1267.5
 11
1790
 21
217.5
  0
LINE
  8
ADD_LINE
  6
DOT
 62
  136
 10
1764.9999999999989
 20
1242.5
 11
335
 21
1242.5
  0
LINE
  8
ADD_LINE
  6
DOT
 62
  136
 10
335
 20
242.50000000000227
 11
335
 21
1242.5
  0
LINE
  8
ADD_LINE
  6
DOT
 62
  136
 10
1765
 20
1242.5
 11
1765
 21
242.5
  0
LINE
  8
ADD_LINE
  6
DOT
 62
  136
 10
1765
 20
242.5
 11
335.00000000000114
 21
242.5
  0
TEXT
  8
_0-a_文字
 62
    7
 10
405
 20
287.50000000000313
 40
15.000000000000568
 41
0.9999999999999666
 50
0
  1
※ 本図面は防水納まりの参考図であり、下地等の構造を保証するものではありません
  0
TEXT
  8
_0-a_文字
 62
    7
 10
405
 20
307.50000000000313
 40
15.000000000000568
 41
0.999999999999967
 50
0
  1
※ デッキ端部などの開口部には、必要に応じ遮炎性を満たす処理をお願いします（別途工事）
  0
TEXT
  8
_0-a_文字
 62
    7
 10
405
 20
327.50000000000313
 40
15.000000000000568
 41
0.9999999999999666
 50
0
  1
※ ラジアルシートＬ６００は、断熱材の種類がポリスチレンフォームの場合のみ使用
  0
LINE
  8
_0-d_断熱__ハッチ
  6
CONTINUOUS
 62
    4
 10
672.07220296036667
 20
668.70264181084735
 11
707.07220296037008
 21
703.70264181084963
  0
LINE
  8
_0-d_断熱__ハッチ
  6
CONTINUOUS
 62
    4
 10
700.3564742078288
 20
668.7026418108519
 11
735.35647420782766
 21
703.70264181084963
  0
LINE
  8
_0-d_断熱__ハッチ
  6
CONTINUOUS
 62
    4
 10
728.64074545529434
 20
668.70264181084963
 11
763.64074545529547
 21
703.7026418108519
  0
LINE
  8
_0-d_断熱__ハッチ
  6
CONTINUOUS
 62
    4
 10
758.52476670049214
 20
670.30239180858985
 11
791.92501670274851
 21
703.70264181084735
  0
LINE
  8
_0-d_断熱__ハッチ
  6
CONTINUOUS
 62
    4
 10
786.80903794795995
 20
670.30239180859212
 11
820.2092879502186
 21
703.70264181084963
  0
LINE
  8
_0-d_断熱__ハッチ
  6
CONTINUOUS
 62
    4
 10
815.09330919541753
 20
670.30239180859212
 11
848.49355919767618
 21
703.70264181084963
  0
LINE
  8
_0-d_断熱__ハッチ
  6
CONTINUOUS
 62
    4
 10
843.37758044288421
 20
670.30239180859212
 11
876.77783044514399
 21
703.7026418108519
  0
LINE
  8
_0-d_断熱__ハッチ
  6
CONTINUOUS
 62
    4
 10
871.66185169034179
 20
670.30239180859212
 11
898.74709809843353
 21
697.38763821668385
  0
LINE
  8
_0-d_断熱__ハッチ
  6
CONTINUOUS
 62
    4
 10
899.94612293780392
 20
670.30239180859212
 11
916.67860754179742
 21
687.03487641258448
  0
LINE
  8
_0-d_断熱__ハッチ
  6
CONTINUOUS
 62
    4
 10
928.23039418526605
 20
670.30239180859212
 11
934.6101169851579
 21
676.68211460848283
  0
LINE
  8
_0-d_断熱__ハッチ
  6
CONTINUOUS
 62
    4
 10
892.81802660115773
 20
700.81078924168082
 11
923.32642403424757
 21
670.30239180859212
  0
LINE
  8
_0-d_断熱__ハッチ
  6
CONTINUOUS
 62
    4
 10
861.64190278452224
 20
703.7026418108519
 11
895.04215278678089
 21
670.30239180859212
  0
LINE
  8
_0-d_断熱__ハッチ
  6
CONTINUOUS
 62
    4
 10
833.35763153706921
 20
703.70264181084735
 11
866.75788153932444
 21
670.30239180859212
  0
LINE
  8
_0-d_断熱__ハッチ
  6
CONTINUOUS
 62
    4
 10
805.0733602896014
 20
703.70264181084963
 11
838.47361029185663
 21
670.30239180859212
  0
LINE
  8
_0-d_断熱__ハッチ
  6
CONTINUOUS
 62
    4
 10
776.78908904214381
 20
703.70264181084963
 11
810.18933904440019
 21
670.30239180858985
  0
LINE
  8
_0-d_断熱__ハッチ
  6
CONTINUOUS
 62
    4
 10
748.50481779467373
 20
703.70264181084963
 11
781.90506779693237
 21
670.30239180859212
  0
LINE
  8
_0-d_断熱__ハッチ
  6
CONTINUOUS
 62
    4
 10
720.22054654722069
 20
703.70264181084735
 11
753.62079654947934
 21
670.30239180858985
  0
LINE
  8
_0-d_断熱__ハッチ
  6
CONTINUOUS
 62
    4
 10
691.93627529975288
 20
703.70264181084735
 11
726.93627529975402
 21
668.70264181084735
  0
LINE
  8
_0-d_断熱__ハッチ
  6
CONTINUOUS
 62
    4
 10
663.6520040522953
 20
703.70264181084963
 11
698.65200405229189
 21
668.70264181084963
  0
ARC
  8
_0-1_線色１__水色__
  6
CONTINUOUS
 62
    4
 10
1160.7060596611507
 20
677.61767845237841
 40
1.2083333333333581
 50
226.07106695664211
 51
262.71583342851892
  0
ARC
  8
_0-1_線色１__水色__
  6
CONTINUOUS
 62
    4
 10
1160.7060596611507
 20
677.61767845237841
 40
1.2083333333333581
 50
337.76285982720822
 51
194.27754654500092
  0
LINE
  8
_0-8_笠木他
  6
CONTINUOUS
 62
    4
 10
1149.1211913557288
 20
682.01769836855988
 11
1109.9971913557272
 21
677.2136983685607
  0
LINE
  8
_0-8_笠木他
  6
CONTINUOUS
 62
    4
 10
1109.9971913557272
 20
677.2136983685607
 11
1109.9971913557272
 21
680.23969836856054
  0
LINE
  8
_0-8_笠木他
  6
CONTINUOUS
 62
    4
 10
1109.9971913557272
 20
680.23969836856054
 11
1146.5951913557262
 21
684.52369836856064
  0
LINE
  8
_0-8_笠木他
  6
CONTINUOUS
 62
    4
 10
1146.5951913557262
 20
684.52369836856064
 11
1146.9971913557254
 21
689.12569836856051
  0
LINE
  8
_0-8_笠木他
  6
CONTINUOUS
 62
    4
 10
1146.9971913557254
 20
689.12569836856051
 11
1149.6791913557297
 21
689.12569836856051
  0
LINE
  8
_0-8_笠木他
  6
CONTINUOUS
 62
    4
 10
1149.6791913557297
 20
689.12569836856051
 11
1149.9971913557272
 21
683.00969836856098
  0
ARC
  8
_0-8_笠木他
  6
CONTINUOUS
 62
    4
 10
1148.9644513557266
 20
683.03887036856054
 40
1.0326679999999999
 50
278.67704700000002
 51
358.33346399999999
  0
LINE
  8
_0-2_線色２__白__
  6
CONTINUOUS
 62
    7
 10
973.46512684627555
 20
679.22694566577434
 11
973.638034349691
 21
678.95094839939134
  0
LINE
  8
_0-2_線色２__白__
  6
CONTINUOUS
 62
    7
 10
973.638034349691
 20
678.95094839939134
 11
973.74797341933004
 21
678.79713494422617
  0
LINE
  8
_0-2_線色２__白__
  6
CONTINUOUS
 62
    7
 10
973.74797341933004
 20
678.79713494422617
 11
973.78809696059648
 21
678.74474386512816
  0
LINE
  8
_0-2_線色２__白__
  6
CONTINUOUS
 62
    7
 10
973.78809696059648
 20
678.74474386512816
 11
973.85950651665894
 21
678.65602470854014
  0
LINE
  8
_0-2_線色２__白__
  6
CONTINUOUS
 62
    7
 10
973.85950651665894
 20
678.65602470854014
 11
973.93371097656086
 21
678.569526166267
  0
LINE
  8
_0-2_線色２__白__
  6
CONTINUOUS
 62
    7
 10
973.93371097656086
 20
678.569526166267
 11
974.01067639476764
 21
678.48546018293632
  0
LINE
  8
_0-2_線色２__白__
  6
CONTINUOUS
 62
    7
 10
974.01067639476764
 20
678.48546018293632
 11
974.09036882574924
 21
678.40403870317118
  0
LINE
  8
_0-2_線色２__白__
  6
CONTINUOUS
 62
    7
 10
974.09036882574924
 20
678.40403870317118
 11
974.17275432397105
 21
678.32547367159691
  0
LINE
  8
_0-2_線色２__白__
  6
CONTINUOUS
 62
    7
 10
974.17275432397105
 20
678.32547367159691
 11
974.22175850003782
 21
678.28129829504746
  0
LINE
  8
_0-2_線色２__白__
  6
CONTINUOUS
 62
    7
 10
974.22175850003782
 20
678.28129829504746
 11
974.30345742529312
 21
678.21151777044747
  0
LINE
  8
_0-2_線色２__白__
  6
CONTINUOUS
 62
    7
 10
974.30345742529312
 20
678.21151777044747
 11
974.44870566020086
 21
678.09652646304244
  0
LINE
  8
_0-2_線色２__白__
  6
CONTINUOUS
 62
    7
 10
974.44870566020086
 20
678.09652646304244
 11
974.59777000264125
 21
677.98618923588378
  0
LINE
  8
_0-2_線色２__白__
  6
CONTINUOUS
 62
    7
 10
974.59777000264125
 20
677.98618923588378
 11
974.74862911910236
 21
677.87808745707594
  0
LINE
  8
_0-2_線色２__白__
  6
CONTINUOUS
 62
    7
 10
974.74862911910236
 20
677.87808745707594
 11
974.89926167606313
 21
677.76980249472558
  0
LINE
  8
_0-2_線色２__白__
  6
CONTINUOUS
 62
    7
 10
974.89926167606313
 20
677.76980249472558
 11
975.04764634000708
 21
677.65891571693487
  0
LINE
  8
_0-2_線色２__白__
  6
CONTINUOUS
 62
    7
 10
975.04764634000708
 20
677.65891571693487
 11
975.13188294999395
 21
677.59245616724797
  0
LINE
  8
_0-2_線色２__白__
  6
CONTINUOUS
 62
    7
 10
975.13188294999395
 20
677.59245616724797
 11
975.21636167875272
 21
677.52226135400974
  0
LINE
  8
_0-2_線色２__白__
  6
CONTINUOUS
 62
    7
 10
975.21636167875272
 20
677.52226135400974
 11
975.35802555299483
 21
677.39653866139292
  0
LINE
  8
_0-2_線色２__白__
  6
CONTINUOUS
 62
    7
 10
975.35802555299483
 20
677.39653866139292
 11
975.49542731593078
 21
677.2658171496721
  0
LINE
  8
_0-2_線色２__白__
  6
CONTINUOUS
 62
    7
 10
975.49542731593078
 20
677.2658171496721
 11
975.62948253783247
 21
677.1311979160771
  0
LINE
  8
_0-2_線色２__白__
  6
CONTINUOUS
 62
    7
 10
975.62948253783247
 20
677.1311979160771
 11
975.7611067889718
 21
676.9937820578491
  0
LINE
  8
_0-2_線色２__白__
  6
CONTINUOUS
 62
    7
 10
975.7611067889718
 20
676.9937820578491
 11
975.89121563963431
 21
676.85467067221794
  0
LINE
  8
_0-2_線色２__白__
  6
CONTINUOUS
 62
    7
 10
975.89121563963431
 20
676.85467067221794
 11
975.9663451988115
 21
676.77364306746426
  0
LINE
  8
_0-2_線色２__白__
  6
CONTINUOUS
 62
    7
 10
975.9663451988115
 20
676.77364306746426
 11
976.06048058437295
 21
676.67191891018433
  0
LINE
  8
_0-2_線色２__白__
  6
CONTINUOUS
 62
    7
 10
976.06048058437295
 20
676.67191891018433
 11
976.22177825201902
 21
676.49584367112425
  0
LINE
  8
_0-2_線色２__白__
  6
CONTINUOUS
 62
    7
 10
976.22177825201902
 20
676.49584367112425
 11
976.38041437710285
 21
676.31777209494999
  0
LINE
  8
_0-2_線色２__白__
  6
CONTINUOUS
 62
    7
 10
976.38041437710285
 20
676.31777209494999
 11
976.53477297882887
 21
676.13639663777235
  0
LINE
  8
_0-2_線色２__白__
  6
CONTINUOUS
 62
    7
 10
976.53477297882887
 20
676.13639663777235
 11
976.6832380763924
 21
675.95040975569077
  0
LINE
  8
_0-2_線色２__白__
  6
CONTINUOUS
 62
    7
 10
976.6832380763924
 20
675.95040975569077
 11
976.82419368898877
 21
675.7585039048115
  0
LINE
  8
_0-2_線色２__白__
  6
CONTINUOUS
 62
    7
 10
976.82419368898877
 20
675.7585039048115
 11
976.90187031781875
 21
675.64397119951195
  0
LINE
  8
_0-2_線色２__白__
  6
CONTINUOUS
 62
    7
 10
976.90187031781875
 20
675.64397119951195
 11
976.94556957495365
 21
675.57604561407402
  0
LINE
  8
_0-2_線色２__白__
  6
CONTINUOUS
 62
    7
 10
976.94556957495365
 20
675.57604561407402
 11
977.01789508648631
 21
675.45685951665405
  0
LINE
  8
_0-2_線色２__白__
  6
CONTINUOUS
 62
    7
 10
977.01789508648631
 20
675.45685951665405
 11
977.08591551996392
 21
675.33515125002737
  0
LINE
  8
_0-2_線色２__白__
  6
CONTINUOUS
 62
    7
 10
977.08591551996392
 20
675.33515125002737
 11
977.14906717739609
 21
675.21103930905952
  0
LINE
  8
_0-2_線色２__白__
  6
CONTINUOUS
 62
    7
 10
977.14906717739609
 20
675.21103930905952
 11
977.20678636080606
 21
675.08464218860695
  0
LINE
  8
_0-2_線色２__白__
  6
CONTINUOUS
 62
    7
 10
977.20678636080606
 20
675.08464218860695
 11
977.25850937221253
 21
674.95607838353294
  0
LINE
  8
_0-2_線色２__白__
  6
CONTINUOUS
 62
    7
 10
977.25850937221253
 20
674.95607838353294
 11
977.28553914649524
 21
674.88056529483288
  0
LINE
  8
_0-2_線色２__白__
  6
CONTINUOUS
 62
    7
 10
977.28553914649524
 20
674.88056529483288
 11
977.31946327374658
 21
674.77415615294944
  0
LINE
  8
_0-2_線色２__白__
  6
CONTINUOUS
 62
    7
 10
977.31946327374658
 20
674.77415615294944
 11
977.36860820865218
 21
674.58800611881202
  0
LINE
  8
_0-2_線色２__白__
  6
CONTINUOUS
 62
    7
 10
977.36860820865218
 20
674.58800611881202
 11
977.40779413767427
 21
674.3989935884963
  0
LINE
  8
_0-2_線色２__白__
  6
CONTINUOUS
 62
    7
 10
977.40779413767427
 20
674.3989935884963
 11
977.43919551624799
 21
674.20774356117249
  0
LINE
  8
_0-2_線色２__白__
  6
CONTINUOUS
 62
    7
 10
977.43919551624799
 20
674.20774356117249
 11
977.46498679979936
 21
674.01488103600173
  0
LINE
  8
_0-2_線色２__白__
  6
CONTINUOUS
 62
    7
 10
977.46498679979936
 20
674.01488103600173
 11
977.48734244376806
 21
673.82103101215193
  0
LINE
  8
_0-2_線色２__白__
  6
CONTINUOUS
 62
    7
 10
977.48734244376806
 20
673.82103101215193
 11
977.49959135572567
 21
673.70839180859207
  0
LINE
  8
_0-2_線色２__白__
  6
CONTINUOUS
 62
    7
 10
973.45651135839375
 20
679.24295418769248
 11
973.46512684627555
 21
679.22694566577434
  0
LINE
  8
_0-2_線色２__白__
  6
CONTINUOUS
 62
    7
 10
1127.0273202942042
 20
679.28082544561107
 11
1126.8539456720998
 21
679.0051213720119
  0
LINE
  8
_0-2_線色２__白__
  6
CONTINUOUS
 62
    7
 10
1126.8539456720998
 20
679.0051213720119
 11
1126.7437462963824
 21
678.85149430533943
  0
LINE
  8
_0-2_線色２__白__
  6
CONTINUOUS
 62
    7
 10
1126.7437462963824
 20
678.85149430533943
 11
1126.7035340949485
 21
678.7991712455198
  0
LINE
  8
_0-2_線色２__白__
  6
CONTINUOUS
 62
    7
 10
1126.7035340949485
 20
678.7991712455198
 11
1126.6319744065629
 21
678.71057313921824
  0
LINE
  8
_0-2_線色２__白__
  6
CONTINUOUS
 62
    7
 10
1126.6319744065629
 20
678.71057313921824
 11
1126.5576235786682
 21
678.62420037686775
  0
LINE
  8
_0-2_線色２__白__
  6
CONTINUOUS
 62
    7
 10
1126.5576235786682
 20
678.62420037686775
 11
1126.4805159156629
 21
678.54026484530436
  0
LINE
  8
_0-2_線色２__白__
  6
CONTINUOUS
 62
    7
 10
1126.4805159156629
 20
678.54026484530436
 11
1126.4006857219226
 21
678.45897843136868
  0
LINE
  8
_0-2_線色２__白__
  6
CONTINUOUS
 62
    7
 10
1126.4006857219226
 20
678.45897843136868
 11
1126.3181673018414
 21
678.38055302189673
  0
LINE
  8
_0-2_線色２__白__
  6
CONTINUOUS
 62
    7
 10
1126.3181673018414
 20
678.38055302189673
 11
1126.2690883905987
 21
678.33646069108113
  0
LINE
  8
_0-2_線色２__白__
  6
CONTINUOUS
 62
    7
 10
1126.2690883905987
 20
678.33646069108113
 11
1126.1872714179515
 21
678.26681861336624
  0
LINE
  8
_0-2_線色２__白__
  6
CONTINUOUS
 62
    7
 10
1126.1872714179515
 20
678.26681861336624
 11
1126.0418286680112
 21
678.15207343041607
  0
LINE
  8
_0-2_線色２__白__
  6
CONTINUOUS
 62
    7
 10
1126.0418286680112
 20
678.15207343041607
 11
1125.8925776970989
 21
678.04198878313514
  0
LINE
  8
_0-2_線色２__白__
  6
CONTINUOUS
 62
    7
 10
1125.8925776970989
 20
678.04198878313514
 11
1125.7415357401931
 21
677.93414262022566
  0
LINE
  8
_0-2_線色２__白__
  6
CONTINUOUS
 62
    7
 10
1125.7415357401931
 20
677.93414262022566
 11
1125.5907200322633
 21
677.826112890383
  0
LINE
  8
_0-2_線色２__白__
  6
CONTINUOUS
 62
    7
 10
1125.5907200322633
 20
677.826112890383
 11
1125.4421478082838
 21
677.71547754230937
  0
LINE
  8
_0-2_線色２__白__
  6
CONTINUOUS
 62
    7
 10
1125.4421478082838
 20
677.71547754230937
 11
1125.3577987781944
 21
677.64916073199288
  0
LINE
  8
_0-2_線色２__白__
  6
CONTINUOUS
 62
    7
 10
1125.3577987781944
 20
677.64916073199288
 11
1125.2732013044886
 21
677.57910907348219
  0
LINE
  8
_0-2_線色２__白__
  6
CONTINUOUS
 62
    7
 10
1125.2732013044886
 20
677.57910907348219
 11
1125.1313247378209
 21
677.45362645104137
  0
LINE
  8
_0-2_線色２__白__
  6
CONTINUOUS
 62
    7
 10
1125.1313247378209
 20
677.45362645104137
 11
1124.9937018114758
 21
677.3231377993136
  0
LINE
  8
_0-2_線色２__白__
  6
CONTINUOUS
 62
    7
 10
1124.9937018114758
 20
677.3231377993136
 11
1124.8594188210689
 21
677.18874576435951
  0
LINE
  8
_0-2_線色２__白__
  6
CONTINUOUS
 62
    7
 10
1124.8594188210689
 20
677.18874576435951
 11
1124.727562062202
 21
677.0515529922352
  0
LINE
  8
_0-2_線色２__白__
  6
CONTINUOUS
 62
    7
 10
1124.727562062202
 20
677.0515529922352
 11
1124.5972178304862
 21
676.91266212900132
  0
LINE
  8
_0-2_線色２__白__
  6
CONTINUOUS
 62
    7
 10
1124.5972178304862
 20
676.91266212900132
 11
1124.5219511689845
 21
676.83176186286232
  0
LINE
  8
_0-2_線色２__白__
  6
CONTINUOUS
 62
    7
 10
1124.5219511689845
 20
676.83176186286232
 11
1124.4276436613461
 21
676.73019725784684
  0
LINE
  8
_0-2_線色２__白__
  6
CONTINUOUS
 62
    7
 10
1124.4276436613461
 20
676.73019725784684
 11
1124.2660480637312
 21
676.55439540851035
  0
LINE
  8
_0-2_線色２__白__
  6
CONTINUOUS
 62
    7
 10
1124.2660480637312
 20
676.55439540851035
 11
1124.1071106243169
 21
676.3765927179395
  0
LINE
  8
_0-2_線色２__白__
  6
CONTINUOUS
 62
    7
 10
1124.1071106243169
 20
676.3765927179395
 11
1123.9524451074192
 21
676.19547890765148
  0
LINE
  8
_0-2_線色２__白__
  6
CONTINUOUS
 62
    7
 10
1123.9524451074192
 20
676.19547890765148
 11
1123.8036652773678
 21
676.00974369916571
  0
LINE
  8
_0-2_線色２__白__
  6
CONTINUOUS
 62
    7
 10
1123.8036652773678
 20
676.00974369916571
 11
1123.6623848984925
 21
675.81807681400164
  0
LINE
  8
_0-2_線色２__白__
  6
CONTINUOUS
 62
    7
 10
1123.6623848984925
 20
675.81807681400164
 11
1123.5845144343273
 21
675.70367580849847
  0
LINE
  8
_0-2_線色２__白__
  6
CONTINUOUS
 62
    7
 10
1123.5845144343273
 20
675.70367580849847
 11
1123.5407002164254
 21
675.63582431963482
  0
LINE
  8
_0-2_線色２__白__
  6
CONTINUOUS
 62
    7
 10
1123.5407002164254
 20
675.63582431963482
 11
1123.4681729819556
 21
675.51676086723887
  0
LINE
  8
_0-2_線色２__白__
  6
CONTINUOUS
 62
    7
 10
1123.4681729819556
 20
675.51676086723887
 11
1123.3999465483919
 21
675.39516795914665
  0
LINE
  8
_0-2_線色２__白__
  6
CONTINUOUS
 62
    7
 10
1123.3999465483919
 20
675.39516795914665
 11
1123.3365848135679
 21
675.27116313549982
  0
LINE
  8
_0-2_線色２__白__
  6
CONTINUOUS
 62
    7
 10
1123.3365848135679
 20
675.27116313549982
 11
1123.2786516753129
 21
675.14486393643324
  0
LINE
  8
_0-2_線色２__白__
  6
CONTINUOUS
 62
    7
 10
1123.2786516753129
 20
675.14486393643324
 11
1123.2267110314649
 21
675.01638790209313
  0
LINE
  8
_0-2_線色２__白__
  6
CONTINUOUS
 62
    7
 10
1123.2267110314649
 20
675.01638790209313
 11
1123.199553424032
 21
674.94092069317617
  0
LINE
  8
_0-2_線色２__白__
  6
CONTINUOUS
 62
    7
 10
1123.199553424032
 20
674.94092069317617
 11
1123.1654491549477
 21
674.83456915009469
  0
LINE
  8
_0-2_線色２__白__
  6
CONTINUOUS
 62
    7
 10
1123.1654491549477
 20
674.83456915009469
 11
1123.1159890688775
 21
674.64850260360322
  0
LINE
  8
_0-2_線色２__白__
  6
CONTINUOUS
 62
    7
 10
1123.1159890688775
 20
674.64850260360322
 11
1123.0764831271324
 21
674.45955670072067
  0
LINE
  8
_0-2_線色２__白__
  6
CONTINUOUS
 62
    7
 10
1123.0764831271324
 20
674.45955670072067
 11
1123.0447579357622
 21
674.26836012188119
  0
LINE
  8
_0-2_線色２__白__
  6
CONTINUOUS
 62
    7
 10
1123.0447579357622
 20
674.26836012188119
 11
1123.0186401007984
 21
674.07554154751665
  0
LINE
  8
_0-2_線色２__白__
  6
CONTINUOUS
 62
    7
 10
1123.0186401007984
 20
674.07554154751665
 11
1122.9959562282909
 21
673.88172965806802
  0
LINE
  8
_0-2_線色２__白__
  6
CONTINUOUS
 62
    7
 10
1122.9959562282909
 20
673.88172965806802
 11
1122.9835165935981
 21
673.7691113579956
  0
LINE
  8
_0-2_線色２__白__
  6
CONTINUOUS
 62
    7
 10
1127.0359628781432
 20
679.29681935533495
 11
1127.0273202942042
 21
679.28082544561107
  0
LINE
  8
_0-2_線色２__白__
  6
CONTINUOUS
 62
    7
 10
1133.0517645808493
 20
680.02588512930856
 11
1127.0255351208232
 21
679.2955555967626
  0
LINE
  8
_0-2_線色２__白__
  6
CONTINUOUS
 62
    7
 10
967.44195286192166
 20
679.9822059185351
 11
973.46693696074794
 21
679.24167277284027
  0
LINE
  8
_0-2_線色２__白__
  6
CONTINUOUS
 62
    7
 10
967.44195286192166
 20
679.9822059185351
 11
966.83199097722422
 21
675.01955073212343
  0
LINE
  8
_0-2_線色２__白__
  6
CONTINUOUS
 62
    7
 10
1133.0517645808493
 20
680.02588512930856
 11
1133.6533219597629
 21
675.06220416455449
  0
LINE
  8
_0-8_笠木他
  6
CONTINUOUS
 62
    3
 10
996.57179135572619
 20
643.21439180859329
 11
996.54079135572715
 21
634.54439180859367
  0
LINE
  8
_0-8_笠木他
  6
CONTINUOUS
 62
    3
 10
939.99959135572567
 20
675.29839180859312
 11
940.23459135572807
 21
670.78039180859264
  0
ARC
  8
_0-8_笠木他
  6
CONTINUOUS
 62
    3
 10
940.74926935572762
 20
670.82150380859389
 40
0.5163579999999999
 50
184.51944900000001
 51
268.235434
  0
LINE
  8
_0-8_笠木他
  6
CONTINUOUS
 62
    3
 10
986.77599135572905
 20
652.41839180859301
 11
985.00099135572668
 21
672.78639180859386
  0
LINE
  8
_0-8_笠木他
  6
CONTINUOUS
 62
    3
 10
985.00099135572668
 20
672.78639180859386
 11
942.24019135572576
 21
678.05039180859353
  0
LINE
  8
_0-8_笠木他
  6
CONTINUOUS
 62
    3
 10
939.99959135572567
 20
676.06439180859184
 11
939.99959135572567
 21
675.29839180859312
  0
LINE
  8
_0-8_笠木他
  6
CONTINUOUS
 62
    3
 10
996.37199135572587
 20
603.12559180859239
 11
995.02919135572824
 21
601.77779180859375
  0
LINE
  8
_0-8_笠木他
  6
CONTINUOUS
 62
    3
 10
996.46499135572753
 20
605.74259180859258
 11
995.12219135572536
 21
604.39539180859242
  0
LINE
  8
_0-8_笠木他
  6
CONTINUOUS
 62
    3
 10
995.12219135572536
 20
604.39539180859242
 11
996.37199135572587
 21
603.12559180859239
  0
LINE
  8
_0-8_笠木他
  6
CONTINUOUS
 62
    3
 10
996.5579913557292
 20
608.36159180859227
 11
995.21519135572703
 21
607.01439180859211
  0
LINE
  8
_0-8_笠木他
  6
CONTINUOUS
 62
    3
 10
995.21519135572703
 20
607.01439180859211
 11
996.46499135572753
 21
605.74259180859258
  0
LINE
  8
_0-8_笠木他
  6
CONTINUOUS
 62
    3
 10
996.65099135572632
 20
610.98119180859271
 11
995.3081913557287
 21
609.6333918085918
  0
LINE
  8
_0-8_笠木他
  6
CONTINUOUS
 62
    3
 10
995.3081913557287
 20
609.6333918085918
 11
996.5579913557292
 21
608.36159180859227
  0
LINE
  8
_0-8_笠木他
  6
CONTINUOUS
 62
    3
 10
996.74479135572597
 20
613.59739180859265
 11
995.40119135572581
 21
612.24959180859173
  0
LINE
  8
_0-8_笠木他
  6
CONTINUOUS
 62
    3
 10
995.40119135572581
 20
612.24959180859173
 11
996.65099135572632
 21
610.98119180859271
  0
LINE
  8
_0-8_笠木他
  6
CONTINUOUS
 62
    3
 10
996.83779135572763
 20
616.21439180859284
 11
995.49479135572597
 21
614.86719180859268
  0
LINE
  8
_0-8_笠木他
  6
CONTINUOUS
 62
    3
 10
995.49479135572597
 20
614.86719180859268
 11
996.74479135572597
 21
613.59739180859265
  0
LINE
  8
_0-8_笠木他
  6
CONTINUOUS
 62
    3
 10
996.9307913557293
 20
618.83399180859328
 11
995.58799135572713
 21
617.48699180859262
  0
LINE
  8
_0-8_笠木他
  6
CONTINUOUS
 62
    3
 10
995.58799135572713
 20
617.48699180859262
 11
996.83779135572763
 21
616.21439180859284
  0
LINE
  8
_0-8_笠木他
  6
CONTINUOUS
 62
    3
 10
997.02379135572642
 20
621.45359180859373
 11
995.68299135572829
 21
620.10599180859231
  0
LINE
  8
_0-8_笠木他
  6
CONTINUOUS
 62
    3
 10
995.68299135572829
 20
620.10599180859231
 11
996.9307913557293
 21
618.83399180859328
  0
LINE
  8
_0-8_笠木他
  6
CONTINUOUS
 62
    3
 10
997.11679135572808
 20
624.07259180859342
 11
995.77599135572541
 21
622.722791808593
  0
LINE
  8
_0-8_笠木他
  6
CONTINUOUS
 62
    3
 10
995.77599135572541
 20
622.722791808593
 11
997.02379135572642
 21
621.45359180859373
  0
LINE
  8
_0-8_笠木他
  6
CONTINUOUS
 62
    3
 10
997.20979135572975
 20
626.68879180859335
 11
995.86899135572708
 21
625.33979180859319
  0
LINE
  8
_0-8_笠木他
  6
CONTINUOUS
 62
    3
 10
995.86899135572708
 20
625.33979180859319
 11
997.11679135572808
 21
624.07259180859342
  0
LINE
  8
_0-8_笠木他
  6
CONTINUOUS
 62
    3
 10
997.30279135572687
 20
629.30579180859354
 11
995.96199135572874
 21
627.95879180859288
  0
LINE
  8
_0-8_笠木他
  6
CONTINUOUS
 62
    3
 10
995.96199135572874
 20
627.95879180859288
 11
997.20979135572975
 21
626.68879180859335
  0
LINE
  8
_0-8_笠木他
  6
CONTINUOUS
 62
    3
 10
997.39799135572753
 20
631.92539180859399
 11
996.05499135572586
 21
630.57759180859307
  0
LINE
  8
_0-8_笠木他
  6
CONTINUOUS
 62
    3
 10
996.05499135572586
 20
630.57759180859307
 11
997.30279135572687
 21
629.30579180859354
  0
LINE
  8
_0-8_笠木他
  6
CONTINUOUS
 62
    3
 10
996.14799135572753
 20
633.19519180859174
 11
997.39799135572753
 21
631.92539180859399
  0
LINE
  8
_0-8_笠木他
  6
CONTINUOUS
 62
    3
 10
974.8089913557294
 20
671.01239180859352
 11
975.99899135572628
 21
648.22839180859205
  0
LINE
  8
_0-8_笠木他
  6
CONTINUOUS
 62
    3
 10
975.99899135572628
 20
648.22839180859205
 11
986.12479135572698
 21
648.22839180859205
  0
LINE
  8
_0-8_笠木他
  6
CONTINUOUS
 62
    3
 10
986.12479135572698
 20
648.22839180859205
 11
988.15879135572573
 21
646.2223918085931
  0
LINE
  8
_0-8_笠木他
  6
CONTINUOUS
 62
    3
 10
988.15879135572573
 20
646.2223918085931
 11
988.98159135572655
 21
599.05079180859389
  0
ARC
  8
_0-8_笠木他
  6
CONTINUOUS
 62
    3
 10
990.02096535572832
 20
599.10776180859216
 40
1.0409820000000001
 50
183.14121900000001
 51
267.89328999999998
  0
LINE
  8
_0-8_笠木他
  6
CONTINUOUS
 62
    3
 10
989.98279135572716
 20
598.06739180859381
 11
994.00099135572759
 21
598.06739180859381
  0
LINE
  8
_0-8_笠木他
  6
CONTINUOUS
 62
    3
 10
1000.9995913557293
 20
647.22639180859346
 11
986.77599135572905
 21
652.41839180859301
  0
ARC
  8
_0-8_笠木他
  6
CONTINUOUS
 62
    3
 10
942.00805735572771
 20
676.55803780859401
 40
1.511298
 50
81.161677999999995
 51
90.365513000000007
  0
ARC
  8
_0-8_笠木他
  6
CONTINUOUS
 62
    3
 10
942.07497535572543
 20
675.99413980859367
 40
2.076578
 50
92.112883999999994
 51
178.084249
  0
LINE
  8
_0-8_笠木他
  6
CONTINUOUS
 62
    3
 10
940.73339135572837
 20
670.30439180859389
 11
942.25819135572578
 21
670.30439180859389
  0
ARC
  8
_0-8_笠木他
  6
CONTINUOUS
 62
    3
 10
942.24209735572799
 20
670.82202980859279
 40
0.5168899999999999
 50
271.78269899999998
 51
354.19964099999999
  0
LINE
  8
_0-8_笠木他
  6
CONTINUOUS
 62
    3
 10
942.7563913557276
 20
670.77039180859288
 11
942.82999135572823
 21
671.70639180859212
  0
ARC
  8
_0-8_笠木他
  6
CONTINUOUS
 62
    3
 10
945.94593935572789
 20
671.42648780859304
 40
3.1283379999999998
 50
89.307868999999997
 51
174.88332299999999
  0
LINE
  8
_0-8_笠木他
  6
CONTINUOUS
 62
    3
 10
945.98379135572827
 20
674.55439180859344
 11
946.19379135572558
 21
674.53639180859341
  0
LINE
  8
_0-8_笠木他
  6
CONTINUOUS
 62
    3
 10
946.19379135572558
 20
674.53639180859341
 11
974.8089913557294
 21
671.01239180859352
  0
LINE
  8
_0-8_笠木他
  6
CONTINUOUS
 62
    3
 10
995.02919135572824
 20
601.77779180859375
 11
996.39325954539231
 21
600.39276817866607
  0
LINE
  8
_0-8_笠木他
  6
CONTINUOUS
 62
    3
 10
996.39325954539231
 20
600.39276817866607
 11
994.00099135572759
 21
598.06739180859381
  0
LINE
  8
_0-8_笠木他
  6
CONTINUOUS
 62
    3
 10
996.57179135572619
 20
643.21439180859329
 11
1000.9995913557293
 21
643.21439180859329
  0
LINE
  8
_0-8_笠木他
  6
CONTINUOUS
 62
    3
 10
996.54079135572715
 20
634.54439180859367
 11
997.49099135572919
 21
634.54439180859367
  0
LINE
  8
_0-8_笠木他
  6
CONTINUOUS
 62
    3
 10
997.49099135572919
 20
634.54439180859367
 11
996.14799135572753
 21
633.19519180859174
  0
LINE
  8
_0-8_笠木他
  6
CONTINUOUS
 62
    3
 10
1111.8391913557286
 20
646.2223918085931
 11
1113.8731913557274
 21
648.22839180859205
  0
LINE
  8
_0-8_笠木他
  6
CONTINUOUS
 62
    3
 10
1103.625191355726
 20
603.14139180859343
 11
1104.9691913557297
 21
601.793791808592
  0
LINE
  8
_0-8_笠木他
  6
CONTINUOUS
 62
    3
 10
1103.5331913557263
 20
605.75759180859336
 11
1104.875191355726
 21
604.4105918085927
  0
LINE
  8
_0-8_笠木他
  6
CONTINUOUS
 62
    3
 10
1104.875191355726
 20
604.4105918085927
 11
1103.625191355726
 21
603.14139180859343
  0
LINE
  8
_0-8_笠木他
  6
CONTINUOUS
 62
    3
 10
1103.4391913557272
 20
608.37459180859355
 11
1104.7831913557263
 21
607.02759180859289
  0
LINE
  8
_0-8_笠木他
  6
CONTINUOUS
 62
    3
 10
1104.7831913557263
 20
607.02759180859289
 11
1103.5331913557263
 21
605.75759180859336
  0
LINE
  8
_0-8_笠木他
  6
CONTINUOUS
 62
    3
 10
1103.3471913557275
 20
610.99419180859172
 11
1104.6891913557272
 21
609.64659180859258
  0
LINE
  8
_0-8_笠木他
  6
CONTINUOUS
 62
    3
 10
1104.6891913557272
 20
609.64659180859258
 11
1103.4391913557272
 21
608.37459180859355
  0
LINE
  8
_0-8_笠木他
  6
CONTINUOUS
 62
    3
 10
1103.2531913557284
 20
613.61319180859368
 11
1104.5971913557275
 21
612.26619180859302
  0
LINE
  8
_0-8_笠木他
  6
CONTINUOUS
 62
    3
 10
1104.5971913557275
 20
612.26619180859302
 11
1103.3471913557275
 21
610.99419180859172
  0
LINE
  8
_0-8_笠木他
  6
CONTINUOUS
 62
    3
 10
1103.1591913557293
 20
616.23219180859337
 11
1104.5031913557284
 21
614.88239180859296
  0
LINE
  8
_0-8_笠木他
  6
CONTINUOUS
 62
    3
 10
1104.5031913557284
 20
614.88239180859296
 11
1103.2531913557284
 21
613.61319180859368
  0
LINE
  8
_0-8_笠木他
  6
CONTINUOUS
 62
    3
 10
1103.0671913557296
 20
618.84919180859356
 11
1104.4051913557257
 21
617.49939180859315
  0
LINE
  8
_0-8_笠木他
  6
CONTINUOUS
 62
    3
 10
1104.4051913557257
 20
617.49939180859315
 11
1103.1591913557293
 21
616.23219180859337
  0
LINE
  8
_0-8_笠木他
  6
CONTINUOUS
 62
    3
 10
1102.9731913557259
 20
621.46679180859223
 11
1104.3131913557261
 21
620.11899180859359
  0
LINE
  8
_0-8_笠木他
  6
CONTINUOUS
 62
    3
 10
1104.3131913557261
 20
620.11899180859359
 11
1103.0671913557296
 21
618.84919180859356
  0
LINE
  8
_0-8_笠木他
  6
CONTINUOUS
 62
    3
 10
1102.8811913557263
 20
624.08579180859192
 11
1104.2191913557269
 21
622.73859180859176
  0
LINE
  8
_0-8_笠木他
  6
CONTINUOUS
 62
    3
 10
1104.2191913557269
 20
622.73859180859176
 11
1102.9731913557259
 21
621.46679180859223
  0
LINE
  8
_0-8_笠木他
  6
CONTINUOUS
 62
    3
 10
1102.7871913557271
 20
626.70459180859211
 11
1104.1271913557273
 21
625.35559180859195
  0
LINE
  8
_0-8_笠木他
  6
CONTINUOUS
 62
    3
 10
1104.1271913557273
 20
625.35559180859195
 11
1102.8811913557263
 21
624.08579180859192
  0
LINE
  8
_0-8_笠木他
  6
CONTINUOUS
 62
    3
 10
1102.6911913557285
 20
629.32219180859306
 11
1104.0331913557281
 21
627.97179180859189
  0
LINE
  8
_0-8_笠木他
  6
CONTINUOUS
 62
    3
 10
1104.0331913557281
 20
627.97179180859189
 11
1102.7871913557271
 21
626.70459180859211
  0
LINE
  8
_0-8_笠木他
  6
CONTINUOUS
 62
    3
 10
1102.5971913557294
 20
631.93859180859249
 11
1103.9411913557285
 21
630.59079180859385
  0
LINE
  8
_0-8_笠木他
  6
CONTINUOUS
 62
    3
 10
1103.9411913557285
 20
630.59079180859385
 11
1102.6911913557285
 21
629.32219180859306
  0
LINE
  8
_0-8_笠木他
  6
CONTINUOUS
 62
    3
 10
1102.5031913557257
 20
634.55739180859268
 11
1103.8471913557294
 21
633.21039180859202
  0
LINE
  8
_0-8_笠木他
  6
CONTINUOUS
 62
    3
 10
1103.8471913557294
 20
633.21039180859202
 11
1102.5971913557294
 21
631.93859180859249
  0
LINE
  8
_0-8_笠木他
  6
CONTINUOUS
 62
    3
 10
1103.4571913557272
 20
643.21439180859329
 11
1103.4571913557272
 21
634.54439180859367
  0
LINE
  8
_0-8_笠木他
  6
CONTINUOUS
 62
    3
 10
1103.4571913557272
 20
634.54439180859367
 11
1102.3571913557259
 21
634.54439180859367
  0
LINE
  8
_0-8_笠木他
  6
CONTINUOUS
 62
    3
 10
1106.0011913557253
 20
598.06739180859381
 11
1110.0171913557267
 21
598.06739180859381
  0
ARC
  8
_0-8_笠木他
  6
CONTINUOUS
 62
    3
 10
1109.9793833557294
 20
599.10469780859216
 40
1.03789
 50
272.06517599999995
 51
357.01875799999999
  0
LINE
  8
_0-8_笠木他
  6
CONTINUOUS
 62
    3
 10
1111.0151913557263
 20
599.05079180859389
 11
1111.8391913557286
 21
646.2223918085931
  0
LINE
  8
_0-8_笠木他
  6
CONTINUOUS
 62
    3
 10
1113.8731913557274
 20
648.22839180859205
 11
1133.9991913557276
 21
648.22839180859205
  0
LINE
  8
_0-8_笠木他
  6
CONTINUOUS
 62
    3
 10
1133.9991913557276
 20
648.22839180859205
 11
1136.1031913557269
 21
672.35439180859316
  0
LINE
  8
_0-8_笠木他
  6
CONTINUOUS
 62
    3
 10
1136.1031913557269
 20
672.35439180859316
 11
1153.8071913557258
 21
674.53639180859341
  0
LINE
  8
_0-8_笠木他
  6
CONTINUOUS
 62
    3
 10
1157.7411913557296
 20
670.30239180859212
 11
1159.2631913557295
 21
670.30239180859212
  0
ARC
  8
_0-8_笠木他
  6
CONTINUOUS
 62
    3
 10
1159.2477813557286
 20
670.82000380859313
 40
0.5169359999999999
 50
271.80308500000001
 51
355.19273199999998
  0
LINE
  8
_0-8_笠木他
  6
CONTINUOUS
 62
    3
 10
1159.7631913557268
 20
670.77639180859364
 11
1159.9991913557267
 21
675.29439180859185
  0
ARC
  8
_0-8_笠木他
  6
CONTINUOUS
 62
    3
 10
1123.283249355726
 20
671.73272780859293
 40
2.0583239999999998
 50
98.373173000000008
 51
175.72923200000002
  0
LINE
  8
_0-8_笠木他
  6
CONTINUOUS
 62
    3
 10
1121.2311913557267
 20
671.88639180859241
 11
1120.3491913557252
 21
655.02239180859192
  0
LINE
  8
_0-8_笠木他
  6
CONTINUOUS
 62
    3
 10
1120.3491913557252
 20
655.02239180859192
 11
1098.9991913557276
 21
647.22639180859346
  0
LINE
  8
_0-8_笠木他
  6
CONTINUOUS
 62
    3
 10
1103.5980994529007
 20
600.39922681238863
 11
1106.0011913557253
 21
598.06739180859381
  0
LINE
  8
_0-8_笠木他
  6
CONTINUOUS
 62
    3
 10
1104.9691913557297
 20
601.793791808592
 11
1103.5980994529007
 21
600.39922681238863
  0
ARC
  8
_0-8_笠木他
  6
CONTINUOUS
 62
    3
 10
1157.7550493557271
 20
670.81768580859375
 40
0.5145459999999999
 50
185.80330100000003
 51
268.46932399999997
  0
LINE
  8
_0-8_笠木他
  6
CONTINUOUS
 62
    3
 10
1157.1671913557282
 20
671.70639180859212
 11
1157.2431913557273
 21
670.76639180859388
  0
ARC
  8
_0-8_笠木他
  6
CONTINUOUS
 62
    3
 10
1154.0717913557262
 20
671.43158580859222
 40
3.1156240000000013
 50
8.8737189999999995
 51
94.862954000000002
  0
ARC
  8
_0-8_笠木他
  6
CONTINUOUS
 62
    3
 10
1154.0437833557269
 20
671.54925980859275
 40
3.1274700000000011
 50
2.8632759999999999
 51
6.6640059999999997
  0
LINE
  8
_0-8_笠木他
  6
CONTINUOUS
 62
    3
 10
1000.9995913557293
 20
643.21439180859329
 11
1000.9995913557293
 21
647.22639180859346
  0
LINE
  8
_0-8_笠木他
  6
CONTINUOUS
 62
    3
 10
1098.9991913557276
 20
647.22639180859346
 11
1098.9991913557276
 21
643.21439180859329
  0
LINE
  8
_0-8_笠木他
  6
CONTINUOUS
 62
    3
 10
1098.9991913557276
 20
643.21439180859329
 11
1103.4291913557297
 21
643.21439180859329
  0
LINE
  8
_0-8_笠木他
  6
CONTINUOUS
 62
    4
 10
1151.0251913557283
 20
664.89439180859222
 11
1151.5171913557276
 21
664.40239180859294
  0
LINE
  8
_0-8_笠木他
  6
CONTINUOUS
 62
    4
 10
1154.9611913557271
 20
664.89439180859222
 11
1154.4711913557273
 21
664.40239180859294
  0
LINE
  8
_0-8_笠木他
  6
CONTINUOUS
 62
    4
 10
1152.6011913557284
 20
676.21439180859284
 11
1152.6011913557284
 21
673.75439180859189
  0
LINE
  8
_0-8_笠木他
  6
CONTINUOUS
 62
    4
 10
1153.3871913557266
 20
676.21439180859284
 11
1153.3871913557266
 21
673.75439180859189
  0
LINE
  8
_0-8_笠木他
  6
CONTINUOUS
 62
    4
 10
1149.3031913557286
 20
676.21439180859284
 11
1152.9931913557255
 21
676.21439180859284
  0
LINE
  8
_0-8_笠木他
  6
CONTINUOUS
 62
    4
 10
1149.3031913557286
 20
676.21439180859284
 11
1151.0251913557283
 21
673.75439180859189
  0
LINE
  8
_0-8_笠木他
  6
CONTINUOUS
 62
    4
 10
1154.9611913557271
 20
673.75439180859189
 11
1151.0251913557283
 21
673.75439180859189
  0
LINE
  8
_0-8_笠木他
  6
CONTINUOUS
 62
    4
 10
1156.6851913557264
 20
676.21439180859284
 11
1152.9931913557255
 21
676.21439180859284
  0
LINE
  8
_0-8_笠木他
  6
CONTINUOUS
 62
    4
 10
1156.6851913557264
 20
676.21439180859284
 11
1154.9611913557271
 21
673.75439180859189
  0
LINE
  8
_0-8_笠木他
  6
CONTINUOUS
 62
    4
 10
1151.0251913557283
 20
673.75439180859189
 11
1151.0251913557283
 21
664.89439180859222
  0
LINE
  8
_0-8_笠木他
  6
CONTINUOUS
 62
    4
 10
1154.9611913557271
 20
673.75439180859189
 11
1154.9611913557271
 21
664.89439180859222
  0
LINE
  8
_0-8_笠木他
  6
CONTINUOUS
 62
    4
 10
1131.0011913557253
 20
648.22839180859205
 11
1131.0011913557253
 21
663.28039180859264
  0
LINE
  8
_0-8_笠木他
  6
CONTINUOUS
 62
    4
 10
1131.0011913557253
 20
663.27839180859314
 11
1130.4991913557285
 21
663.27839180859314
  0
LINE
  8
_0-8_笠木他
  6
CONTINUOUS
 62
    4
 10
1130.4991913557285
 20
648.22839180859205
 11
1130.4991913557285
 21
666.84639180859335
  0
LINE
  8
_0-8_笠木他
  6
CONTINUOUS
 62
    4
 10
1127.9991913557285
 20
668.29439180859367
 11
1125.4991913557285
 21
666.84639180859335
  0
LINE
  8
_0-8_笠木他
  6
CONTINUOUS
 62
    4
 10
1125.4991913557285
 20
666.84639180859335
 11
1125.4991913557285
 21
648.22839180859205
  0
LINE
  8
_0-8_笠木他
  6
CONTINUOUS
 62
    4
 10
1124.9991913557267
 20
663.28039180859264
 11
1124.9991913557267
 21
648.22839180859205
  0
LINE
  8
_0-8_笠木他
  6
CONTINUOUS
 62
    4
 10
977.99979135572698
 20
651.49839180859203
 11
977.99979135572698
 21
655.35639180859221
  0
LINE
  8
_0-8_笠木他
  6
CONTINUOUS
 62
    4
 10
977.99979135572698
 20
655.35639180859221
 11
977.49959135572567
 21
655.35639180859221
  0
LINE
  8
_0-8_笠木他
  6
CONTINUOUS
 62
    4
 10
977.49959135572567
 20
655.35639180859221
 11
977.49959135572567
 21
673.70839180859207
  0
LINE
  8
_0-8_笠木他
  6
CONTINUOUS
 62
    4
 10
982.00039135572638
 20
651.49839180859203
 11
982.00039135572638
 21
655.35639180859221
  0
LINE
  8
_0-8_笠木他
  6
CONTINUOUS
 62
    4
 10
982.00039135572638
 20
655.35639180859221
 11
982.49919135572668
 21
655.35639180859221
  0
LINE
  8
_0-8_笠木他
  6
CONTINUOUS
 62
    4
 10
1130.4991913557285
 20
666.84439180859385
 11
1127.9991913557285
 21
668.29439180859367
  0
LINE
  8
_0-8_笠木他
  6
CONTINUOUS
 62
    4
 10
1127.9991913557285
 20
668.29439180859367
 11
1125.4991913557285
 21
666.84439180859385
  0
LINE
  8
_0-8_笠木他
  6
CONTINUOUS
 62
    4
 10
1130.4991913557285
 20
663.28039180859264
 11
1124.9991913557267
 21
663.28039180859264
  0
LINE
  8
_0-8_笠木他
  6
DASHED1
 62
    4
 10
979.99939135572617
 20
650.33839180859218
 11
982.00039135572638
 21
651.49839180859203
  0
LINE
  8
_0-8_笠木他
  6
DASHED1
 62
    4
 10
977.99979135572698
 20
651.49839180859203
 11
979.99939135572617
 21
650.33839180859218
  0
LINE
  8
_0-8_笠木他
  6
CONTINUOUS
 62
    4
 10
982.49919135572668
 20
673.0924889162236
 11
982.49919135572668
 21
655.35639180859221
  0
LINE
  8
_0-8_笠木他
  6
DASHED1
 62
    4
 10
976.49619135572607
 20
690.61169836856038
 11
983.49519135572677
 21
690.61169836856038
  0
LINE
  8
_0-8_笠木他
  6
DASHED1
 62
    4
 10
977.24579135572526
 20
690.61169836856038
 11
977.24579135572526
 21
686.47969836856078
  0
LINE
  8
_0-8_笠木他
  6
DASHED1
 62
    4
 10
974.99499135572819
 20
686.47969836856078
 11
974.6161913557296
 21
682.14769836856135
  0
LINE
  8
_0-8_笠木他
  6
DASHED1
 62
    4
 10
974.99499135572819
 20
686.47969836856078
 11
984.99579135572617
 21
686.47969836856078
  0
LINE
  8
_0-8_笠木他
  6
DASHED1
 62
    4
 10
984.99579135572617
 20
686.47969836856078
 11
985.37899135572729
 21
682.10169836856153
  0
LINE
  8
_0-8_笠木他
  6
DASHED1
 62
    4
 10
982.74559135572758
 20
686.47969836856078
 11
982.74559135572758
 21
690.61169836856038
  0
ARC
  8
_0-8_笠木他
  6
CONTINUOUS
 62
    4
 10
982.43655735572588
 20
692.09319436855935
 40
1.81863
 50
19.113645000000002
 51
88.568511999999998
  0
ARC
  8
_0-8_笠木他
  6
CONTINUOUS
 62
    4
 10
980.26308135572776
 20
691.03317236856014
 40
4.2293260000000004
 50
359.08564999999999
 51
23.044018000000015
  0
LINE
  8
_0-8_笠木他
  6
CONTINUOUS
 62
    4
 10
984.49179135572535
 20
690.9656983685602
 11
984.49179135572535
 21
690.61169836856038
  0
LINE
  8
_0-8_笠木他
  6
CONTINUOUS
 62
    4
 10
984.49179135572535
 20
690.61169836856038
 11
975.49179135572899
 21
690.61169836856038
  0
LINE
  8
_0-8_笠木他
  6
CONTINUOUS
 62
    4
 10
975.49179135572899
 20
690.61169836856038
 11
975.49179135572899
 21
691.24169836855913
  0
ARC
  8
_0-8_笠木他
  6
CONTINUOUS
 62
    4
 10
978.27625735572724
 20
691.17705036856137
 40
2.7851520000000001
 50
100.97566500000001
 51
178.67830499999997
  0
LINE
  8
_0-8_笠木他
  6
CONTINUOUS
 62
    4
 10
977.74599135572657
 20
693.91169836855966
 11
982.48199135572918
 21
693.91169836855966
  0
LINE
  8
_0-8_笠木他
  6
CONTINUOUS
 62
    4
 10
953.03579135572704
 20
688.66969836856128
 11
953.37899135572911
 21
684.73369836856023
  0
LINE
  8
_0-8_笠木他
  6
CONTINUOUS
 62
    4
 10
953.37899135572911
 20
684.73369836856023
 11
974.93619135572658
 21
682.085698368561
  0
LINE
  8
_0-8_笠木他
  6
CONTINUOUS
 62
    4
 10
974.93619135572658
 20
682.085698368561
 11
975.32099135572821
 21
686.47969836856078
  0
LINE
  8
_0-8_笠木他
  6
CONTINUOUS
 62
    4
 10
975.32099135572821
 20
686.47969836856078
 11
984.66859135572918
 21
686.47969836856078
  0
LINE
  8
_0-8_笠木他
  6
CONTINUOUS
 62
    4
 10
984.66859135572918
 20
686.47969836856078
 11
985.16199135572947
 21
680.82969836856023
  0
LINE
  8
_0-8_笠木他
  6
CONTINUOUS
 62
    4
 10
985.16199135572947
 20
680.82969836856023
 11
989.99519135572768
 21
680.23969836856054
  0
LINE
  8
_0-8_笠木他
  6
CONTINUOUS
 62
    4
 10
989.99519135572768
 20
680.23969836856054
 11
989.99519135572768
 21
677.2136983685607
  0
LINE
  8
_0-8_笠木他
  6
CONTINUOUS
 62
    4
 10
989.99519135572768
 20
677.2136983685607
 11
950.87299135572607
 21
682.01769836855988
  0
ARC
  8
_0-8_笠木他
  6
CONTINUOUS
 62
    4
 10
951.0296193557258
 20
683.04100436855947
 40
1.0348960000000003
 50
181.78119200000003
 51
261.29768799999999
  0
LINE
  8
_0-8_笠木他
  6
CONTINUOUS
 62
    4
 10
949.99519135572768
 20
683.00969836856098
 11
950.29019135572867
 21
688.65169836856126
  0
ARC
  8
_0-8_笠木他
  6
CONTINUOUS
 62
    4
 10
950.80495535572823
 20
688.60969636856112
 40
0.5165619999999999
 50
91.848979000000014
 51
175.30911900000004
  0
LINE
  8
_0-8_笠木他
  6
CONTINUOUS
 62
    4
 10
950.78819135572644
 20
689.12569836856051
 11
952.53499135572724
 21
689.12569836856051
  0
ARC
  8
_0-8_笠木他
  6
CONTINUOUS
 62
    4
 10
952.52183935572589
 20
688.60845836856129
 40
0.5176979999999999
 50
6.8111549999999994
 51
88.547381000000001
  0
LINE
  8
_0-8_笠木他
  6
CONTINUOUS
 62
    4
 10
982.49919135572668
 20
670.06839180859174
 11
981.87639135572567
 21
669.57639180859246
  0
LINE
  8
_0-8_笠木他
  6
CONTINUOUS
 62
    4
 10
981.87639135572567
 20
669.57639180859246
 11
978.12179135572819
 21
669.57639180859246
  0
LINE
  8
_0-8_笠木他
  6
CONTINUOUS
 62
    4
 10
978.12179135572819
 20
669.57639180859246
 11
977.49899135572718
 21
670.06839180859174
  0
LINE
  8
_0-8_笠木他
  6
CONTINUOUS
 62
    4
 10
977.49899135572718
 20
670.06839180859174
 11
977.49899135572718
 21
690.61169836856038
  0
LINE
  8
_0-8_笠木他
  6
CONTINUOUS
 62
    4
 10
982.49919135572668
 20
670.06839180859174
 11
977.49899135572718
 21
670.06839180859174
  0
LINE
  8
_0-8_笠木他
  6
CONTINUOUS
 62
    4
 10
978.12179135572819
 20
690.61169836856038
 11
978.12179135572819
 21
670.06839180859174
  0
LINE
  8
_0-8_笠木他
  6
CONTINUOUS
 62
    4
 10
981.87639135572567
 20
690.61169836856038
 11
981.87639135572567
 21
670.06839180859174
  0
LINE
  8
_0-8_笠木他
  6
CONTINUOUS
 62
    4
 10
982.49339135572768
 20
690.61169836856038
 11
982.49339135572768
 21
670.06839180859174
  0
LINE
  8
ADD_LINE
  6
DOT
 62
    4
 10
979.99919135572668
 20
695.46369836856115
 11
979.99919135572668
 21
667.63439180859336
  0
LINE
  8
_0-8_笠木他
  6
CONTINUOUS
 62
    4
 10
1000.9995913557293
 20
643.21439180859329
 11
1098.9991913557276
 21
643.21439180859329
  0
LINE
  8
_0-8_笠木他
  6
CONTINUOUS
 62
    4
 10
1098.9991913557276
 20
647.22639180859346
 11
1000.9995913557293
 21
647.22639180859346
  0
LINE
  8
_0-8_笠木他
  6
CONTINUOUS
 62
    4
 10
994.00099135572759
 20
598.06739180859381
 11
1106.0011913557253
 21
598.06739180859381
  0
LINE
  8
ADD_LINE
  6
DOT
 62
    4
 10
1049.9991913557267
 20
658.7336786465255
 11
1049.9991913557267
 21
567.7569706929296
  0
LINE
  8
_0-8_笠木他
  6
CONTINUOUS
 62
    3
 10
1158.0052629818044
 20
678.06913741037874
 11
1122.983191355728
 21
673.76839180859292
  0
LINE
  8
_0-8_笠木他
  6
CONTINUOUS
 62
    3
 10
1159.9991913557267
 20
675.29439180859185
 11
1159.9991913557267
 21
676.10387093857867
  0
ARC
  8
_0-8_笠木他
  6
CONTINUOUS
 62
    3
 10
1158.1327793557273
 20
676.04976780859374
 40
1.8671960000000001
 50
1.6604121580210378
 51
7.9495804554603344
  0
ARC
  8
_0-8_笠木他
  6
CONTINUOUS
 62
    3
 10
1157.9465433557277
 20
676.01325780859383
 40
2.056718
 50
8.2393704744888883
 51
88.363974071815662
  0
LINE
  8
_0-4_線色４__黄__
  6
CONTINUOUS
 62
    2
 10
1156.2677180683147
 20
682.83946807874486
 11
1133.0517645808493
 21
680.02588512930856
  0
LINE
  8
_0-4_線色４__黄__
  6
CONTINUOUS
 62
    2
 10
943.87765822250799
 20
682.87850256416391
 11
967.44195286192166
 21
679.9822059185351
  0
ARC
  8
_0-1_線色１__水色__
  6
CONTINUOUS
 62
    4
 10
1165.7927368265553
 20
680.58287356896813
 40
1.2083333333333581
 50
337.76285982720822
 51
262.71583342851898
  0
ARC
  8
_0-1_線色１__水色__
  6
CONTINUOUS
 62
    4
 10
1163.2493982438552
 20
679.10027601067327
 40
1.2083333333333581
 50
337.76285982720822
 51
262.71583342851898
  0
ARC
  8
_0-1_線色１__水色__
  6
CONTINUOUS
 62
    4
 10
1165.4863264557787
 20
678.18571056607084
 40
1.2083333333333179
 50
157.76285982997595
 51
82.715833425749906
  0
ARC
  8
_0-1_線色１__水色__
  6
CONTINUOUS
 62
    4
 10
1162.9429878730787
 20
676.70311300777598
 40
1.2083333333333179
 50
157.76285982997595
 51
82.715833425749906
  0
ARC
  8
_0-1_線色１__水色__
  6
CONTINUOUS
 62
    4
 10
1168.0296650384832
 20
679.66830812436569
 40
1.2083333333333179
 50
157.76285982997595
 51
82.715833425749906
  0
ARC
  8
_0-1_線色１__水色__
  6
CONTINUOUS
 62
    4
 10
1170.8794139919598
 20
683.54806868555784
 40
1.2083333333333581
 50
337.76285982720822
 51
262.71583342851898
  0
ARC
  8
_0-1_線色１__水色__
  6
CONTINUOUS
 62
    4
 10
1170.5730036211833
 20
681.15090568266055
 40
1.2083333333333179
 50
157.76285982997595
 51
82.715833425749906
  0
ARC
  8
_0-1_線色１__水色__
  6
CONTINUOUS
 62
    4
 10
1173.1163422038878
 20
682.63350324095541
 40
1.2083333333333179
 50
157.76285982997595
 51
82.715833425749906
  0
ARC
  8
_0-1_線色１__水色__
  6
CONTINUOUS
 62
    4
 10
1168.3360754092553
 20
682.06547112726298
 40
1.2083333333333581
 50
337.76285982720822
 51
262.71583342851898
  0
ARC
  8
_0-1_線色１__水色__
  6
CONTINUOUS
 62
    4
 10
1175.9660911573644
 20
686.51326380214755
 40
1.2083333333333581
 50
337.76285982720822
 51
262.71583342851898
  0
ARC
  8
_0-1_線色１__水色__
  6
CONTINUOUS
 62
    4
 10
1175.6596807865878
 20
684.11610079925026
 40
1.2083333333333179
 50
157.76285982997595
 51
82.715833425749906
  0
ARC
  8
_0-1_線色１__水色__
  6
CONTINUOUS
 62
    4
 10
1178.2030193692879
 20
685.59869835754512
 40
1.2083333333333179
 50
157.76285982997595
 51
82.715833425749906
  0
ARC
  8
_0-1_線色１__水色__
  6
CONTINUOUS
 62
    4
 10
1173.4227525746599
 20
685.03066624385269
 40
1.2083333333333581
 50
337.76285982720822
 51
262.71583342851898
  0
ARC
  8
_0-1_線色１__水色__
  6
CONTINUOUS
 62
    4
 10
1181.0527683227645
 20
689.47845891873726
 40
1.2083333333333581
 50
337.76285982720822
 51
262.71583342851898
  0
ARC
  8
_0-1_線色１__水色__
  6
CONTINUOUS
 62
    4
 10
1180.7463579519924
 20
687.08129591583997
 40
1.2083333333333179
 50
157.76285982997595
 51
82.715833425749906
  0
ARC
  8
_0-1_線色１__水色__
  6
CONTINUOUS
 62
    4
 10
1183.2896965346924
 20
688.56389347413483
 40
1.2083333333333179
 50
157.76285982997595
 51
82.715833425749906
  0
ARC
  8
_0-1_線色１__水色__
  6
CONTINUOUS
 62
    4
 10
1178.5094297400644
 20
687.9958613604424
 40
1.2083333333333581
 50
337.76285982720822
 51
262.71583342851898
  0
ARC
  8
_0-1_線色１__水色__
  6
CONTINUOUS
 62
    4
 10
1186.139445488169
 20
692.44365403532697
 40
1.2083333333333581
 50
337.76285982720822
 51
262.71583342851898
  0
ARC
  8
_0-1_線色１__水色__
  6
CONTINUOUS
 62
    4
 10
1185.833035117397
 20
690.04649103242969
 40
1.2083333333333179
 50
157.76285982997595
 51
82.715833425749906
  0
ARC
  8
_0-1_線色１__水色__
  6
CONTINUOUS
 62
    4
 10
1188.376373700097
 20
691.52908859072454
 40
1.2083333333333179
 50
157.76285982997595
 51
82.715833425749906
  0
ARC
  8
_0-1_線色１__水色__
  6
CONTINUOUS
 62
    4
 10
1183.596106905469
 20
690.96105647703212
 40
1.2083333333333581
 50
337.76285982720822
 51
262.71583342851898
  0
ARC
  8
_0-1_線色１__水色__
  6
CONTINUOUS
 62
    4
 10
1191.2261226535736
 20
695.40884915191668
 40
1.2083333333333581
 50
337.76285982720822
 51
262.71583342851898
  0
ARC
  8
_0-1_線色１__水色__
  6
CONTINUOUS
 62
    4
 10
1190.919712282797
 20
693.0116861490194
 40
1.2083333333333179
 50
157.76285982997595
 51
82.715833425749906
  0
ARC
  8
_0-1_線色１__水色__
  6
CONTINUOUS
 62
    4
 10
1193.4630508655016
 20
694.49428370731425
 40
1.2083333333333179
 50
157.76285982997595
 51
82.715833425749906
  0
ARC
  8
_0-1_線色１__水色__
  6
CONTINUOUS
 62
    4
 10
1188.6827840708736
 20
693.92625159362183
 40
1.2083333333333581
 50
337.76285982720822
 51
262.71583342851898
  0
ARC
  8
_0-1_線色１__水色__
  6
CONTINUOUS
 62
    4
 10
1193.7694612362736
 20
696.89144671021154
 40
1.2083333333333581
 50
337.76285982720822
 51
262.71583342851898
  0
ARC
  8
_0-1_線色１__水色__
  6
CONTINUOUS
 62
    4
 10
1196.0063894481925
 20
695.97688126558182
 40
1.2083333333333179
 50
157.76285982997595
 51
82.715833425749906
  0
ARC
  8
_0-1_線色１__水色__
  6
CONTINUOUS
 62
    4
 10
1196.3127998189645
 20
698.37404426847911
 40
1.2083333333333581
 50
337.76285982720822
 51
262.71583342851898
  0
ARC
  8
_0-1_線色１__水色__
  6
CONTINUOUS
 62
    4
 10
1198.5497280308834
 20
697.45947882384939
 40
1.2083333333333179
 50
157.76285982997595
 51
82.715833425749906
  0
ARC
  8
_0-1_線色１__水色__
  6
CONTINUOUS
 62
    4
 10
1198.8561384016555
 20
699.85664182674668
 40
1.2083333333333581
 50
337.76285982720822
 51
262.71583342851898
  0
ARC
  8
_0-1_線色１__水色__
  6
CONTINUOUS
 62
    4
 10
1201.0930666135744
 20
698.94207638211697
 40
1.2083333333333179
 50
157.76285982997595
 51
82.715833425749906
  0
LINE
  8
_0-9_他
  6
CONTINUOUS
 62
    4
 10
954.99519135572768
 20
684.53491323730418
 11
954.99519135572768
 21
686.54891323730567
  0
LINE
  8
_0-9_他
  6
DASHED1
 62
    4
 10
988.70419135572661
 20
682.0789132373045
 11
990.15939135572694
 21
723.74091323730568
  0
LINE
  8
_0-9_他
  6
DASHED1
 62
    4
 10
988.22739135572533
 20
725.74491323730513
 11
986.99539135572536
 21
690.4469132373049
  0
LINE
  8
_0-9_他
  6
DASHED1
 62
    4
 10
976.49619135572607
 20
689.15891323730534
 11
971.80759135572657
 21
688.6129132373037
  0
LINE
  8
_0-9_他
  6
DASHED1
 62
    4
 10
976.49619135572607
 20
689.15891323730534
 11
976.49619135572607
 21
690.58891323730563
  0
LINE
  8
_0-9_他
  6
DASHED1
 62
    4
 10
983.49519135572677
 20
690.58891323730563
 11
983.49519135572677
 21
690.0169132373037
  0
LINE
  8
_0-9_他
  6
DASHED1
 62
    4
 10
983.49519135572677
 20
690.0169132373037
 11
987.00639135572942
 21
690.4469132373049
  0
LINE
  8
_0-9_他
  6
CONTINUOUS
 62
    4
 10
975.89799135572662
 20
691.86491323730365
 11
1024.3559913557272
 21
825.00491323730444
  0
LINE
  8
_0-9_他
  6
CONTINUOUS
 62
    4
 10
954.99519135572768
 20
686.54891323730567
 11
971.80759135572657
 21
688.6129132373037
  0
ARC
  8
_0-9_他
  6
CONTINUOUS
 62
    4
 10
1128.8745693557291
 20
693.67942323730517
 40
5.1129300000000013
 50
200.779495
 51
262.240726
  0
LINE
  8
_0-9_他
  6
CONTINUOUS
 62
    4
 10
1144.9971913557272
 20
686.54891323730567
 11
1128.1851913557273
 21
688.6129132373037
  0
LINE
  8
_0-9_他
  6
CONTINUOUS
 62
    4
 10
1144.9971913557272
 20
684.53491323730418
 11
1144.9971913557272
 21
686.54891323730567
  0
LINE
  8
_0-9_他
  6
CONTINUOUS
 62
    4
 10
1124.9971913557272
 20
682.0789132373045
 11
1144.9971913557272
 21
684.53491323730418
  0
LINE
  8
_0-9_他
  6
CONTINUOUS
 62
    4
 10
1075.6351913557262
 20
825.00491323730444
 11
1124.0951913557262
 21
691.86491323730365
  0
ARC
  8
_0-9_他
  6
CONTINUOUS
 62
    4
 10
1049.9966013557275
 20
782.08616923730574
 40
49.993535999999999
 50
59.145996999999994
 51
90.000733999999994
  0
ARC
  8
_0-9_他
  6
CONTINUOUS
 62
    4
 10
1049.9957873557275
 20
782.08440923730564
 40
49.995294000000001
 50
89.999802000000003
 51
120.853427
  0
LINE
  8
_0-9_他
  6
CONTINUOUS
 62
    4
 10
1124.9971913557272
 20
682.0789132373045
 11
1073.595191355729
 21
823.30091323730471
  0
LINE
  8
_0-9_他
  6
CONTINUOUS
 62
    4
 10
974.99499135572819
 20
682.0789132373045
 11
1124.9971913557272
 21
682.0789132373045
  0
LINE
  8
_0-9_他
  6
CONTINUOUS
 62
    4
 10
1026.3969913557264
 20
823.30091323730471
 11
974.99499135572819
 21
682.0789132373045
  0
ARC
  8
_0-9_他
  6
CONTINUOUS
 62
    4
 10
1049.9959453557256
 20
782.08142123730454
 40
47.497818000000002
 50
60.208500000000008
 51
89.999983000000014
  0
ARC
  8
_0-9_他
  6
CONTINUOUS
 62
    4
 10
1049.9944973557274
 20
782.08691123730546
 40
47.492325999999998
 50
89.998234999999994
 51
119.79324199999999
  0
LINE
  8
_0-9_他
  6
CONTINUOUS
 62
    4
 10
974.99499135572819
 20
682.0789132373045
 11
954.99519135572768
 21
684.53491323730418
  0
ARC
  8
_0-9_他
  6
CONTINUOUS
 62
    4
 10
971.10833935572714
 20
693.69124123730558
 40
5.125858
 50
277.84106700000001
 51
339.13405
  0
ARC
  8
_0-1_線色１__水色__
  6
CONTINUOUS
 62
    4
 10
1160.3996492903786
 20
675.22051544948113
 40
1.2083333333333179
 50
247.48889267266551
 51
82.715833425749906
  0
ARC
  8
_0-1_線色１__水色__
  6
CONTINUOUS
 62
    4
 10
929.33593465605554
 20
683.54668900258844
 40
1.2083333333333581
 50
277.28416657148108
 51
202.23714017279181
  0
ARC
  8
_0-1_線色１__水色__
  6
CONTINUOUS
 62
    4
 10
927.09900644412755
 20
682.63212355798601
 40
1.2083333333333179
 50
97.284166574250108
 51
22.23714017002402
  0
ARC
  8
_0-1_線色１__水色__
  6
CONTINUOUS
 62
    4
 10
931.87927323875897
 20
682.06409144429358
 40
1.2083333333333581
 50
277.28416657148108
 51
202.23714017279181
  0
ARC
  8
_0-1_線色１__水色__
  6
CONTINUOUS
 62
    4
 10
924.24925749065096
 20
686.51188411917815
 40
1.2083333333333581
 50
277.28416657148108
 51
202.23714017279181
  0
ARC
  8
_0-1_線色１__水色__
  6
CONTINUOUS
 62
    4
 10
924.55566786142754
 20
684.11472111628086
 40
1.2083333333333179
 50
97.284166574250108
 51
22.23714017002402
  0
ARC
  8
_0-1_線色１__水色__
  6
CONTINUOUS
 62
    4
 10
922.01232927872638
 20
685.59731867457572
 40
1.2083333333333179
 50
97.284166574250108
 51
22.23714017002402
  0
ARC
  8
_0-1_線色１__水色__
  6
CONTINUOUS
 62
    4
 10
926.79259607335439
 20
685.02928656088329
 40
1.2083333333333581
 50
277.28416657148108
 51
202.23714017279181
  0
ARC
  8
_0-1_線色１__水色__
  6
CONTINUOUS
 62
    4
 10
919.16258032524979
 20
689.47707923576786
 40
1.2083333333333581
 50
277.28416657148108
 51
202.23714017279181
  0
ARC
  8
_0-1_線色１__水色__
  6
CONTINUOUS
 62
    4
 10
919.46899069602296
 20
687.07991623287057
 40
1.2083333333333179
 50
97.284166574250108
 51
22.23714017002402
  0
ARC
  8
_0-1_線色１__水色__
  6
CONTINUOUS
 62
    4
 10
916.9256521133218
 20
688.56251379116543
 40
1.2083333333333179
 50
97.284166574250108
 51
22.23714017002402
  0
ARC
  8
_0-1_線色１__水色__
  6
CONTINUOUS
 62
    4
 10
921.70591890795095
 20
687.994481677473
 40
1.2083333333333581
 50
277.28416657148108
 51
202.23714017279181
  0
ARC
  8
_0-1_線色１__水色__
  6
CONTINUOUS
 62
    4
 10
914.07590315984521
 20
692.44227435235757
 40
1.2083333333333581
 50
277.28416657148108
 51
202.23714017279181
  0
ARC
  8
_0-1_線色１__水色__
  6
CONTINUOUS
 62
    4
 10
914.38231353061838
 20
690.04511134946029
 40
1.2083333333333179
 50
97.284166574250108
 51
22.23714017002402
  0
ARC
  8
_0-1_線色１__水色__
  6
CONTINUOUS
 62
    4
 10
911.83897494791722
 20
691.52770890775514
 40
1.2083333333333179
 50
97.284166574250108
 51
22.23714017002402
  0
ARC
  8
_0-1_線色１__水色__
  6
CONTINUOUS
 62
    4
 10
916.61924174254636
 20
690.95967679406272
 40
1.2083333333333581
 50
277.28416657148108
 51
202.23714017279181
  0
ARC
  8
_0-1_線色１__水色__
  6
CONTINUOUS
 62
    4
 10
908.98922599444177
 20
695.40746946894728
 40
1.2083333333333581
 50
277.28416657148108
 51
202.23714017279181
  0
ARC
  8
_0-1_線色１__水色__
  6
CONTINUOUS
 62
    4
 10
909.29563636521721
 20
693.01030646605
 40
1.2083333333333179
 50
97.284166574250108
 51
22.23714017002402
  0
ARC
  8
_0-1_線色１__水色__
  6
CONTINUOUS
 62
    4
 10
906.75229778251378
 20
694.49290402434485
 40
1.2083333333333179
 50
97.284166574250108
 51
22.23714017002402
  0
ARC
  8
_0-1_線色１__水色__
  6
CONTINUOUS
 62
    4
 10
911.53256457714178
 20
693.92487191065243
 40
1.2083333333333581
 50
277.28416657148108
 51
202.23714017279181
  0
ARC
  8
_0-1_線色１__水色__
  6
CONTINUOUS
 62
    4
 10
906.44588741174061
 20
696.89006702724214
 40
1.2083333333333581
 50
277.28416657148108
 51
202.23714017279181
  0
ARC
  8
_0-1_線色１__水色__
  6
CONTINUOUS
 62
    4
 10
904.20895919982286
 20
695.97550158261242
 40
1.2083333333333179
 50
97.284166574250108
 51
22.23714017002402
  0
ARC
  8
_0-1_線色１__水色__
  6
CONTINUOUS
 62
    4
 10
903.90254882904969
 20
698.37266458550971
 40
1.2083333333333581
 50
277.28416657148108
 51
202.23714017279181
  0
ARC
  8
_0-1_線色１__水色__
  6
CONTINUOUS
 62
    4
 10
901.66562061713194
 20
697.45809914087999
 40
1.2083333333333179
 50
97.284166574250108
 51
22.23714017002402
  0
ARC
  8
_0-1_線色１__水色__
  6
CONTINUOUS
 62
    4
 10
929.64234502683098
 20
681.14952599969115
 40
1.2083333333333179
 50
97.284166574250108
 51
22.23714017002402
  0
ARC
  8
_0-1_線色１__水色__
  6
CONTINUOUS
 62
    4
 10
934.4226118214317
 20
680.58149388599418
 40
1.2083333333333581
 50
277.28416657148108
 51
202.23714017279181
  0
ARC
  8
_0-1_線色１__水色__
  6
CONTINUOUS
 62
    4
 10
936.96595040413285
 20
679.09889632769932
 40
1.2083333333333581
 50
277.28416657148108
 51
202.23714017279181
  0
ARC
  8
_0-1_線色１__水色__
  6
CONTINUOUS
 62
    4
 10
934.72902219220487
 20
678.18433088309689
 40
1.2083333333333179
 50
97.284166574250108
 51
22.23714017002402
  0
ARC
  8
_0-1_線色１__水色__
  6
CONTINUOUS
 62
    4
 10
932.18568360950371
 20
679.66692844139175
 40
1.2083333333333179
 50
97.284166574250108
 51
22.23714017002402
  0
ARC
  8
_0-1_線色１__水色__
  6
CONTINUOUS
 62
    4
 10
937.27236077488101
 20
676.70173332479976
 40
1.2083333333333179
 50
97.284166574250108
 51
22.23714017002402
  0
ARC
  8
_0-1_線色１__水色__
  6
CONTINUOUS
 62
    4
 10
939.509288986809
 20
677.61629876940219
 40
1.2083333333333581
 50
277.28416657148108
 51
297.83922767077894
  0
ARC
  8
_0-1_線色１__水色__
  6
CONTINUOUS
 62
    4
 10
939.509288986809
 20
677.61629876940219
 40
1.2083333333333581
 50
357.55441065725131
 51
202.23714017279181
  0
ARC
  8
_0-1_線色１__水色__
  6
CONTINUOUS
 62
    4
 10
939.81569935758216
 20
675.21913576650491
 40
1.2083333333333179
 50
97.284166574250108
 51
281.91681413658057
  0
LINE
  8
_0-8_笠木他
  6
CONTINUOUS
 62
    4
 10
1151.5171913557276
 20
637.54259180859322
 11
1154.4711913557273
 21
639.2491918085932
  0
LINE
  8
_0-8_笠木他
  6
CONTINUOUS
 62
    4
 10
1151.5171913557276
 20
635.26879180859282
 11
1154.4711913557273
 21
636.9753918085928
  0
LINE
  8
_0-8_笠木他
  6
CONTINUOUS
 62
    4
 10
1151.5171913557276
 20
632.99979180859168
 11
1154.4711913557273
 21
634.7037918085914
  0
LINE
  8
_0-8_笠木他
  6
CONTINUOUS
 62
    4
 10
1151.5171913557276
 20
648.90999180859239
 11
1154.4711913557273
 21
650.61439180859338
  0
LINE
  8
_0-8_笠木他
  6
CONTINUOUS
 62
    4
 10
1151.5171913557276
 20
646.63559180859352
 11
1154.4711913557273
 21
648.34019180859173
  0
LINE
  8
_0-8_笠木他
  6
CONTINUOUS
 62
    4
 10
1151.5171913557276
 20
644.36459180859288
 11
1154.4711913557273
 21
646.06639180859361
  0
LINE
  8
_0-8_笠木他
  6
CONTINUOUS
 62
    4
 10
1151.5171913557276
 20
642.09079180859248
 11
1154.4711913557273
 21
643.79679180859171
  0
LINE
  8
_0-8_笠木他
  6
CONTINUOUS
 62
    4
 10
1151.5171913557276
 20
639.81639180859361
 11
1154.4711913557273
 21
641.52299180859359
  0
LINE
  8
_0-8_笠木他
  6
CONTINUOUS
 62
    4
 10
1151.5171913557276
 20
662.54639180859272
 11
1154.4711913557273
 21
664.25239180859194
  0
LINE
  8
_0-8_笠木他
  6
CONTINUOUS
 62
    4
 10
1151.5171913557276
 20
660.27439180859233
 11
1154.4711913557273
 21
661.97839180859205
  0
LINE
  8
_0-8_笠木他
  6
CONTINUOUS
 62
    4
 10
1151.5171913557276
 20
658.00039180859244
 11
1154.4711913557273
 21
659.70439180859216
  0
LINE
  8
_0-8_笠木他
  6
CONTINUOUS
 62
    4
 10
1151.5171913557276
 20
655.72839180859205
 11
1154.4711913557273
 21
657.43039180859228
  0
LINE
  8
_0-8_笠木他
  6
CONTINUOUS
 62
    4
 10
1151.5171913557276
 20
653.45639180859166
 11
1154.4711913557273
 21
655.16239180859316
  0
LINE
  8
_0-8_笠木他
  6
CONTINUOUS
 62
    4
 10
1151.5171913557276
 20
651.18439180859355
 11
1154.4711913557273
 21
652.88839180859327
  0
LINE
  8
_0-8_笠木他
  6
CONTINUOUS
 62
    4
 10
1152.9931913557255
 20
630.11419180859207
 11
1151.5171913557276
 21
632.66899180859241
  0
LINE
  8
_0-8_笠木他
  6
CONTINUOUS
 62
    4
 10
1151.5171913557276
 20
632.66899180859241
 11
1151.5171913557276
 21
664.40239180859294
  0
LINE
  8
_0-8_笠木他
  6
CONTINUOUS
 62
    4
 10
1152.9931913557255
 20
630.11419180859207
 11
1154.4711913557273
 21
632.66899180859241
  0
LINE
  8
_0-8_笠木他
  6
CONTINUOUS
 62
    4
 10
1154.4711913557273
 20
632.66899180859241
 11
1154.4711913557273
 21
664.40239180859294
  0
LINE
  8
_0-9_他
  6
CENTER1
 62
    9
 10
1049.9991913557267
 20
667.88725542185944
 11
1049.9991913557267
 21
846.01091159053908
  0
LINE
  8
_0-2_線色２__白__
  6
CONTINUOUS
 62
    7
 10
1159.8996820049786
 20
673.38937805147111
 11
1212.4033619667568
 21
703.70239181084912
  0
ARC
  8
_0-1_線色１__水色__
  6
CONTINUOUS
 62
    4
 10
1201.3994769843464
 20
701.33923938501425
 40
1.2083333333333581
 50
337.76285982720822
 51
262.71583342851898
  0
ARC
  8
_0-1_線色１__水色__
  6
CONTINUOUS
 62
    4
 10
1203.6364051962653
 20
700.42467394038454
 40
1.2083333333333179
 50
157.76285982997595
 51
82.715833425749906
  0
ARC
  8
_0-1_線色１__水色__
  6
CONTINUOUS
 62
    4
 10
1203.9428155670373
 20
702.82183694328182
 40
1.2083333333333581
 50
337.76285982720822
 51
262.71583342851898
  0
ARC
  8
_0-1_線色１__水色__
  6
CONTINUOUS
 62
    4
 10
1206.1797437789562
 20
701.90727149865211
 40
1.2083333333333179
 50
157.76285982997595
 51
82.715833425749906
  0
ARC
  8
_0-1_線色１__水色__
  6
CONTINUOUS
 62
    4
 10
1206.4861541497328
 20
704.30443450154939
 40
1.2083333333333581
 50
337.76285982720822
 51
262.71583342851898
  0
ARC
  8
_0-1_線色１__水色__
  6
CONTINUOUS
 62
    4
 10
1208.7230823616471
 20
703.38986905692195
 40
1.2083333333333179
 50
157.76285982997595
 51
82.715833425749906
  0
ARC
  8
_0-1_線色１__水色__
  6
CONTINUOUS
 62
    4
 10
1209.0294927324237
 20
705.78703205981924
 40
1.2083333333333581
 50
337.76285982720822
 51
262.71583342851898
  0
ARC
  8
_0-1_線色１__水色__
  6
CONTINUOUS
 62
    4
 10
1211.2664209443381
 20
704.87246661518952
 40
1.2083333333333179
 50
157.76285982997595
 51
82.715833425749906
  0
LINE
  8
_0-2_線色２__白__
  6
CONTINUOUS
 62
    7
 10
940.09224873710423
 20
673.51700436576152
 11
887.80919102336156
 21
703.70264181084963
  0
ARC
  8
_0-1_線色１__水色__
  6
CONTINUOUS
 62
    4
 10
899.12228203444101
 20
698.94069669914757
 40
1.2083333333333179
 50
97.284166574250108
 51
22.23714017002402
  0
ARC
  8
_0-1_線色１__水色__
  6
CONTINUOUS
 62
    4
 10
898.81587166366785
 20
701.33785970204485
 40
1.2083333333333581
 50
277.28416657148108
 51
202.23714017279181
  0
ARC
  8
_0-1_線色１__水色__
  6
CONTINUOUS
 62
    4
 10
896.57894345175009
 20
700.42329425741514
 40
1.2083333333333179
 50
97.284166574250108
 51
22.23714017002402
  0
ARC
  8
_0-1_線色１__水色__
  6
CONTINUOUS
 62
    4
 10
901.35921024635877
 20
699.85526214377728
 40
1.2083333333333581
 50
277.28416657148108
 51
202.23714017279181
  0
ARC
  8
_0-1_線色１__水色__
  6
CONTINUOUS
 62
    4
 10
894.03560486905803
 20
701.90589181568498
 40
1.2083333333333179
 50
97.284166574250108
 51
22.23714017002402
  0
ARC
  8
_0-1_線色１__水色__
  6
CONTINUOUS
 62
    4
 10
893.7291944982826
 20
704.30305481858227
 40
1.2083333333333581
 50
277.28416657148108
 51
202.23714017279181
  0
ARC
  8
_0-1_線色１__水色__
  6
CONTINUOUS
 62
    4
 10
891.49226628636711
 20
703.38848937395255
 40
1.2083333333333179
 50
97.284166574250108
 51
22.23714017002402
  0
ARC
  8
_0-1_線色１__水色__
  6
CONTINUOUS
 62
    4
 10
896.27253308097693
 20
702.82045726031242
 40
1.2083333333333581
 50
277.28416657148108
 51
202.23714017279181
  0
ARC
  8
_0-1_線色１__水色__
  6
CONTINUOUS
 62
    4
 10
888.94892770367619
 20
704.87108693222012
 40
1.2083333333333179
 50
97.284166574250108
 51
22.23714017002402
  0
ARC
  8
_0-1_線色１__水色__
  6
CONTINUOUS
 62
    4
 10
891.18585591559167
 20
705.78565237684984
 40
1.2083333333333581
 50
277.28416657148108
 51
202.23714017279181
  0
LINE
  8
_0-d_断熱__ハッチ
  6
CONTINUOUS
 62
    4
 10
1407.4630053943736
 20
668.70239181084912
 11
1442.4630053943781
 21
703.7023918108514
  0
LINE
  8
_0-d_断熱__ハッチ
  6
CONTINUOUS
 62
    4
 10
1379.178734146916
 20
668.70239181084912
 11
1414.178734146916
 21
703.70239181084685
  0
LINE
  8
_0-d_断熱__ハッチ
  6
CONTINUOUS
 62
    4
 10
1350.8944628994493
 20
668.70239181084685
 11
1385.8944628994493
 21
703.70239181084912
  0
LINE
  8
_0-d_断熱__ハッチ
  6
CONTINUOUS
 62
    4
 10
1324.2101916497347
 20
670.30239180859212
 11
1357.6101916519917
 21
703.70239181084685
  0
LINE
  8
_0-d_断熱__ハッチ
  6
CONTINUOUS
 62
    4
 10
1295.925920402268
 20
670.30239180858985
 11
1329.325920404525
 21
703.70239181084912
  0
LINE
  8
_0-d_断熱__ハッチ
  6
CONTINUOUS
 62
    4
 10
1267.6416491548105
 20
670.30239180859212
 11
1301.0416491570675
 21
703.70239181084685
  0
LINE
  8
_0-d_断熱__ハッチ
  6
CONTINUOUS
 62
    4
 10
1239.3573779073438
 20
670.30239180858985
 11
1272.7573779096008
 21
703.70239181084912
  0
LINE
  8
_0-d_断熱__ハッチ
  6
CONTINUOUS
 62
    4
 10
1211.0731066598908
 20
670.30239180859439
 11
1244.4731066621432
 21
703.70239181084685
  0
LINE
  8
_0-d_断熱__ハッチ
  6
CONTINUOUS
 62
    4
 10
1182.7888354124195
 20
670.30239180858985
 11
1216.1888354146765
 21
703.70239181084912
  0
LINE
  8
_0-d_断熱__ハッチ
  6
CONTINUOUS
 62
    4
 10
1169.3447604409801
 20
678.84249662901198
 11
1177.8848652614022
 21
670.30239180859212
  0
LINE
  8
_0-d_断熱__ハッチ
  6
CONTINUOUS
 62
    4
 10
1187.2762698843405
 20
689.19525843311135
 11
1206.1691365088598
 21
670.30239180859212
  0
LINE
  8
_0-d_断熱__ハッチ
  6
CONTINUOUS
 62
    4
 10
1205.207779327701
 20
699.54802023721527
 11
1234.4534077563264
 21
670.30239180859212
  0
LINE
  8
_0-d_断熱__ハッチ
  6
CONTINUOUS
 62
    4
 10
1229.337679001527
 20
703.70239181084685
 11
1262.737679003784
 21
670.30239180859212
  0
LINE
  8
_0-d_断熱__ハッチ
  6
CONTINUOUS
 62
    4
 10
1257.6219502489937
 20
703.70239181084912
 11
1291.0219502512552
 21
670.30239180858985
  0
LINE
  8
_0-d_断熱__ハッチ
  6
CONTINUOUS
 62
    4
 10
1285.9062214964513
 20
703.70239181084685
 11
1319.3062214987083
 21
670.30239180859212
  0
LINE
  8
_0-d_断熱__ハッチ
  6
CONTINUOUS
 62
    4
 10
1314.190492743918
 20
703.70239181084912
 11
1347.590492746175
 21
670.30239180858985
  0
LINE
  8
_0-d_断熱__ハッチ
  6
CONTINUOUS
 62
    4
 10
1342.4747639913755
 20
703.70239181084685
 11
1377.4747639913755
 21
668.70239181084912
  0
LINE
  8
_0-d_断熱__ハッチ
  6
CONTINUOUS
 62
    4
 10
1370.7590352388422
 20
703.70239181084912
 11
1405.7590352388422
 21
668.70239181084685
  0
LINE
  8
_0-d_断熱__ハッチ
  6
CONTINUOUS
 62
    4
 10
1399.0433064862998
 20
703.70239181084685
 11
1434.0433064862998
 21
668.70239181084912
  0
LINE
  8
_0-a_文字
  6
CONTINUOUS
 62
    7
 10
741.62595812101131
 20
788.70239181084912
 11
761.62595812101131
 21
788.70239181084912
  0
LINE
  8
_0-a_文字
  6
CONTINUOUS
 62
    7
 10
727.1922013912706
 20
763.70239181084912
 11
761.62595812101131
 21
763.70239181084912
  0
TEXT
  8
_0-a_文字
 62
    7
 10
766.62595812101142
 20
781.20239181084924
 40
14.999999999999503
 41
1.000000000000024
 50
0
  1
塩ビシート機械的固定工法
  0
TEXT
  8
_0-a_文字
 62
    7
 10
766.62595812101063
 20
756.20239181084924
 40
14.999999999999503
 41
1.0000000000000344
 50
0
  1
ラジアルシートＬ６００
  0
TEXT
  8
_0-a_文字
 62
    7
 10
766.62595812101142
 20
731.20239181084924
 40
14.999999999999503
 41
1.0000000000000047
 50
0
  1
断熱材
  0
LINE
  8
_0-a_文字
  6
CONTINUOUS
 62
    7
 10
712.75844466152989
 20
738.70239181084912
 11
761.62595812101131
 21
738.70239181084912
  0
LINE
  8
_0-a_文字
  6
CONTINUOUS
 62
    7
 10
1251.4862665680801
 20
763.70264181084963
 11
1271.4862665680801
 21
763.70264181084963
  0
TEXT
  8
_0-a_文字
 62
    7
 10
1276.4862665680796
 20
756.20264181084963
 40
14.999999999999858
 41
1.0000000000000167
 50
0
  1
プルーフシーラー
  0
LINE
  8
_0-a_文字
  6
CONTINUOUS
 62
    7
 10
1229.1825022294358
 20
725.07138877627881
 11
1251.4862665680801
 21
763.70264181084963
  0
LINE
  8
_0-a_文字
  6
CONTINUOUS
 62
    7
 10
1268.3555854401436
 20
738.70264181084963
 11
1288.3555854401436
 21
738.70264181084963
  0
LINE
  8
_0-a_文字
  6
CONTINUOUS
 62
    7
 10
1049.9983827114545
 20
832.0783045572523
 11
1068.2565580001972
 21
863.70239181084912
  0
LINE
  8
_0-a_文字
  6
CONTINUOUS
 62
    7
 10
1068.2565580001972
 20
863.70239181084912
 11
1088.2565580001972
 21
863.70239181084912
  0
TEXT
  8
_0-a_文字
 62
    7
 10
1093.2565580001979
 20
856.20239181085151
 40
15.000000000000213
 41
0.9999999999999796
 50
0
  1
ディッピングドレイン 縦型
  0
LINE
  8
_0-6_鋼板__アングル
  6
CONTINUOUS
 62
    2
 10
1349.9991913557267
 20
668.70239180859357
 11
1349.9991913557267
 21
670.30239180859212
  0
LINE
  8
_0-6_鋼板__アングル
  6
CONTINUOUS
 62
    2
 10
749.99919135572782
 20
670.30239180859212
 11
749.99919135572782
 21
668.70239180859357
  0
LINE
  8
_0-6_鋼板__アングル
  6
CONTINUOUS
 62
    2
 10
749.99919135572782
 20
668.70239180859357
 11
959.99919135572668
 21
668.70239180859357
  0
LINE
  8
_0-6_鋼板__アングル
  6
CONTINUOUS
 62
    2
 10
959.99919135572668
 20
670.30239180859212
 11
749.99919135572782
 21
670.30239180859212
  0
LINE
  8
_0-6_鋼板__アングル
  6
CONTINUOUS
 62
    2
 10
959.99919135572668
 20
670.30239180859212
 11
959.99919135572668
 21
668.70239180859357
  0
LINE
  8
_0-6_鋼板__アングル
  6
CONTINUOUS
 62
    2
 10
1139.9991913557267
 20
668.70239180859357
 11
1349.9991913557267
 21
668.70239180859357
  0
LINE
  8
_0-6_鋼板__アングル
  6
CONTINUOUS
 62
    2
 10
1349.9991913557267
 20
670.30239180859212
 11
1139.9991913557267
 21
670.30239180859212
  0
LINE
  8
_0-6_鋼板__アングル
  6
CONTINUOUS
 62
    2
 10
1139.9991913557267
 20
670.30239180859212
 11
1139.9991913557267
 21
668.70239180859357
  0
ARC
  8
_0-1_線色１__水色__
  6
CONTINUOUS
 62
    4
 10
1215.6433678761402
 20
707.16072514994835
 40
1.2083333333333581
 50
307.52351320333912
 51
232.47648680464988
  0
ARC
  8
_0-1_線色１__水色__
  6
CONTINUOUS
 62
    4
 10
1214.1714077319318
 20
705.24405848314132
 40
1.2083333333333179
 50
127.52351320610693
 51
52.47648680188081
  0
ARC
  8
_0-1_線色１__水色__
  6
CONTINUOUS
 62
    4
 10
1233.3068896082148
 20
707.16072514994835
 40
1.2083333333333581
 50
307.52351320333912
 51
232.47648680464988
  0
ARC
  8
_0-1_線色１__水色__
  6
CONTINUOUS
 62
    4
 10
1230.3629693195342
 20
707.16072514974144
 40
1.2083333333333581
 50
307.52351320333912
 51
232.47648680464988
  0
ARC
  8
_0-1_線色１__水色__
  6
CONTINUOUS
 62
    4
 10
1231.8349294640109
 20
705.24405848314132
 40
1.2083333333333179
 50
127.52351320610693
 51
52.47648680188081
  0
ARC
  8
_0-1_線色１__水色__
  6
CONTINUOUS
 62
    4
 10
1227.419049030849
 20
707.1607251495368
 40
1.2083333333333581
 50
307.52351320333912
 51
232.47648680464988
  0
ARC
  8
_0-1_線色１__水色__
  6
CONTINUOUS
 62
    4
 10
1228.8910091753257
 20
705.24405848293668
 40
1.2083333333333179
 50
127.52351320610693
 51
52.47648680188081
  0
ARC
  8
_0-1_線色１__水色__
  6
CONTINUOUS
 62
    4
 10
1224.4751287421684
 20
707.16072514933217
 40
1.2083333333333581
 50
307.52351320333912
 51
232.47648680464988
  0
ARC
  8
_0-1_線色１__水色__
  6
CONTINUOUS
 62
    4
 10
1225.9470888866406
 20
705.24405848273204
 40
1.2083333333333179
 50
127.52351320610693
 51
52.47648680188081
  0
ARC
  8
_0-1_線色１__水色__
  6
CONTINUOUS
 62
    4
 10
1221.5312084534833
 20
707.16072514912753
 40
1.2083333333333581
 50
307.52351320333912
 51
232.47648680464988
  0
ARC
  8
_0-1_線色１__水色__
  6
CONTINUOUS
 62
    4
 10
1223.00316859796
 20
705.24405848252741
 40
1.2083333333333179
 50
127.52351320610693
 51
52.47648680188081
  0
ARC
  8
_0-1_線色１__水色__
  6
CONTINUOUS
 62
    4
 10
1218.5872881647981
 20
707.16072514892062
 40
1.2083333333333581
 50
307.52351320333912
 51
232.47648680464988
  0
ARC
  8
_0-1_線色１__水色__
  6
CONTINUOUS
 62
    4
 10
1220.0592483092748
 20
705.24405848232277
 40
1.2083333333333179
 50
127.52351320610693
 51
52.47648680188081
  0
ARC
  8
_0-1_線色１__水色__
  6
CONTINUOUS
 62
    4
 10
1217.1153280205942
 20
705.24405848211586
 40
1.2083333333333179
 50
127.52351320610693
 51
52.47648680188081
  0
ARC
  8
_0-1_線色１__水色__
  6
CONTINUOUS
 62
    4
 10
1250.9704113402938
 20
707.16072514994835
 40
1.2083333333333581
 50
307.52351320333912
 51
232.47648680464988
  0
ARC
  8
_0-1_線色１__水色__
  6
CONTINUOUS
 62
    4
 10
1248.0264910516087
 20
707.16072514974144
 40
1.2083333333333581
 50
307.52351320333912
 51
232.47648680464988
  0
ARC
  8
_0-1_線色１__水色__
  6
CONTINUOUS
 62
    4
 10
1249.4984511960854
 20
705.24405848314132
 40
1.2083333333333179
 50
127.52351320610693
 51
52.47648680188081
  0
ARC
  8
_0-1_線色１__水色__
  6
CONTINUOUS
 62
    4
 10
1245.0825707629281
 20
707.1607251495368
 40
1.2083333333333581
 50
307.52351320333912
 51
232.47648680464988
  0
ARC
  8
_0-1_線色１__水色__
  6
CONTINUOUS
 62
    4
 10
1246.5545309074002
 20
705.24405848293668
 40
1.2083333333333179
 50
127.52351320610693
 51
52.47648680188081
  0
ARC
  8
_0-1_線色１__水色__
  6
CONTINUOUS
 62
    4
 10
1242.1386504742429
 20
707.16072514933217
 40
1.2083333333333581
 50
307.52351320333912
 51
232.47648680464988
  0
ARC
  8
_0-1_線色１__水色__
  6
CONTINUOUS
 62
    4
 10
1243.6106106187196
 20
705.24405848273204
 40
1.2083333333333179
 50
127.52351320610693
 51
52.47648680188081
  0
ARC
  8
_0-1_線色１__水色__
  6
CONTINUOUS
 62
    4
 10
1239.1947301855623
 20
707.16072514912753
 40
1.2083333333333581
 50
307.52351320333912
 51
232.47648680464988
  0
ARC
  8
_0-1_線色１__水色__
  6
CONTINUOUS
 62
    4
 10
1240.6666903300345
 20
705.24405848252741
 40
1.2083333333333179
 50
127.52351320610693
 51
52.47648680188081
  0
ARC
  8
_0-1_線色１__水色__
  6
CONTINUOUS
 62
    4
 10
1236.2508098968772
 20
707.16072514892062
 40
1.2083333333333581
 50
307.52351320333912
 51
232.47648680464988
  0
ARC
  8
_0-1_線色１__水色__
  6
CONTINUOUS
 62
    4
 10
1237.7227700413539
 20
705.24405848232277
 40
1.2083333333333179
 50
127.52351320610693
 51
52.47648680188081
  0
ARC
  8
_0-1_線色１__水色__
  6
CONTINUOUS
 62
    4
 10
1234.7788497526687
 20
705.24405848211586
 40
1.2083333333333179
 50
127.52351320610693
 51
52.47648680188081
  0
ARC
  8
_0-1_線色１__水色__
  6
CONTINUOUS
 62
    4
 10
1252.4423714847478
 20
705.24405848211586
 40
1.2083333333333179
 50
127.52351320610693
 51
52.47648680188081
  0
ARC
  8
_0-1_線色１__水色__
  6
CONTINUOUS
 62
    4
 10
1253.914331628979
 20
707.16072514994835
 40
1.2083333333333581
 50
307.52351320333912
 51
232.47648680464988
  0
ARC
  8
_0-1_線色１__水色__
  6
CONTINUOUS
 62
    4
 10
1255.3862917734284
 20
705.24405848211586
 40
1.2083333333333179
 50
127.52351320610693
 51
52.47648680188081
  0
ARC
  8
_0-1_線色１__水色__
  6
CONTINUOUS
 62
    4
 10
1256.8582519176596
 20
707.16072514994835
 40
1.2083333333333581
 50
307.52351320333912
 51
232.47648680464988
  0
ARC
  8
_0-1_線色１__水色__
  6
CONTINUOUS
 62
    4
 10
1258.3302120621136
 20
705.24405848211586
 40
1.2083333333333179
 50
127.52351320610693
 51
52.47648680188081
  0
ARC
  8
_0-1_線色１__水色__
  6
CONTINUOUS
 62
    4
 10
1259.8021722063447
 20
707.16072514994835
 40
1.2083333333333581
 50
307.52351320333912
 51
232.47648680464988
  0
ARC
  8
_0-1_線色１__水色__
  6
CONTINUOUS
 62
    4
 10
1261.2741323507942
 20
705.24405848211586
 40
1.2083333333333179
 50
127.52351320610693
 51
52.47648680188081
  0
ARC
  8
_0-1_線色１__水色__
  6
CONTINUOUS
 62
    4
 10
1262.7460924950253
 20
707.16072514994835
 40
1.2083333333333581
 50
307.52351320333912
 51
232.47648680464988
  0
ARC
  8
_0-1_線色１__水色__
  6
CONTINUOUS
 62
    4
 10
1264.2180526394793
 20
705.24405848211586
 40
1.2083333333333179
 50
127.52351320610693
 51
52.47648680188081
  0
ARC
  8
_0-1_線色１__水色__
  6
CONTINUOUS
 62
    4
 10
1265.6900127837105
 20
707.16072514994835
 40
1.2083333333333581
 50
307.52351320333912
 51
232.47648680464988
  0
ARC
  8
_0-1_線色１__水色__
  6
CONTINUOUS
 62
    4
 10
1267.1619729281645
 20
705.24405848211586
 40
1.2083333333333179
 50
127.52351320610693
 51
52.47648680188081
  0
ARC
  8
_0-1_線色１__水色__
  6
CONTINUOUS
 62
    4
 10
1268.6339330723956
 20
707.16072514994835
 40
1.2083333333333581
 50
307.52351320333912
 51
232.47648680464988
  0
ARC
  8
_0-1_線色１__水色__
  6
CONTINUOUS
 62
    4
 10
1270.1058932168451
 20
705.24405848211586
 40
1.2083333333333179
 50
127.52351320610693
 51
52.47648680188081
  0
ARC
  8
_0-1_線色１__水色__
  6
CONTINUOUS
 62
    4
 10
1271.5778533610762
 20
707.16072514994835
 40
1.2083333333333581
 50
307.52351320333912
 51
232.47648680464988
  0
ARC
  8
_0-1_線色１__水色__
  6
CONTINUOUS
 62
    4
 10
1273.0498135055302
 20
705.24405848211586
 40
1.2083333333333179
 50
127.52351320610693
 51
52.47648680188081
  0
ARC
  8
_0-1_線色１__水色__
  6
CONTINUOUS
 62
    4
 10
1274.5217736497614
 20
707.16072514994835
 40
1.2083333333333581
 50
307.52351320333912
 51
232.47648680464988
  0
ARC
  8
_0-1_線色１__水色__
  6
CONTINUOUS
 62
    4
 10
1275.9937337942154
 20
705.24405848211586
 40
1.2083333333333179
 50
127.52351320610693
 51
52.47648680188081
  0
ARC
  8
_0-1_線色１__水色__
  6
CONTINUOUS
 62
    4
 10
1277.4656939384465
 20
707.16072514994835
 40
1.2083333333333581
 50
307.52351320333912
 51
232.47648680464988
  0
ARC
  8
_0-1_線色１__水色__
  6
CONTINUOUS
 62
    4
 10
1278.937654082896
 20
705.24405848211586
 40
1.2083333333333179
 50
127.52351320610693
 51
52.47648680188081
  0
ARC
  8
_0-1_線色１__水色__
  6
CONTINUOUS
 62
    4
 10
1280.4096142271271
 20
707.16072514994835
 40
1.2083333333333581
 50
307.52351320333912
 51
232.47648680464988
  0
ARC
  8
_0-1_線色１__水色__
  6
CONTINUOUS
 62
    4
 10
1281.8815743715811
 20
705.24405848211586
 40
1.2083333333333179
 50
127.52351320610693
 51
52.47648680188081
  0
ARC
  8
_0-1_線色１__水色__
  6
CONTINUOUS
 62
    4
 10
1283.3535345158123
 20
707.16072514994835
 40
1.2083333333333581
 50
307.52351320333912
 51
232.47648680464988
  0
ARC
  8
_0-1_線色１__水色__
  6
CONTINUOUS
 62
    4
 10
1284.8254946602617
 20
705.24405848211586
 40
1.2083333333333179
 50
127.52351320610693
 51
52.47648680188081
  0
ARC
  8
_0-1_線色１__水色__
  6
CONTINUOUS
 62
    4
 10
1286.2974548044929
 20
707.16072514994835
 40
1.2083333333333581
 50
307.52351320333912
 51
232.47648680464988
  0
ARC
  8
_0-1_線色１__水色__
  6
CONTINUOUS
 62
    4
 10
1287.7694149489469
 20
705.24405848211586
 40
1.2083333333333179
 50
127.52351320610693
 51
52.47648680188081
  0
ARC
  8
_0-1_線色１__水色__
  6
CONTINUOUS
 62
    4
 10
1289.241375093178
 20
707.16072514994835
 40
1.2083333333333581
 50
307.52351320333912
 51
232.47648680464988
  0
ARC
  8
_0-1_線色１__水色__
  6
CONTINUOUS
 62
    4
 10
1290.713335237632
 20
705.24405848211586
 40
1.2083333333333179
 50
127.52351320610693
 51
52.47648680188081
  0
ARC
  8
_0-1_線色１__水色__
  6
CONTINUOUS
 62
    4
 10
1293.6572555260716
 20
705.24405848211586
 40
1.2083333333333179
 50
127.52351320610693
 51
52.47648680188081
  0
ARC
  8
_0-1_線色１__水色__
  6
CONTINUOUS
 62
    4
 10
1292.1852953816222
 20
707.16072514994835
 40
1.2083333333333581
 50
307.52351320333912
 51
232.47648680464988
  0
ARC
  8
_0-1_線色１__水色__
  6
CONTINUOUS
 62
    4
 10
1296.6011758147567
 20
705.24405848211586
 40
1.2083333333333179
 50
127.52351320610693
 51
52.47648680188081
  0
ARC
  8
_0-1_線色１__水色__
  6
CONTINUOUS
 62
    4
 10
1298.0731359589879
 20
707.16072514994835
 40
1.2083333333333581
 50
307.52351320333912
 51
232.47648680464988
  0
ARC
  8
_0-1_線色１__水色__
  6
CONTINUOUS
 62
    4
 10
1299.5450961034373
 20
705.24405848211586
 40
1.2083333333333179
 50
127.52351320610693
 51
52.47648680188081
  0
ARC
  8
_0-1_線色１__水色__
  6
CONTINUOUS
 62
    4
 10
1301.0170562476685
 20
707.16072514994835
 40
1.2083333333333581
 50
307.52351320333912
 51
232.47648680464988
  0
ARC
  8
_0-1_線色１__水色__
  6
CONTINUOUS
 62
    4
 10
1302.4890163921225
 20
705.24405848211586
 40
1.2083333333333179
 50
127.52351320610693
 51
52.47648680188081
  0
ARC
  8
_0-1_線色１__水色__
  6
CONTINUOUS
 62
    4
 10
1303.9609765363537
 20
707.16072514994835
 40
1.2083333333333581
 50
307.52351320333912
 51
232.47648680464988
  0
ARC
  8
_0-1_線色１__水色__
  6
CONTINUOUS
 62
    4
 10
1305.4329366808076
 20
705.24405848211586
 40
1.2083333333333179
 50
127.52351320610693
 51
52.47648680188081
  0
ARC
  8
_0-1_線色１__水色__
  6
CONTINUOUS
 62
    4
 10
1306.9048968250388
 20
707.16072514994835
 40
1.2083333333333581
 50
307.52351320333912
 51
232.47648680464988
  0
ARC
  8
_0-1_線色１__水色__
  6
CONTINUOUS
 62
    4
 10
1308.3768569694882
 20
705.24405848211586
 40
1.2083333333333179
 50
127.52351320610693
 51
52.47648680188081
  0
ARC
  8
_0-1_線色１__水色__
  6
CONTINUOUS
 62
    4
 10
1309.8488171137194
 20
707.16072514994835
 40
1.2083333333333581
 50
307.52351320333912
 51
232.47648680464988
  0
ARC
  8
_0-1_線色１__水色__
  6
CONTINUOUS
 62
    4
 10
1311.3207772581734
 20
705.24405848211586
 40
1.2083333333333179
 50
127.52351320610693
 51
52.47648680188081
  0
ARC
  8
_0-1_線色１__水色__
  6
CONTINUOUS
 62
    4
 10
1312.7927374024046
 20
707.16072514994835
 40
1.2083333333333581
 50
307.52351320333912
 51
232.47648680464988
  0
ARC
  8
_0-1_線色１__水色__
  6
CONTINUOUS
 62
    4
 10
1314.2646975468585
 20
705.24405848211586
 40
1.2083333333333179
 50
127.52351320610693
 51
52.47648680188081
  0
ARC
  8
_0-1_線色１__水色__
  6
CONTINUOUS
 62
    4
 10
1315.7366576910897
 20
707.16072514994835
 40
1.2083333333333581
 50
307.52351320333912
 51
232.47648680464988
  0
ARC
  8
_0-1_線色１__水色__
  6
CONTINUOUS
 62
    4
 10
1317.2086178355391
 20
705.24405848211586
 40
1.2083333333333179
 50
127.52351320610693
 51
52.47648680188081
  0
ARC
  8
_0-1_線色１__水色__
  6
CONTINUOUS
 62
    4
 10
1318.6805779797703
 20
707.16072514994835
 40
1.2083333333333581
 50
307.52351320333912
 51
232.47648680464988
  0
ARC
  8
_0-1_線色１__水色__
  6
CONTINUOUS
 62
    4
 10
1320.1525381242243
 20
705.24405848211586
 40
1.2083333333333179
 50
127.52351320610693
 51
52.47648680188081
  0
ARC
  8
_0-1_線色１__水色__
  6
CONTINUOUS
 62
    4
 10
1321.6244982684555
 20
707.16072514994835
 40
1.2083333333333581
 50
307.52351320333912
 51
232.47648680464988
  0
ARC
  8
_0-1_線色１__水色__
  6
CONTINUOUS
 62
    4
 10
1323.0964584129049
 20
705.24405848211586
 40
1.2083333333333179
 50
127.52351320610693
 51
52.47648680188081
  0
ARC
  8
_0-1_線色１__水色__
  6
CONTINUOUS
 62
    4
 10
1324.5684185571361
 20
707.16072514994835
 40
1.2083333333333581
 50
307.52351320333912
 51
232.47648680464988
  0
ARC
  8
_0-1_線色１__水色__
  6
CONTINUOUS
 62
    4
 10
1326.04037870159
 20
705.24405848211586
 40
1.2083333333333179
 50
127.52351320610693
 51
52.47648680188081
  0
ARC
  8
_0-1_線色１__水色__
  6
CONTINUOUS
 62
    4
 10
1327.5123388458212
 20
707.16072514994835
 40
1.2083333333333581
 50
307.52351320333912
 51
232.47648680464988
  0
ARC
  8
_0-1_線色１__水色__
  6
CONTINUOUS
 62
    4
 10
1328.9842989902752
 20
705.24405848211586
 40
1.2083333333333179
 50
127.52351320610693
 51
52.47648680188081
  0
ARC
  8
_0-1_線色１__水色__
  6
CONTINUOUS
 62
    4
 10
1331.9282192787148
 20
705.24405848211586
 40
1.2083333333333179
 50
127.52351320610693
 51
52.47648680188081
  0
ARC
  8
_0-1_線色１__水色__
  6
CONTINUOUS
 62
    4
 10
1330.4562591342653
 20
707.16072514994835
 40
1.2083333333333581
 50
307.52351320333912
 51
232.47648680464988
  0
ARC
  8
_0-1_線色１__水色__
  6
CONTINUOUS
 62
    4
 10
1295.1292156703028
 20
707.16072514994835
 40
1.2083333333333581
 50
307.52351320333912
 51
232.47648680464988
  0
ARC
  8
_0-1_線色１__水色__
  6
CONTINUOUS
 62
    4
 10
1334.8721395673999
 20
705.24405848211586
 40
1.2083333333333179
 50
127.52351320610693
 51
52.47648680188081
  0
ARC
  8
_0-1_線色１__水色__
  6
CONTINUOUS
 62
    4
 10
1336.3440997116311
 20
707.16072514994835
 40
1.2083333333333581
 50
307.52351320333912
 51
232.47648680464988
  0
ARC
  8
_0-1_線色１__水色__
  6
CONTINUOUS
 62
    4
 10
1337.8160598560805
 20
705.24405848211586
 40
1.2083333333333179
 50
127.52351320610693
 51
52.47648680188081
  0
ARC
  8
_0-1_線色１__水色__
  6
CONTINUOUS
 62
    4
 10
1339.2880200003117
 20
707.16072514994835
 40
1.2083333333333581
 50
307.52351320333912
 51
232.47648680464988
  0
ARC
  8
_0-1_線色１__水色__
  6
CONTINUOUS
 62
    4
 10
1340.7599801447657
 20
705.24405848211586
 40
1.2083333333333179
 50
127.52351320610693
 51
52.47648680188081
  0
ARC
  8
_0-1_線色１__水色__
  6
CONTINUOUS
 62
    4
 10
1342.2319402889968
 20
707.16072514994835
 40
1.2083333333333581
 50
307.52351320333912
 51
232.47648680464988
  0
ARC
  8
_0-1_線色１__水色__
  6
CONTINUOUS
 62
    4
 10
1343.7039004334508
 20
705.24405848211586
 40
1.2083333333333179
 50
127.52351320610693
 51
52.47648680188081
  0
ARC
  8
_0-1_線色１__水色__
  6
CONTINUOUS
 62
    4
 10
1345.175860577682
 20
707.16072514994835
 40
1.2083333333333581
 50
307.52351320333912
 51
232.47648680464988
  0
ARC
  8
_0-1_線色１__水色__
  6
CONTINUOUS
 62
    4
 10
1346.6478207221314
 20
705.24405848211586
 40
1.2083333333333179
 50
127.52351320610693
 51
52.47648680188081
  0
ARC
  8
_0-1_線色１__水色__
  6
CONTINUOUS
 62
    4
 10
1348.1197808663626
 20
707.16072514994835
 40
1.2083333333333581
 50
307.52351320333912
 51
232.47648680464988
  0
ARC
  8
_0-1_線色１__水色__
  6
CONTINUOUS
 62
    4
 10
1349.5917410108166
 20
705.24405848211586
 40
1.2083333333333179
 50
127.52351320610693
 51
52.47648680188081
  0
ARC
  8
_0-1_線色１__水色__
  6
CONTINUOUS
 62
    4
 10
1351.0637011550477
 20
707.16072514994835
 40
1.2083333333333581
 50
307.52351320333912
 51
232.47648680464988
  0
ARC
  8
_0-1_線色１__水色__
  6
CONTINUOUS
 62
    4
 10
1352.5356612995017
 20
705.24405848211586
 40
1.2083333333333179
 50
127.52351320610693
 51
52.47648680188081
  0
ARC
  8
_0-1_線色１__水色__
  6
CONTINUOUS
 62
    4
 10
1354.0076214437329
 20
707.16072514994835
 40
1.2083333333333581
 50
307.52351320333912
 51
232.47648680464988
  0
ARC
  8
_0-1_線色１__水色__
  6
CONTINUOUS
 62
    4
 10
1355.4795815881823
 20
705.24405848211586
 40
1.2083333333333179
 50
127.52351320610693
 51
52.47648680188081
  0
ARC
  8
_0-1_線色１__水色__
  6
CONTINUOUS
 62
    4
 10
1356.9515417324135
 20
707.16072514994835
 40
1.2083333333333581
 50
307.52351320333912
 51
232.47648680464988
  0
ARC
  8
_0-1_線色１__水色__
  6
CONTINUOUS
 62
    4
 10
1358.4235018768675
 20
705.24405848211586
 40
1.2083333333333179
 50
127.52351320610693
 51
52.47648680188081
  0
ARC
  8
_0-1_線色１__水色__
  6
CONTINUOUS
 62
    4
 10
1359.8954620210986
 20
707.16072514994835
 40
1.2083333333333581
 50
307.52351320333912
 51
232.47648680464988
  0
ARC
  8
_0-1_線色１__水色__
  6
CONTINUOUS
 62
    4
 10
1361.3674221655481
 20
705.24405848211586
 40
1.2083333333333179
 50
127.52351320610693
 51
52.47648680188081
  0
ARC
  8
_0-1_線色１__水色__
  6
CONTINUOUS
 62
    4
 10
1362.8393823097792
 20
707.16072514994835
 40
1.2083333333333581
 50
307.52351320333912
 51
232.47648680464988
  0
ARC
  8
_0-1_線色１__水色__
  6
CONTINUOUS
 62
    4
 10
1364.3113424542332
 20
705.24405848211586
 40
1.2083333333333179
 50
127.52351320610693
 51
52.47648680188081
  0
ARC
  8
_0-1_線色１__水色__
  6
CONTINUOUS
 62
    4
 10
1365.7833025984644
 20
707.16072514994835
 40
1.2083333333333581
 50
307.52351320333912
 51
232.47648680464988
  0
ARC
  8
_0-1_線色１__水色__
  6
CONTINUOUS
 62
    4
 10
1367.2552627429184
 20
705.24405848211586
 40
1.2083333333333179
 50
127.52351320610693
 51
52.47648680188081
  0
ARC
  8
_0-1_線色１__水色__
  6
CONTINUOUS
 62
    4
 10
1370.199183031358
 20
705.24405848211586
 40
1.2083333333333179
 50
127.52351320610693
 51
52.47648680188081
  0
ARC
  8
_0-1_線色１__水色__
  6
CONTINUOUS
 62
    4
 10
1368.7272228869085
 20
707.16072514994835
 40
1.2083333333333581
 50
307.52351320333912
 51
232.47648680464988
  0
ARC
  8
_0-1_線色１__水色__
  6
CONTINUOUS
 62
    4
 10
1333.4001794229459
 20
707.16072514994835
 40
1.2083333333333581
 50
307.52351320333912
 51
232.47648680464988
  0
ARC
  8
_0-1_線色１__水色__
  6
CONTINUOUS
 62
    4
 10
1373.1431033200431
 20
705.24405848211586
 40
1.2083333333333179
 50
127.52351320610693
 51
52.47648680188081
  0
ARC
  8
_0-1_線色１__水色__
  6
CONTINUOUS
 62
    4
 10
1374.6150634642743
 20
707.16072514994835
 40
1.2083333333333581
 50
307.52351320333912
 51
232.47648680464988
  0
ARC
  8
_0-1_線色１__水色__
  6
CONTINUOUS
 62
    4
 10
1376.0870236087237
 20
705.24405848211586
 40
1.2083333333333179
 50
127.52351320610693
 51
52.47648680188081
  0
ARC
  8
_0-1_線色１__水色__
  6
CONTINUOUS
 62
    4
 10
1377.5589837529549
 20
707.16072514994835
 40
1.2083333333333581
 50
307.52351320333912
 51
232.47648680464988
  0
ARC
  8
_0-1_線色１__水色__
  6
CONTINUOUS
 62
    4
 10
1379.0309438974089
 20
705.24405848211586
 40
1.2083333333333179
 50
127.52351320610693
 51
52.47648680188081
  0
ARC
  8
_0-1_線色１__水色__
  6
CONTINUOUS
 62
    4
 10
1380.50290404164
 20
707.16072514994835
 40
1.2083333333333581
 50
307.52351320333912
 51
232.47648680464988
  0
ARC
  8
_0-1_線色１__水色__
  6
CONTINUOUS
 62
    4
 10
1381.974864186094
 20
705.24405848211586
 40
1.2083333333333179
 50
127.52351320610693
 51
52.47648680188081
  0
ARC
  8
_0-1_線色１__水色__
  6
CONTINUOUS
 62
    4
 10
1383.4468243303252
 20
707.16072514994835
 40
1.2083333333333581
 50
307.52351320333912
 51
232.47648680464988
  0
ARC
  8
_0-1_線色１__水色__
  6
CONTINUOUS
 62
    4
 10
1384.9187844747746
 20
705.24405848211586
 40
1.2083333333333179
 50
127.52351320610693
 51
52.47648680188081
  0
ARC
  8
_0-1_線色１__水色__
  6
CONTINUOUS
 62
    4
 10
1386.3907446190058
 20
707.16072514994835
 40
1.2083333333333581
 50
307.52351320333912
 51
232.47648680464988
  0
ARC
  8
_0-1_線色１__水色__
  6
CONTINUOUS
 62
    4
 10
1387.8627047634598
 20
705.24405848211586
 40
1.2083333333333179
 50
127.52351320610693
 51
52.47648680188081
  0
ARC
  8
_0-1_線色１__水色__
  6
CONTINUOUS
 62
    4
 10
1389.3346649076909
 20
707.16072514994835
 40
1.2083333333333581
 50
307.52351320333912
 51
232.47648680464988
  0
ARC
  8
_0-1_線色１__水色__
  6
CONTINUOUS
 62
    4
 10
1390.8066250521449
 20
705.24405848211586
 40
1.2083333333333179
 50
127.52351320610693
 51
52.47648680188081
  0
ARC
  8
_0-1_線色１__水色__
  6
CONTINUOUS
 62
    4
 10
1392.2785851963761
 20
707.16072514994835
 40
1.2083333333333581
 50
307.52351320333912
 51
232.47648680464988
  0
ARC
  8
_0-1_線色１__水色__
  6
CONTINUOUS
 62
    4
 10
1393.7505453408255
 20
705.24405848211586
 40
1.2083333333333179
 50
127.52351320610693
 51
52.47648680188081
  0
ARC
  8
_0-1_線色１__水色__
  6
CONTINUOUS
 62
    4
 10
1395.2225054850567
 20
707.16072514994835
 40
1.2083333333333581
 50
307.52351320333912
 51
232.47648680464988
  0
ARC
  8
_0-1_線色１__水色__
  6
CONTINUOUS
 62
    4
 10
1396.6944656295107
 20
705.24405848211586
 40
1.2083333333333179
 50
127.52351320610693
 51
52.47648680188081
  0
ARC
  8
_0-1_線色１__水色__
  6
CONTINUOUS
 62
    4
 10
1398.1664257737418
 20
707.16072514994835
 40
1.2083333333333581
 50
307.52351320333912
 51
232.47648680464988
  0
ARC
  8
_0-1_線色１__水色__
  6
CONTINUOUS
 62
    4
 10
1399.6383859181913
 20
705.24405848211586
 40
1.2083333333333179
 50
127.52351320610693
 51
52.47648680188081
  0
ARC
  8
_0-1_線色１__水色__
  6
CONTINUOUS
 62
    4
 10
1401.1103460624224
 20
707.16072514994835
 40
1.2083333333333581
 50
307.52351320333912
 51
232.47648680464988
  0
ARC
  8
_0-1_線色１__水色__
  6
CONTINUOUS
 62
    4
 10
1402.5823062068764
 20
705.24405848211586
 40
1.2083333333333179
 50
127.52351320610693
 51
52.47648680188081
  0
ARC
  8
_0-1_線色１__水色__
  6
CONTINUOUS
 62
    4
 10
1404.0542663511076
 20
707.16072514994835
 40
1.2083333333333581
 50
307.52351320333912
 51
232.47648680464988
  0
ARC
  8
_0-1_線色１__水色__
  6
CONTINUOUS
 62
    4
 10
1405.5262264955616
 20
705.24405848211586
 40
1.2083333333333179
 50
127.52351320610693
 51
52.47648680188081
  0
ARC
  8
_0-1_線色１__水色__
  6
CONTINUOUS
 62
    4
 10
1408.4701467840011
 20
705.24405848211586
 40
1.2083333333333179
 50
127.52351320610693
 51
52.47648680188081
  0
ARC
  8
_0-1_線色１__水色__
  6
CONTINUOUS
 62
    4
 10
1406.9981866395517
 20
707.16072514994835
 40
1.2083333333333581
 50
307.52351320333912
 51
232.47648680464988
  0
ARC
  8
_0-1_線色１__水色__
  6
CONTINUOUS
 62
    4
 10
1371.6711431755891
 20
707.16072514994835
 40
1.2083333333333581
 50
307.52351320333912
 51
232.47648680464988
  0
ARC
  8
_0-1_線色１__水色__
  6
CONTINUOUS
 62
    4
 10
1411.4140670726863
 20
705.24405848211586
 40
1.2083333333333179
 50
127.52351320610693
 51
52.47648680188081
  0
ARC
  8
_0-1_線色１__水色__
  6
CONTINUOUS
 62
    4
 10
1412.8860272169175
 20
707.16072514994835
 40
1.2083333333333581
 50
307.52351320333912
 51
232.47648680464988
  0
ARC
  8
_0-1_線色１__水色__
  6
CONTINUOUS
 62
    4
 10
1414.3579873613669
 20
705.24405848211586
 40
1.2083333333333179
 50
127.52351320610693
 51
52.47648680188081
  0
ARC
  8
_0-1_線色１__水色__
  6
CONTINUOUS
 62
    4
 10
1415.8299475055981
 20
707.16072514994835
 40
1.2083333333333581
 50
307.52351320333912
 51
232.47648680464988
  0
ARC
  8
_0-1_線色１__水色__
  6
CONTINUOUS
 62
    4
 10
1417.301907650052
 20
705.24405848211586
 40
1.2083333333333179
 50
127.52351320610693
 51
52.47648680188081
  0
ARC
  8
_0-1_線色１__水色__
  6
CONTINUOUS
 62
    4
 10
1418.7738677942832
 20
707.16072514994835
 40
1.2083333333333581
 50
307.52351320333912
 51
232.47648680464988
  0
ARC
  8
_0-1_線色１__水色__
  6
CONTINUOUS
 62
    4
 10
1420.2458279387372
 20
705.24405848211586
 40
1.2083333333333179
 50
127.52351320610693
 51
52.47648680188081
  0
ARC
  8
_0-1_線色１__水色__
  6
CONTINUOUS
 62
    4
 10
1421.7177880829684
 20
707.16072514994835
 40
1.2083333333333581
 50
307.52351320333912
 51
232.47648680464988
  0
ARC
  8
_0-1_線色１__水色__
  6
CONTINUOUS
 62
    4
 10
1423.1897482274178
 20
705.24405848211586
 40
1.2083333333333179
 50
127.52351320610693
 51
52.47648680188081
  0
ARC
  8
_0-1_線色１__水色__
  6
CONTINUOUS
 62
    4
 10
1424.661708371649
 20
707.16072514994835
 40
1.2083333333333581
 50
307.52351320333912
 51
232.47648680464988
  0
ARC
  8
_0-1_線色１__水色__
  6
CONTINUOUS
 62
    4
 10
1426.1336685161029
 20
705.24405848211586
 40
1.2083333333333179
 50
127.52351320610693
 51
52.47648680188081
  0
ARC
  8
_0-1_線色１__水色__
  6
CONTINUOUS
 62
    4
 10
1427.6056286603341
 20
707.16072514994835
 40
1.2083333333333581
 50
307.52351320333912
 51
232.47648680464988
  0
ARC
  8
_0-1_線色１__水色__
  6
CONTINUOUS
 62
    4
 10
1429.0775888047881
 20
705.24405848211586
 40
1.2083333333333179
 50
127.52351320610693
 51
52.47648680188081
  0
ARC
  8
_0-1_線色１__水色__
  6
CONTINUOUS
 62
    4
 10
1430.5495489490193
 20
707.16072514994835
 40
1.2083333333333581
 50
307.52351320333912
 51
232.47648680464988
  0
ARC
  8
_0-1_線色１__水色__
  6
CONTINUOUS
 62
    4
 10
1432.0215090934687
 20
705.24405848211586
 40
1.2083333333333179
 50
127.52351320610693
 51
52.47648680188081
  0
ARC
  8
_0-1_線色１__水色__
  6
CONTINUOUS
 62
    4
 10
1433.4934692376999
 20
707.16072514994835
 40
1.2083333333333581
 50
307.52351320333912
 51
232.47648680464988
  0
ARC
  8
_0-1_線色１__水色__
  6
CONTINUOUS
 62
    4
 10
1434.9654293821538
 20
705.24405848211586
 40
1.2083333333333179
 50
127.52351320610693
 51
52.47648680188081
  0
ARC
  8
_0-1_線色１__水色__
  6
CONTINUOUS
 62
    4
 10
1436.437389526385
 20
707.16072514994835
 40
1.2083333333333581
 50
307.52351320333912
 51
232.47648680464988
  0
ARC
  8
_0-1_線色１__水色__
  6
CONTINUOUS
 62
    4
 10
1437.9093496708344
 20
705.24405848211586
 40
1.2083333333333179
 50
127.52351320610693
 51
52.47648680188081
  0
ARC
  8
_0-1_線色１__水色__
  6
CONTINUOUS
 62
    4
 10
1439.3813098150656
 20
707.16072514994835
 40
1.2083333333333581
 50
307.52351320333912
 51
232.47648680464988
  0
ARC
  8
_0-1_線色１__水色__
  6
CONTINUOUS
 62
    4
 10
1440.8532699595196
 20
705.24405848211586
 40
1.2083333333333179
 50
127.52351320610693
 51
52.47648680188081
  0
ARC
  8
_0-1_線色１__水色__
  6
CONTINUOUS
 62
    4
 10
1442.3252301037508
 20
707.16072514994835
 40
1.2083333333333581
 50
307.52351320333912
 51
232.47648680464988
  0
ARC
  8
_0-1_線色１__水色__
  6
CONTINUOUS
 62
    4
 10
1443.7971902482047
 20
705.24405848211586
 40
1.2083333333333179
 50
127.52351320610693
 51
52.47648680188081
  0
ARC
  8
_0-1_線色１__水色__
  6
CONTINUOUS
 62
    4
 10
1446.7411105366443
 20
705.24405848211586
 40
1.2083333333333179
 50
127.52351320610693
 51
52.47648680188081
  0
ARC
  8
_0-1_線色１__水色__
  6
CONTINUOUS
 62
    4
 10
1445.2691503921949
 20
707.16072514994835
 40
1.2083333333333581
 50
307.52351320333912
 51
232.47648680464988
  0
ARC
  8
_0-1_線色１__水色__
  6
CONTINUOUS
 62
    4
 10
1409.9421069282323
 20
707.16072514994835
 40
1.2083333333333581
 50
307.52351320333912
 51
232.47648680464988
  0
ARC
  8
_0-1_線色１__水色__
  6
CONTINUOUS
 62
    4
 10
1449.6850308253295
 20
705.24405848211586
 40
1.2083333333333179
 50
127.52351320610693
 51
52.47648680188081
  0
ARC
  8
_0-1_線色１__水色__
  6
CONTINUOUS
 62
    4
 10
1451.1569909695606
 20
707.16072514994835
 40
1.2083333333333581
 50
307.52351320333912
 51
232.47648680464988
  0
ARC
  8
_0-1_線色１__水色__
  6
CONTINUOUS
 62
    4
 10
1452.6289511140101
 20
705.24405848211586
 40
1.2083333333333179
 50
127.52351320610693
 51
52.47648680188081
  0
ARC
  8
_0-1_線色１__水色__
  6
CONTINUOUS
 62
    4
 10
1454.1009112582412
 20
707.16072514994835
 40
1.2083333333333581
 50
307.52351320333912
 51
232.47648680464988
  0
ARC
  8
_0-1_線色１__水色__
  6
CONTINUOUS
 62
    4
 10
1448.2130706808755
 20
707.16072514994835
 40
1.2083333333333581
 50
307.52351320333912
 51
232.47648680464988
  0
ARC
  8
_0-1_線色１__水色__
  6
CONTINUOUS
 62
    4
 10
1212.6994475874551
 20
707.16072514974144
 40
1.2083333333333581
 50
307.52351320333912
 51
232.47648680464988
  0
ARC
  8
_0-1_線色１__水色__
  6
CONTINUOUS
 62
    4
 10
884.35501483597704
 20
707.1607251476928
 40
1.2083333333333581
 50
307.52351319535012
 51
232.47648679666085
  0
ARC
  8
_0-1_線色１__水色__
  6
CONTINUOUS
 62
    4
 10
885.82697498018206
 20
705.24405848088577
 40
1.2083333333333177
 50
127.52351319811918
 51
52.476486793893116
  0
ARC
  8
_0-1_線色１__水色__
  6
CONTINUOUS
 62
    4
 10
875.52325396994888
 20
707.16072514707662
 40
1.2083333333333581
 50
307.52351319535012
 51
232.47648679666085
  0
ARC
  8
_0-1_線色１__水色__
  6
CONTINUOUS
 62
    4
 10
878.46717425863062
 20
707.16072514687198
 40
1.2083333333333581
 50
307.52351319535012
 51
232.47648679666085
  0
ARC
  8
_0-1_線色１__水色__
  6
CONTINUOUS
 62
    4
 10
876.99521411415731
 20
705.24405848027186
 40
1.2083333333333177
 50
127.52351319811918
 51
52.476486793893116
  0
ARC
  8
_0-1_線色１__水色__
  6
CONTINUOUS
 62
    4
 10
881.41109454731577
 20
707.16072514666507
 40
1.2083333333333581
 50
307.52351319535012
 51
232.47648679666085
  0
ARC
  8
_0-1_線色１__水色__
  6
CONTINUOUS
 62
    4
 10
879.93913440283904
 20
705.24405848006722
 40
1.2083333333333177
 50
127.52351319811918
 51
52.476486793893116
  0
ARC
  8
_0-1_線色１__水色__
  6
CONTINUOUS
 62
    4
 10
882.88305469152306
 20
705.24405847986031
 40
1.2083333333333177
 50
127.52351319811918
 51
52.476486793893116
  0
ARC
  8
_0-1_線色１__水色__
  6
CONTINUOUS
 62
    4
 10
866.69149310392072
 20
707.16072514646044
 40
1.2083333333333581
 50
307.52351319535012
 51
232.47648679666085
  0
ARC
  8
_0-1_線色１__水色__
  6
CONTINUOUS
 62
    4
 10
869.63541339260246
 20
707.1607251462558
 40
1.2083333333333581
 50
307.52351319535012
 51
232.47648679666085
  0
ARC
  8
_0-1_線色１__水色__
  6
CONTINUOUS
 62
    4
 10
868.16345324812914
 20
705.24405847965568
 40
1.2083333333333177
 50
127.52351319811918
 51
52.476486793893116
  0
ARC
  8
_0-1_線色１__水色__
  6
CONTINUOUS
 62
    4
 10
872.57933368128761
 20
707.16072514604889
 40
1.2083333333333581
 50
307.52351319535012
 51
232.47648679666085
  0
ARC
  8
_0-1_線色１__水色__
  6
CONTINUOUS
 62
    4
 10
871.10737353681088
 20
705.24405847945104
 40
1.2083333333333177
 50
127.52351319811918
 51
52.476486793893116
  0
ARC
  8
_0-1_線色１__水色__
  6
CONTINUOUS
 62
    4
 10
874.05129382549489
 20
705.24405847924413
 40
1.2083333333333177
 50
127.52351319811918
 51
52.476486793893116
  0
ARC
  8
_0-1_線色１__水色__
  6
CONTINUOUS
 62
    4
 10
857.85973223789256
 20
707.16072514584425
 40
1.2083333333333581
 50
307.52351319535012
 51
232.47648679666085
  0
ARC
  8
_0-1_線色１__水色__
  6
CONTINUOUS
 62
    4
 10
860.8036525265743
 20
707.16072514563962
 40
1.2083333333333581
 50
307.52351319535012
 51
232.47648679666085
  0
ARC
  8
_0-1_線色１__水色__
  6
CONTINUOUS
 62
    4
 10
859.33169238210098
 20
705.2440584790395
 40
1.2083333333333177
 50
127.52351319811918
 51
52.476486793893116
  0
ARC
  8
_0-1_線色１__水色__
  6
CONTINUOUS
 62
    4
 10
863.74757281525945
 20
707.16072514543271
 40
1.2083333333333581
 50
307.52351319535012
 51
232.47648679666085
  0
ARC
  8
_0-1_線色１__水色__
  6
CONTINUOUS
 62
    4
 10
862.27561267078272
 20
705.24405847883486
 40
1.2083333333333177
 50
127.52351319811918
 51
52.476486793893116
  0
ARC
  8
_0-1_線色１__水色__
  6
CONTINUOUS
 62
    4
 10
865.21953295946673
 20
705.24405847862795
 40
1.2083333333333177
 50
127.52351319811918
 51
52.476486793893116
  0
ARC
  8
_0-1_線色１__水色__
  6
CONTINUOUS
 62
    4
 10
849.0279713718644
 20
707.16072514522807
 40
1.2083333333333581
 50
307.52351319535012
 51
232.47648679666085
  0
ARC
  8
_0-1_線色１__水色__
  6
CONTINUOUS
 62
    4
 10
851.97189166054613
 20
707.16072514502343
 40
1.2083333333333581
 50
307.52351319535012
 51
232.47648679666085
  0
ARC
  8
_0-1_線色１__水色__
  6
CONTINUOUS
 62
    4
 10
850.49993151607282
 20
705.24405847842331
 40
1.2083333333333177
 50
127.52351319811918
 51
52.476486793893116
  0
ARC
  8
_0-1_線色１__水色__
  6
CONTINUOUS
 62
    4
 10
854.91581194923128
 20
707.16072514481652
 40
1.2083333333333581
 50
307.52351319535012
 51
232.47648679666085
  0
ARC
  8
_0-1_線色１__水色__
  6
CONTINUOUS
 62
    4
 10
853.44385180475456
 20
705.24405847821868
 40
1.2083333333333177
 50
127.52351319811918
 51
52.476486793893116
  0
ARC
  8
_0-1_線色１__水色__
  6
CONTINUOUS
 62
    4
 10
856.38777209343857
 20
705.24405847801177
 40
1.2083333333333177
 50
127.52351319811918
 51
52.476486793893116
  0
ARC
  8
_0-1_線色１__水色__
  6
CONTINUOUS
 62
    4
 10
840.19621050583623
 20
707.16072514461189
 40
1.2083333333333581
 50
307.52351319535012
 51
232.47648679666085
  0
ARC
  8
_0-1_線色１__水色__
  6
CONTINUOUS
 62
    4
 10
843.14013079451797
 20
707.16072514440725
 40
1.2083333333333581
 50
307.52351319535012
 51
232.47648679666085
  0
ARC
  8
_0-1_線色１__水色__
  6
CONTINUOUS
 62
    4
 10
841.66817065004466
 20
705.24405847780713
 40
1.2083333333333177
 50
127.52351319811918
 51
52.476486793893116
  0
ARC
  8
_0-1_線色１__水色__
  6
CONTINUOUS
 62
    4
 10
846.08405108320312
 20
707.16072514420034
 40
1.2083333333333581
 50
307.52351319535012
 51
232.47648679666085
  0
ARC
  8
_0-1_線色１__水色__
  6
CONTINUOUS
 62
    4
 10
844.6120909387264
 20
705.24405847760249
 40
1.2083333333333177
 50
127.52351319811918
 51
52.476486793893116
  0
ARC
  8
_0-1_線色１__水色__
  6
CONTINUOUS
 62
    4
 10
847.55601122741041
 20
705.24405847739558
 40
1.2083333333333177
 50
127.52351319811918
 51
52.476486793893116
  0
ARC
  8
_0-1_線色１__水色__
  6
CONTINUOUS
 62
    4
 10
831.36444963980807
 20
707.16072514399571
 40
1.2083333333333581
 50
307.52351319535012
 51
232.47648679666085
  0
ARC
  8
_0-1_線色１__水色__
  6
CONTINUOUS
 62
    4
 10
834.30836992848981
 20
707.16072514379107
 40
1.2083333333333581
 50
307.52351319535012
 51
232.47648679666085
  0
ARC
  8
_0-1_線色１__水色__
  6
CONTINUOUS
 62
    4
 10
832.8364097840165
 20
705.24405847719095
 40
1.2083333333333177
 50
127.52351319811918
 51
52.476486793893116
  0
ARC
  8
_0-1_線色１__水色__
  6
CONTINUOUS
 62
    4
 10
837.25229021717496
 20
707.16072514358416
 40
1.2083333333333581
 50
307.52351319535012
 51
232.47648679666085
  0
ARC
  8
_0-1_線色１__水色__
  6
CONTINUOUS
 62
    4
 10
835.78033007269823
 20
705.24405847698631
 40
1.2083333333333177
 50
127.52351319811918
 51
52.476486793893116
  0
ARC
  8
_0-1_線色１__水色__
  6
CONTINUOUS
 62
    4
 10
838.72425036138225
 20
705.2440584767794
 40
1.2083333333333177
 50
127.52351319811918
 51
52.476486793893116
  0
ARC
  8
_0-1_線色１__水色__
  6
CONTINUOUS
 62
    4
 10
822.53268877377991
 20
707.16072514337952
 40
1.2083333333333581
 50
307.52351319535012
 51
232.47648679666085
  0
ARC
  8
_0-1_線色１__水色__
  6
CONTINUOUS
 62
    4
 10
825.47660906246165
 20
707.16072514317489
 40
1.2083333333333581
 50
307.52351319535012
 51
232.47648679666085
  0
ARC
  8
_0-1_線色１__水色__
  6
CONTINUOUS
 62
    4
 10
824.00464891798833
 20
705.24405847657476
 40
1.2083333333333177
 50
127.52351319811918
 51
52.476486793893116
  0
ARC
  8
_0-1_線色１__水色__
  6
CONTINUOUS
 62
    4
 10
828.4205293511468
 20
707.16072514296798
 40
1.2083333333333581
 50
307.52351319535012
 51
232.47648679666085
  0
ARC
  8
_0-1_線色１__水色__
  6
CONTINUOUS
 62
    4
 10
826.94856920667007
 20
705.24405847637013
 40
1.2083333333333177
 50
127.52351319811918
 51
52.476486793893116
  0
ARC
  8
_0-1_線色１__水色__
  6
CONTINUOUS
 62
    4
 10
829.89248949535408
 20
705.24405847616322
 40
1.2083333333333177
 50
127.52351319811918
 51
52.476486793893116
  0
ARC
  8
_0-1_線色１__水色__
  6
CONTINUOUS
 62
    4
 10
813.70092790775175
 20
707.16072514276334
 40
1.2083333333333581
 50
307.52351319535012
 51
232.47648679666085
  0
ARC
  8
_0-1_線色１__水色__
  6
CONTINUOUS
 62
    4
 10
816.64484819643349
 20
707.1607251425587
 40
1.2083333333333581
 50
307.52351319535012
 51
232.47648679666085
  0
ARC
  8
_0-1_線色１__水色__
  6
CONTINUOUS
 62
    4
 10
815.17288805196017
 20
705.24405847595858
 40
1.2083333333333177
 50
127.52351319811918
 51
52.476486793893116
  0
ARC
  8
_0-1_線色１__水色__
  6
CONTINUOUS
 62
    4
 10
819.58876848511863
 20
707.16072514235179
 40
1.2083333333333581
 50
307.52351319535012
 51
232.47648679666085
  0
ARC
  8
_0-1_線色１__水色__
  6
CONTINUOUS
 62
    4
 10
818.11680834064191
 20
705.24405847575395
 40
1.2083333333333177
 50
127.52351319811918
 51
52.476486793893116
  0
ARC
  8
_0-1_線色１__水色__
  6
CONTINUOUS
 62
    4
 10
821.06072862932592
 20
705.24405847554704
 40
1.2083333333333177
 50
127.52351319811918
 51
52.476486793893116
  0
ARC
  8
_0-1_線色１__水色__
  6
CONTINUOUS
 62
    4
 10
804.86916704172359
 20
707.16072514214716
 40
1.2083333333333581
 50
307.52351319535012
 51
232.47648679666085
  0
ARC
  8
_0-1_線色１__水色__
  6
CONTINUOUS
 62
    4
 10
807.81308733040532
 20
707.16072514194252
 40
1.2083333333333581
 50
307.52351319535012
 51
232.47648679666085
  0
ARC
  8
_0-1_線色１__水色__
  6
CONTINUOUS
 62
    4
 10
806.34112718593201
 20
705.2440584753424
 40
1.2083333333333177
 50
127.52351319811918
 51
52.476486793893116
  0
ARC
  8
_0-1_線色１__水色__
  6
CONTINUOUS
 62
    4
 10
810.75700761909047
 20
707.16072514173561
 40
1.2083333333333581
 50
307.52351319535012
 51
232.47648679666085
  0
ARC
  8
_0-1_線色１__水色__
  6
CONTINUOUS
 62
    4
 10
809.28504747461375
 20
705.24405847513776
 40
1.2083333333333177
 50
127.52351319811918
 51
52.476486793893116
  0
ARC
  8
_0-1_線色１__水色__
  6
CONTINUOUS
 62
    4
 10
812.22896776329776
 20
705.24405847493085
 40
1.2083333333333177
 50
127.52351319811918
 51
52.476486793893116
  0
ARC
  8
_0-1_線色１__水色__
  6
CONTINUOUS
 62
    4
 10
796.03740617569542
 20
707.16072514153097
 40
1.2083333333333581
 50
307.52351319535012
 51
232.47648679666085
  0
ARC
  8
_0-1_線色１__水色__
  6
CONTINUOUS
 62
    4
 10
798.98132646437716
 20
707.16072514132634
 40
1.2083333333333581
 50
307.52351319535012
 51
232.47648679666085
  0
ARC
  8
_0-1_線色１__水色__
  6
CONTINUOUS
 62
    4
 10
797.50936631990385
 20
705.24405847472622
 40
1.2083333333333177
 50
127.52351319811918
 51
52.476486793893116
  0
ARC
  8
_0-1_線色１__水色__
  6
CONTINUOUS
 62
    4
 10
801.92524675306231
 20
707.16072514111943
 40
1.2083333333333581
 50
307.52351319535012
 51
232.47648679666085
  0
ARC
  8
_0-1_線色１__水色__
  6
CONTINUOUS
 62
    4
 10
800.45328660858559
 20
705.24405847452158
 40
1.2083333333333177
 50
127.52351319811918
 51
52.476486793893116
  0
ARC
  8
_0-1_線色１__水色__
  6
CONTINUOUS
 62
    4
 10
803.3972068972696
 20
705.24405847431467
 40
1.2083333333333177
 50
127.52351319811918
 51
52.476486793893116
  0
ARC
  8
_0-1_線色１__水色__
  6
CONTINUOUS
 62
    4
 10
787.20564530966726
 20
707.16072514091479
 40
1.2083333333333581
 50
307.52351319535012
 51
232.47648679666085
  0
ARC
  8
_0-1_線色１__水色__
  6
CONTINUOUS
 62
    4
 10
790.149565598349
 20
707.16072514071016
 40
1.2083333333333581
 50
307.52351319535012
 51
232.47648679666085
  0
ARC
  8
_0-1_線色１__水色__
  6
CONTINUOUS
 62
    4
 10
788.67760545387569
 20
705.24405847411003
 40
1.2083333333333177
 50
127.52351319811918
 51
52.476486793893116
  0
ARC
  8
_0-1_線色１__水色__
  6
CONTINUOUS
 62
    4
 10
793.09348588703415
 20
707.16072514050325
 40
1.2083333333333581
 50
307.52351319535012
 51
232.47648679666085
  0
ARC
  8
_0-1_線色１__水色__
  6
CONTINUOUS
 62
    4
 10
791.62152574255742
 20
705.2440584739054
 40
1.2083333333333177
 50
127.52351319811918
 51
52.476486793893116
  0
ARC
  8
_0-1_線色１__水色__
  6
CONTINUOUS
 62
    4
 10
794.56544603124144
 20
705.24405847369849
 40
1.2083333333333177
 50
127.52351319811918
 51
52.476486793893116
  0
ARC
  8
_0-1_線色１__水色__
  6
CONTINUOUS
 62
    4
 10
778.3738844436391
 20
707.16072514029861
 40
1.2083333333333581
 50
307.52351319535012
 51
232.47648679666085
  0
ARC
  8
_0-1_線色１__水色__
  6
CONTINUOUS
 62
    4
 10
781.31780473232084
 20
707.16072514009397
 40
1.2083333333333581
 50
307.52351319535012
 51
232.47648679666085
  0
ARC
  8
_0-1_線色１__水色__
  6
CONTINUOUS
 62
    4
 10
779.84584458784752
 20
705.24405847349385
 40
1.2083333333333177
 50
127.52351319811918
 51
52.476486793893116
  0
ARC
  8
_0-1_線色１__水色__
  6
CONTINUOUS
 62
    4
 10
784.26172502100599
 20
707.16072513988706
 40
1.2083333333333581
 50
307.52351319535012
 51
232.47648679666085
  0
ARC
  8
_0-1_線色１__水色__
  6
CONTINUOUS
 62
    4
 10
782.78976487652926
 20
705.24405847328921
 40
1.2083333333333177
 50
127.52351319811918
 51
52.476486793893116
  0
ARC
  8
_0-1_線色１__水色__
  6
CONTINUOUS
 62
    4
 10
785.73368516521327
 20
705.2440584730823
 40
1.2083333333333177
 50
127.52351319811918
 51
52.476486793893116
  0
ARC
  8
_0-1_線色１__水色__
  6
CONTINUOUS
 62
    4
 10
769.54212357761094
 20
707.16072513968243
 40
1.2083333333333581
 50
307.52351319535012
 51
232.47648679666085
  0
ARC
  8
_0-1_線色１__水色__
  6
CONTINUOUS
 62
    4
 10
772.48604386629268
 20
707.16072513947779
 40
1.2083333333333581
 50
307.52351319535012
 51
232.47648679666085
  0
ARC
  8
_0-1_線色１__水色__
  6
CONTINUOUS
 62
    4
 10
771.01408372181936
 20
705.24405847287767
 40
1.2083333333333177
 50
127.52351319811918
 51
52.476486793893116
  0
ARC
  8
_0-1_線色１__水色__
  6
CONTINUOUS
 62
    4
 10
775.42996415497782
 20
707.16072513927088
 40
1.2083333333333581
 50
307.52351319535012
 51
232.47648679666085
  0
ARC
  8
_0-1_線色１__水色__
  6
CONTINUOUS
 62
    4
 10
773.9580040105011
 20
705.24405847267303
 40
1.2083333333333177
 50
127.52351319811918
 51
52.476486793893116
  0
ARC
  8
_0-1_線色１__水色__
  6
CONTINUOUS
 62
    4
 10
776.90192429918511
 20
705.24405847246612
 40
1.2083333333333177
 50
127.52351319811918
 51
52.476486793893116
  0
ARC
  8
_0-1_線色１__水色__
  6
CONTINUOUS
 62
    4
 10
760.71036271158277
 20
707.16072513906624
 40
1.2083333333333581
 50
307.52351319535012
 51
232.47648679666085
  0
ARC
  8
_0-1_線色１__水色__
  6
CONTINUOUS
 62
    4
 10
763.65428300026451
 20
707.16072513886161
 40
1.2083333333333581
 50
307.52351319535012
 51
232.47648679666085
  0
ARC
  8
_0-1_線色１__水色__
  6
CONTINUOUS
 62
    4
 10
762.1823228557912
 20
705.24405847226149
 40
1.2083333333333177
 50
127.52351319811918
 51
52.476486793893116
  0
ARC
  8
_0-1_線色１__水色__
  6
CONTINUOUS
 62
    4
 10
766.59820328894966
 20
707.1607251386547
 40
1.2083333333333581
 50
307.52351319535012
 51
232.47648679666085
  0
ARC
  8
_0-1_線色１__水色__
  6
CONTINUOUS
 62
    4
 10
765.12624314447294
 20
705.24405847205685
 40
1.2083333333333177
 50
127.52351319811918
 51
52.476486793893116
  0
ARC
  8
_0-1_線色１__水色__
  6
CONTINUOUS
 62
    4
 10
768.07016343315695
 20
705.24405847184994
 40
1.2083333333333177
 50
127.52351319811918
 51
52.476486793893116
  0
ARC
  8
_0-1_線色１__水色__
  6
CONTINUOUS
 62
    4
 10
751.87860184555461
 20
707.16072513845006
 40
1.2083333333333581
 50
307.52351319535012
 51
232.47648679666085
  0
ARC
  8
_0-1_線色１__水色__
  6
CONTINUOUS
 62
    4
 10
754.82252213423635
 20
707.16072513824543
 40
1.2083333333333581
 50
307.52351319535012
 51
232.47648679666085
  0
ARC
  8
_0-1_線色１__水色__
  6
CONTINUOUS
 62
    4
 10
753.35056198976304
 20
705.2440584716453
 40
1.2083333333333177
 50
127.52351319811918
 51
52.476486793893116
  0
ARC
  8
_0-1_線色１__水色__
  6
CONTINUOUS
 62
    4
 10
757.7664424229215
 20
707.16072513803852
 40
1.2083333333333581
 50
307.52351319535012
 51
232.47648679666085
  0
ARC
  8
_0-1_線色１__水色__
  6
CONTINUOUS
 62
    4
 10
756.29448227844478
 20
705.24405847144067
 40
1.2083333333333177
 50
127.52351319811918
 51
52.476486793893116
  0
ARC
  8
_0-1_線色１__水色__
  6
CONTINUOUS
 62
    4
 10
759.23840256712879
 20
705.24405847123376
 40
1.2083333333333177
 50
127.52351319811918
 51
52.476486793893116
  0
ARC
  8
_0-1_線色１__水色__
  6
CONTINUOUS
 62
    4
 10
743.04684097952645
 20
707.16072513783388
 40
1.2083333333333581
 50
307.52351319535012
 51
232.47648679666085
  0
ARC
  8
_0-1_線色１__水色__
  6
CONTINUOUS
 62
    4
 10
745.99076126820819
 20
707.16072513762924
 40
1.2083333333333581
 50
307.52351319535012
 51
232.47648679666085
  0
ARC
  8
_0-1_線色１__水色__
  6
CONTINUOUS
 62
    4
 10
744.51880112373487
 20
705.24405847102912
 40
1.2083333333333177
 50
127.52351319811918
 51
52.476486793893116
  0
ARC
  8
_0-1_線色１__水色__
  6
CONTINUOUS
 62
    4
 10
748.93468155689334
 20
707.16072513742233
 40
1.2083333333333581
 50
307.52351319535012
 51
232.47648679666085
  0
ARC
  8
_0-1_線色１__水色__
  6
CONTINUOUS
 62
    4
 10
747.46272141241661
 20
705.24405847082448
 40
1.2083333333333177
 50
127.52351319811918
 51
52.476486793893116
  0
ARC
  8
_0-1_線色１__水色__
  6
CONTINUOUS
 62
    4
 10
750.40664170110063
 20
705.24405847061757
 40
1.2083333333333177
 50
127.52351319811918
 51
52.476486793893116
  0
ARC
  8
_0-1_線色１__水色__
  6
CONTINUOUS
 62
    4
 10
734.21508011349829
 20
707.1607251372177
 40
1.2083333333333581
 50
307.52351319535012
 51
232.47648679666085
  0
ARC
  8
_0-1_線色１__水色__
  6
CONTINUOUS
 62
    4
 10
737.15900040218003
 20
707.16072513701306
 40
1.2083333333333581
 50
307.52351319535012
 51
232.47648679666085
  0
ARC
  8
_0-1_線色１__水色__
  6
CONTINUOUS
 62
    4
 10
735.68704025770671
 20
705.24405847041294
 40
1.2083333333333177
 50
127.52351319811918
 51
52.476486793893116
  0
ARC
  8
_0-1_線色１__水色__
  6
CONTINUOUS
 62
    4
 10
740.10292069086518
 20
707.16072513680615
 40
1.2083333333333581
 50
307.52351319535012
 51
232.47648679666085
  0
ARC
  8
_0-1_線色１__水色__
  6
CONTINUOUS
 62
    4
 10
738.63096054638845
 20
705.2440584702083
 40
1.2083333333333177
 50
127.52351319811918
 51
52.476486793893116
  0
ARC
  8
_0-1_線色１__水色__
  6
CONTINUOUS
 62
    4
 10
741.57488083507246
 20
705.24405847000139
 40
1.2083333333333177
 50
127.52351319811918
 51
52.476486793893116
  0
ARC
  8
_0-1_線色１__水色__
  6
CONTINUOUS
 62
    4
 10
725.38331924747013
 20
707.16072513660151
 40
1.2083333333333581
 50
307.52351319535012
 51
232.47648679666085
  0
ARC
  8
_0-1_線色１__水色__
  6
CONTINUOUS
 62
    4
 10
728.32723953615186
 20
707.16072513639688
 40
1.2083333333333581
 50
307.52351319535012
 51
232.47648679666085
  0
ARC
  8
_0-1_線色１__水色__
  6
CONTINUOUS
 62
    4
 10
726.85527939167855
 20
705.24405846979676
 40
1.2083333333333177
 50
127.52351319811918
 51
52.476486793893116
  0
ARC
  8
_0-1_線色１__水色__
  6
CONTINUOUS
 62
    4
 10
731.27115982483701
 20
707.16072513618997
 40
1.2083333333333581
 50
307.52351319535012
 51
232.47648679666085
  0
ARC
  8
_0-1_線色１__水色__
  6
CONTINUOUS
 62
    4
 10
729.79919968036029
 20
705.24405846959212
 40
1.2083333333333177
 50
127.52351319811918
 51
52.476486793893116
  0
ARC
  8
_0-1_線色１__水色__
  6
CONTINUOUS
 62
    4
 10
732.7431199690443
 20
705.24405846938521
 40
1.2083333333333177
 50
127.52351319811918
 51
52.476486793893116
  0
ARC
  8
_0-1_線色１__水色__
  6
CONTINUOUS
 62
    4
 10
716.55155838144196
 20
707.16072513598533
 40
1.2083333333333581
 50
307.52351319535012
 51
232.47648679666085
  0
ARC
  8
_0-1_線色１__水色__
  6
CONTINUOUS
 62
    4
 10
719.4954786701237
 20
707.16072513578069
 40
1.2083333333333581
 50
307.52351319535012
 51
232.47648679666085
  0
ARC
  8
_0-1_線色１__水色__
  6
CONTINUOUS
 62
    4
 10
718.02351852565039
 20
705.24405846918057
 40
1.2083333333333177
 50
127.52351319811918
 51
52.476486793893116
  0
ARC
  8
_0-1_線色１__水色__
  6
CONTINUOUS
 62
    4
 10
722.43939895880885
 20
707.16072513557378
 40
1.2083333333333581
 50
307.52351319535012
 51
232.47648679666085
  0
ARC
  8
_0-1_線色１__水色__
  6
CONTINUOUS
 62
    4
 10
720.96743881433213
 20
705.24405846897594
 40
1.2083333333333177
 50
127.52351319811918
 51
52.476486793893116
  0
ARC
  8
_0-1_線色１__水色__
  6
CONTINUOUS
 62
    4
 10
723.91135910301614
 20
705.24405846876903
 40
1.2083333333333177
 50
127.52351319811918
 51
52.476486793893116
  0
ARC
  8
_0-1_線色１__水色__
  6
CONTINUOUS
 62
    4
 10
707.7197975154138
 20
707.16072513536915
 40
1.2083333333333581
 50
307.52351319535012
 51
232.47648679666085
  0
ARC
  8
_0-1_線色１__水色__
  6
CONTINUOUS
 62
    4
 10
710.66371780409554
 20
707.16072513516451
 40
1.2083333333333581
 50
307.52351319535012
 51
232.47648679666085
  0
ARC
  8
_0-1_線色１__水色__
  6
CONTINUOUS
 62
    4
 10
709.19175765962223
 20
705.24405846856439
 40
1.2083333333333177
 50
127.52351319811918
 51
52.476486793893116
  0
ARC
  8
_0-1_線色１__水色__
  6
CONTINUOUS
 62
    4
 10
713.60763809278069
 20
707.1607251349576
 40
1.2083333333333581
 50
307.52351319535012
 51
232.47648679666085
  0
ARC
  8
_0-1_線色１__水色__
  6
CONTINUOUS
 62
    4
 10
712.13567794830396
 20
705.24405846835975
 40
1.2083333333333177
 50
127.52351319811918
 51
52.476486793893116
  0
ARC
  8
_0-1_線色１__水色__
  6
CONTINUOUS
 62
    4
 10
715.07959823698798
 20
705.24405846815284
 40
1.2083333333333177
 50
127.52351319811918
 51
52.476486793893116
  0
ARC
  8
_0-1_線色１__水色__
  6
CONTINUOUS
 62
    4
 10
698.88803664938564
 20
707.16072513475297
 40
1.2083333333333581
 50
307.52351319535012
 51
232.47648679666085
  0
ARC
  8
_0-1_線色１__水色__
  6
CONTINUOUS
 62
    4
 10
701.83195693806738
 20
707.16072513454833
 40
1.2083333333333581
 50
307.52351319535012
 51
232.47648679666085
  0
ARC
  8
_0-1_線色１__水色__
  6
CONTINUOUS
 62
    4
 10
700.35999679359406
 20
705.24405846794821
 40
1.2083333333333177
 50
127.52351319811918
 51
52.476486793893116
  0
ARC
  8
_0-1_線色１__水色__
  6
CONTINUOUS
 62
    4
 10
704.77587722675253
 20
707.16072513434142
 40
1.2083333333333581
 50
307.52351319535012
 51
232.47648679666085
  0
ARC
  8
_0-1_線色１__水色__
  6
CONTINUOUS
 62
    4
 10
703.3039170822758
 20
705.24405846774357
 40
1.2083333333333177
 50
127.52351319811918
 51
52.476486793893116
  0
ARC
  8
_0-1_線色１__水色__
  6
CONTINUOUS
 62
    4
 10
706.24783737095981
 20
705.24405846753666
 40
1.2083333333333177
 50
127.52351319811918
 51
52.476486793893116
  0
ARC
  8
_0-1_線色１__水色__
  6
CONTINUOUS
 62
    4
 10
690.05627578335748
 20
707.16072513413678
 40
1.2083333333333581
 50
307.52351319535012
 51
232.47648679666085
  0
ARC
  8
_0-1_線色１__水色__
  6
CONTINUOUS
 62
    4
 10
693.00019607203922
 20
707.16072513393215
 40
1.2083333333333581
 50
307.52351319535012
 51
232.47648679666085
  0
ARC
  8
_0-1_線色１__水色__
  6
CONTINUOUS
 62
    4
 10
691.5282359275659
 20
705.24405846733202
 40
1.2083333333333177
 50
127.52351319811918
 51
52.476486793893116
  0
ARC
  8
_0-1_線色１__水色__
  6
CONTINUOUS
 62
    4
 10
695.94411636072437
 20
707.16072513372524
 40
1.2083333333333581
 50
307.52351319535012
 51
232.47648679666085
  0
ARC
  8
_0-1_線色１__水色__
  6
CONTINUOUS
 62
    4
 10
694.47215621624764
 20
705.24405846712739
 40
1.2083333333333177
 50
127.52351319811918
 51
52.476486793893116
  0
ARC
  8
_0-1_線色１__水色__
  6
CONTINUOUS
 62
    4
 10
697.41607650493165
 20
705.24405846692048
 40
1.2083333333333177
 50
127.52351319811918
 51
52.476486793893116
  0
ARC
  8
_0-1_線色１__水色__
  6
CONTINUOUS
 62
    4
 10
681.22451491732932
 20
707.1607251335206
 40
1.2083333333333581
 50
307.52351319535012
 51
232.47648679666085
  0
ARC
  8
_0-1_線色１__水色__
  6
CONTINUOUS
 62
    4
 10
684.16843520601105
 20
707.16072513331596
 40
1.2083333333333581
 50
307.52351319535012
 51
232.47648679666085
  0
ARC
  8
_0-1_線色１__水色__
  6
CONTINUOUS
 62
    4
 10
682.69647506153774
 20
705.24405846671584
 40
1.2083333333333177
 50
127.52351319811918
 51
52.476486793893116
  0
ARC
  8
_0-1_線色１__水色__
  6
CONTINUOUS
 62
    4
 10
687.1123554946962
 20
707.16072513310905
 40
1.2083333333333581
 50
307.52351319535012
 51
232.47648679666085
  0
ARC
  8
_0-1_線色１__水色__
  6
CONTINUOUS
 62
    4
 10
685.64039535021948
 20
705.24405846651121
 40
1.2083333333333177
 50
127.52351319811918
 51
52.476486793893116
  0
ARC
  8
_0-1_線色１__水色__
  6
CONTINUOUS
 62
    4
 10
688.58431563890349
 20
705.2440584663043
 40
1.2083333333333177
 50
127.52351319811918
 51
52.476486793893116
  0
ARC
  8
_0-1_線色１__水色__
  6
CONTINUOUS
 62
    4
 10
672.39275405130115
 20
707.16072513290442
 40
1.2083333333333581
 50
307.52351319535012
 51
232.47648679666085
  0
ARC
  8
_0-1_線色１__水色__
  6
CONTINUOUS
 62
    4
 10
675.33667433998289
 20
707.16072513269978
 40
1.2083333333333581
 50
307.52351319535012
 51
232.47648679666085
  0
ARC
  8
_0-1_線色１__水色__
  6
CONTINUOUS
 62
    4
 10
673.86471419550958
 20
705.24405846609966
 40
1.2083333333333177
 50
127.52351319811918
 51
52.476486793893116
  0
ARC
  8
_0-1_線色１__水色__
  6
CONTINUOUS
 62
    4
 10
678.28059462866804
 20
707.16072513249287
 40
1.2083333333333581
 50
307.52351319535012
 51
232.47648679666085
  0
ARC
  8
_0-1_線色１__水色__
  6
CONTINUOUS
 62
    4
 10
676.80863448419132
 20
705.24405846589502
 40
1.2083333333333177
 50
127.52351319811918
 51
52.476486793893116
  0
ARC
  8
_0-1_線色１__水色__
  6
CONTINUOUS
 62
    4
 10
679.75255477287533
 20
705.24405846568811
 40
1.2083333333333177
 50
127.52351319811918
 51
52.476486793893116
  0
ARC
  8
_0-1_線色１__水色__
  6
CONTINUOUS
 62
    4
 10
663.56099318527299
 20
707.16072513228823
 40
1.2083333333333581
 50
307.52351319535012
 51
232.47648679666085
  0
ARC
  8
_0-1_線色１__水色__
  6
CONTINUOUS
 62
    4
 10
666.50491347395473
 20
707.1607251320836
 40
1.2083333333333581
 50
307.52351319535012
 51
232.47648679666085
  0
ARC
  8
_0-1_線色１__水色__
  6
CONTINUOUS
 62
    4
 10
665.03295332948142
 20
705.24405846548348
 40
1.2083333333333177
 50
127.52351319811918
 51
52.476486793893116
  0
ARC
  8
_0-1_線色１__水色__
  6
CONTINUOUS
 62
    4
 10
669.44883376263988
 20
707.16072513187669
 40
1.2083333333333581
 50
307.52351319535012
 51
232.47648679666085
  0
ARC
  8
_0-1_線色１__水色__
  6
CONTINUOUS
 62
    4
 10
667.97687361816315
 20
705.24405846527884
 40
1.2083333333333177
 50
127.52351319811918
 51
52.476486793893116
  0
ARC
  8
_0-1_線色１__水色__
  6
CONTINUOUS
 62
    4
 10
670.92079390684717
 20
705.24405846507193
 40
1.2083333333333177
 50
127.52351319811918
 51
52.476486793893116
  0
ARC
  8
_0-1_線色１__水色__
  6
CONTINUOUS
 62
    4
 10
654.72923231924483
 20
707.16072513167205
 40
1.2083333333333581
 50
307.52351319535012
 51
232.47648679666085
  0
ARC
  8
_0-1_線色１__水色__
  6
CONTINUOUS
 62
    4
 10
657.67315260792657
 20
707.16072513146742
 40
1.2083333333333581
 50
307.52351319535012
 51
232.47648679666085
  0
ARC
  8
_0-1_線色１__水色__
  6
CONTINUOUS
 62
    4
 10
656.20119246345325
 20
705.24405846486729
 40
1.2083333333333177
 50
127.52351319811918
 51
52.476486793893116
  0
ARC
  8
_0-1_線色１__水色__
  6
CONTINUOUS
 62
    4
 10
660.61707289661172
 20
707.16072513126051
 40
1.2083333333333581
 50
307.52351319535012
 51
232.47648679666085
  0
ARC
  8
_0-1_線色１__水色__
  6
CONTINUOUS
 62
    4
 10
659.14511275213499
 20
705.24405846466266
 40
1.2083333333333177
 50
127.52351319811918
 51
52.476486793893116
  0
ARC
  8
_0-1_線色１__水色__
  6
CONTINUOUS
 62
    4
 10
662.089033040819
 20
705.24405846445575
 40
1.2083333333333177
 50
127.52351319811918
 51
52.476486793893116
  0
ARC
  8
_0-1_線色１__水色__
  6
CONTINUOUS
 62
    4
 10
645.89747145321667
 20
707.16072513105587
 40
1.2083333333333581
 50
307.52351319535012
 51
232.47648679666085
  0
ARC
  8
_0-1_線色１__水色__
  6
CONTINUOUS
 62
    4
 10
648.84139174189841
 20
707.16072513085123
 40
1.2083333333333581
 50
307.52351319535012
 51
232.47648679666085
  0
ARC
  8
_0-1_線色１__水色__
  6
CONTINUOUS
 62
    4
 10
647.36943159742509
 20
705.24405846425111
 40
1.2083333333333177
 50
127.52351319811918
 51
52.476486793893116
  0
ARC
  8
_0-1_線色１__水色__
  6
CONTINUOUS
 62
    4
 10
651.78531203058355
 20
707.16072513064432
 40
1.2083333333333581
 50
307.52351319535012
 51
232.47648679666085
  0
ARC
  8
_0-1_線色１__水色__
  6
CONTINUOUS
 62
    4
 10
650.31335188610683
 20
705.24405846404647
 40
1.2083333333333177
 50
127.52351319811918
 51
52.476486793893116
  0
ARC
  8
_0-1_線色１__水色__
  6
CONTINUOUS
 62
    4
 10
653.25727217479084
 20
705.24405846383956
 40
1.2083333333333177
 50
127.52351319811918
 51
52.476486793893116
  0
ARC
  8
_0-1_線色１__水色__
  6
CONTINUOUS
 62
    4
 10
887.29893512465878
 20
707.16072514748589
 40
1.2083333333333581
 50
307.52351319535012
 51
232.47648679666085
  0
LINE
  8
_0-8_笠木他
  6
CONTINUOUS
 62
    7
 10
992.9991913557285
 20
598.06739180859381
 11
992.9991913557285
 21
516.20544471557082
  0
LINE
  8
_0-8_笠木他
  6
CONTINUOUS
 62
    7
 10
1106.9991913557294
 20
598.06739180859381
 11
1106.9991913557294
 21
516.20544471557082
  0
ARC
  8
_0-8_笠木他
  6
CONTINUOUS
 62
    7
 10
1021.4991913557276
 20
554.3152141935127
 40
47.587861158723435
 50
233.20939984297195
 51
306.79060015702805
  0
ARC
  8
_0-8_笠木他
  6
CONTINUOUS
 62
    7
 10
1021.4991913557276
 20
478.09567523762666
 40
47.587861158723435
 50
53.209399842971948
 51
126.79060015702807
  0
ARC
  8
_0-8_笠木他
  6
CONTINUOUS
 62
    7
 10
1078.4991913557303
 20
554.3152141935127
 40
47.587861158723435
 50
233.20939984297195
 51
306.79060015702811
  0
LINE
  8
_0-8_笠木他
  6
CONTINUOUS
 62
    7
 10
999.99919135572668
 20
598.06739180859381
 11
999.99919135572668
 21
520.54982143869779
  0
LINE
  8
_0-8_笠木他
  6
CONTINUOUS
 62
    7
 10
1099.9991913557267
 20
598.06739180859381
 11
1099.9991913557267
 21
511.86106799244158
  0
LINE
  8
_0-6_鋼板__アングル
  6
CONTINUOUS
 62
    4
 10
1248.8936512119915
 20
712.50239181085021
 11
1235.8936512119897
 21
712.50239181085021
  0
LINE
  8
_0-6_鋼板__アングル
  6
CONTINUOUS
 62
    2
 10
1235.8936512119897
 20
712.50239181085021
 11
1239.1436897709298
 21
709.59703289040476
  0
LINE
  8
_0-6_鋼板__アングル
  6
CONTINUOUS
 62
    2
 10
1238.3439289699561
 20
708.70239181084912
 11
1239.1436897709298
 21
709.59703289040476
  0
LINE
  8
_0-6_鋼板__アングル
  6
CONTINUOUS
 62
    2
 10
1235.4354758374427
 20
711.30239181084903
 11
1238.3439289699561
 21
708.70239181084912
  0
LINE
  8
_0-6_鋼板__アングル
  6
CONTINUOUS
 62
    2
 10
1248.8936512119915
 20
712.50239181085021
 11
1245.6436126530559
 21
709.59703289040476
  0
LINE
  8
_0-6_鋼板__アングル
  6
CONTINUOUS
 62
    2
 10
1246.443373454025
 20
708.70239181084912
 11
1245.6436126530559
 21
709.59703289040476
  0
LINE
  8
_0-6_鋼板__アングル
  6
CONTINUOUS
 62
    2
 10
1249.3518265865384
 20
711.30239181084903
 11
1246.443373454025
 21
708.70239181084912
  0
LINE
  8
_0-6_鋼板__アングル
  6
CONTINUOUS
 62
    4
 10
1239.1436512119924
 20
709.5969897569978
 11
1245.6436126530559
 21
709.5969897569978
  0
LINE
  8
_0-6_鋼板__アングル
  6
CONTINUOUS
 62
    4
 10
1238.3439289699561
 20
708.70239181084912
 11
1246.443373454025
 21
708.70239181084912
  0
LINE
  8
_0-6_鋼板__アングル
  6
CONTINUOUS
 62
    2
 10
1262.3776852177832
 20
711.30239181084903
 11
1262.3776852177832
 21
710.10239181085012
  0
LINE
  8
ADD_LINE
  6
DOT
 62
    4
 10
1242.3936512119906
 20
697.65524414620018
 11
1242.3936512119906
 21
731.83960033626249
  0
LINE
  8
ADD_LINE
  6
DOT
 62
    4
 10
1215.3945696804828
 20
708.70239181084912
 11
1215.3945696804828
 21
712.50239181085021
  0
LINE
  8
ADD_LINE
  6
DOT
 62
    4
 10
1216.5945696804818
 20
710.51004875844114
 11
1213.3851191023984
 21
710.51004875844114
  0
LINE
  8
_0-6_鋼板__アングル
  6
CONTINUOUS
 62
    2
 10
1249.3518265865384
 20
711.30239181084903
 11
1265.2356682148854
 21
711.30239181084903
  0
LINE
  8
_0-6_鋼板__アングル
  6
CONTINUOUS
 62
    2
 10
1268.1927327434994
 20
710.51004875844114
 11
1265.2356682148854
 21
711.30239181084903
  0
LINE
  8
_0-6_鋼板__アングル
  6
CONTINUOUS
 62
    2
 10
1248.8936512119915
 20
712.50239181085021
 11
1265.3936512119924
 21
712.50239181085021
  0
LINE
  8
_0-6_鋼板__アングル
  6
CONTINUOUS
 62
    2
 10
1265.3936512119924
 20
712.50239181085021
 11
1268.5033155976214
 21
711.66915974998687
  0
ARC
  8
_0-6_鋼板__アングル
  6
CONTINUOUS
 62
    2
 10
1268.1927327434994
 20
710.51004875844114
 40
1.2000000000000006
 50
254.99999999999449
 51
74.9999999999945
  0
LINE
  8
_0-6_鋼板__アングル
  6
CONTINUOUS
 62
    2
 10
1262.3776852177832
 20
710.10239181085012
 11
1265.077685217783
 21
710.10239181085012
  0
LINE
  8
_0-6_鋼板__アングル
  6
CONTINUOUS
 62
    2
 10
1265.077685217783
 20
710.10239181085012
 11
1267.8821498893774
 21
709.35093776689314
  0
LINE
  8
_0-6_鋼板__アングル
  6
CONTINUOUS
 62
    2
 10
1216.5945696804818
 20
710.51004875844114
 11
1219.5516342090957
 21
711.30239181084903
  0
LINE
  8
_0-6_鋼板__アングル
  6
CONTINUOUS
 62
    2
 10
1235.4354758374427
 20
711.30239181084903
 11
1219.5516342090957
 21
711.30239181084903
  0
LINE
  8
_0-6_鋼板__アングル
  6
CONTINUOUS
 62
    2
 10
1235.8936512119897
 20
712.50239181085021
 11
1219.3936512119888
 21
712.50239181085021
  0
LINE
  8
_0-6_鋼板__アングル
  6
CONTINUOUS
 62
    2
 10
1219.3936512119888
 20
712.50239181085021
 11
1216.2839868263598
 21
711.66915974998687
  0
ARC
  8
_0-6_鋼板__アングル
  6
CONTINUOUS
 62
    2
 10
1216.5945696804818
 20
710.51004875844114
 40
1.2000000000000002
 50
105.00000000000549
 51
285.00000000000546
  0
LINE
  8
_0-6_鋼板__アングル
  6
CONTINUOUS
 62
    2
 10
1219.7096172062027
 20
710.10239181085012
 11
1216.9051525346038
 21
709.35093776689314
  0
LINE
  8
_0-6_鋼板__アングル
  6
CONTINUOUS
 62
    2
 10
1222.4096172062025
 20
710.10239181085012
 11
1219.7096172062027
 21
710.10239181085012
  0
LINE
  8
_0-6_鋼板__アングル
  6
CONTINUOUS
 62
    2
 10
1222.4096172062025
 20
711.30239181084903
 11
1222.4096172062025
 21
710.10239181085012
  0
LINE
  8
_0-2_線色２__白__
  6
CONTINUOUS
 62
    7
 10
1158.0052629818044
 20
678.06913741037874
 11
1215.9945696804823
 21
711.54927924298022
  0
LINE
  8
_0-4_線色４__黄__
  6
CONTINUOUS
 62
    2
 10
1218.7353887240522
 20
717.50239181085021
 11
1214.2014590062615
 21
716.28752900442691
  0
LINE
  8
_0-4_線色４__黄__
  6
CONTINUOUS
 62
    2
 10
1156.2677180683147
 20
682.83946807874486
 11
1214.2014590062615
 21
716.28752900442691
  0
LINE
  8
_0-2_線色２__白__
  6
CONTINUOUS
 62
    7
 10
1269.7974108231381
 20
716.49878888143235
 11
1283.3011666653681
 21
708.70239181084912
  0
LINE
  8
_0-2_線色２__白__
  6
CONTINUOUS
 62
    7
 10
1235.4803966536008
 20
722.50239181085021
 11
1235.4621778660783
 21
722.63329675752971
  0
LINE
  8
_0-2_線色２__白__
  6
CONTINUOUS
 62
    7
 10
1235.4621778660783
 20
722.63329675752971
 11
1235.4291110864176
 21
722.85837069254853
  0
LINE
  8
_0-2_線色２__白__
  6
CONTINUOUS
 62
    7
 10
1235.4291110864176
 20
722.85837069254853
 11
1235.3914468705523
 21
723.08171060280642
  0
LINE
  8
_0-2_線色２__白__
  6
CONTINUOUS
 62
    7
 10
1235.3914468705523
 20
723.08171060280642
 11
1235.3462754487271
 21
723.30221900427773
  0
LINE
  8
_0-2_線色２__白__
  6
CONTINUOUS
 62
    7
 10
1235.3462754487271
 20
723.30221900427773
 11
1235.2906870511958
 21
723.5187984129368
  0
LINE
  8
_0-2_線色２__白__
  6
CONTINUOUS
 62
    7
 10
1235.2906870511958
 20
723.5187984129368
 11
1235.221771908208
 21
723.73035134475572
  0
LINE
  8
_0-2_線色２__白__
  6
CONTINUOUS
 62
    7
 10
1235.221771908208
 20
723.73035134475572
 11
1235.1745482099147
 21
723.85031644774813
  0
LINE
  8
_0-2_線色２__白__
  6
CONTINUOUS
 62
    7
 10
1235.1745482099147
 20
723.85031644774813
 11
1235.1336071486492
 21
723.94243328733751
  0
LINE
  8
_0-2_線色２__白__
  6
CONTINUOUS
 62
    7
 10
1235.1336071486492
 20
723.94243328733751
 11
1235.0551919759698
 21
724.09814759035157
  0
LINE
  8
_0-2_線色２__白__
  6
CONTINUOUS
 62
    7
 10
1235.0551919759698
 20
724.09814759035157
 11
1234.9680849616414
 21
724.2501511932312
  0
LINE
  8
_0-2_線色２__白__
  6
CONTINUOUS
 62
    7
 10
1234.9680849616414
 20
724.2501511932312
 11
1234.873699972494
 21
724.3987037090335
  0
LINE
  8
_0-2_線色２__白__
  6
CONTINUOUS
 62
    7
 10
1234.873699972494
 20
724.3987037090335
 11
1234.773450875349
 21
724.54406475080418
  0
LINE
  8
_0-2_線色２__白__
  6
CONTINUOUS
 62
    7
 10
1234.773450875349
 20
724.54406475080418
 11
1234.668751537032
 21
724.68649393160035
  0
LINE
  8
_0-2_線色２__白__
  6
CONTINUOUS
 62
    7
 10
1234.668751537032
 20
724.68649393160035
 11
1234.6065439573556
 21
724.76786177880626
  0
LINE
  8
_0-2_線色２__白__
  6
CONTINUOUS
 62
    7
 10
1234.6065439573556
 20
724.76786177880626
 11
1234.5323276834176
 21
724.86254537160789
  0
LINE
  8
_0-2_線色２__白__
  6
CONTINUOUS
 62
    7
 10
1234.5323276834176
 20
724.86254537160789
 11
1234.4021027433143
 21
725.02326416546907
  0
LINE
  8
_0-2_線色２__白__
  6
CONTINUOUS
 62
    7
 10
1234.4021027433143
 20
725.02326416546907
 11
1234.2692509240931
 21
725.18113092785939
  0
LINE
  8
_0-2_線色２__白__
  6
CONTINUOUS
 62
    7
 10
1234.2692509240931
 20
725.18113092785939
 11
1234.1340527859654
 21
725.33655142132716
  0
LINE
  8
_0-2_線色２__白__
  6
CONTINUOUS
 62
    7
 10
1234.1340527859654
 20
725.33655142132716
 11
1233.9967888891431
 21
725.4899314084139
  0
LINE
  8
_0-2_線色２__白__
  6
CONTINUOUS
 62
    7
 10
1233.9967888891431
 20
725.4899314084139
 11
1233.8577397938332
 21
725.64167665166792
  0
LINE
  8
_0-2_線色２__白__
  6
CONTINUOUS
 62
    7
 10
1233.8577397938332
 20
725.64167665166792
 11
1233.7763838959233
 21
725.72909974467507
  0
LINE
  8
_0-2_線色２__白__
  6
CONTINUOUS
 62
    7
 10
1233.7763838959233
 20
725.72909974467507
 11
1233.6907488225086
 21
725.82016991907381
  0
LINE
  8
_0-2_線色２__白__
  6
CONTINUOUS
 62
    7
 10
1233.6907488225086
 20
725.82016991907381
 11
1233.5415514641988
 21
725.97587166790731
  0
LINE
  8
_0-2_線色２__白__
  6
CONTINUOUS
 62
    7
 10
1233.5415514641988
 20
725.97587166790731
 11
1233.3898012506313
 21
726.12921764630642
  0
LINE
  8
_0-2_線色２__白__
  6
CONTINUOUS
 62
    7
 10
1233.3898012506313
 20
726.12921764630642
 11
1233.2348121711254
 21
726.27940528522799
  0
LINE
  8
_0-2_線色２__白__
  6
CONTINUOUS
 62
    7
 10
1233.2348121711254
 20
726.27940528522799
 11
1233.0758982150189
 21
726.42563201562439
  0
LINE
  8
_0-2_線色２__白__
  6
CONTINUOUS
 62
    7
 10
1233.0758982150189
 20
726.42563201562439
 11
1232.9123733716403
 21
726.56709526845248
  0
LINE
  8
_0-2_線色２__白__
  6
CONTINUOUS
 62
    7
 10
1232.9123733716403
 20
726.56709526845248
 11
1232.8151459300523
 21
726.6466450757332
  0
LINE
  8
_0-2_線色２__白__
  6
CONTINUOUS
 62
    7
 10
1232.8151459300523
 20
726.6466450757332
 11
1232.7274922305094
 21
726.71537042822933
  0
LINE
  8
_0-2_線色２__白__
  6
CONTINUOUS
 62
    7
 10
1232.7274922305094
 20
726.71537042822933
 11
1232.572879130588
 21
726.82958319603017
  0
LINE
  8
_0-2_線色２__白__
  6
CONTINUOUS
 62
    7
 10
1232.572879130588
 20
726.82958319603017
 11
1232.4139139874012
 21
726.93755588495947
  0
LINE
  8
_0-2_線色２__白__
  6
CONTINUOUS
 62
    7
 10
1232.4139139874012
 20
726.93755588495947
 11
1232.2506673301712
 21
727.03833111638573
  0
LINE
  8
_0-2_線色２__白__
  6
CONTINUOUS
 62
    7
 10
1232.2506673301712
 20
727.03833111638573
 11
1232.0832096881429
 21
727.13095151167295
  0
LINE
  8
_0-2_線色２__白__
  6
CONTINUOUS
 62
    7
 10
1232.0832096881429
 20
727.13095151167295
 11
1231.9116115905388
 21
727.21445969218507
  0
LINE
  8
_0-2_線色２__白__
  6
CONTINUOUS
 62
    7
 10
1231.9116115905388
 20
727.21445969218507
 11
1231.8102153293682
 21
727.25834196310529
  0
LINE
  8
_0-2_線色２__白__
  6
CONTINUOUS
 62
    7
 10
1231.8102153293682
 20
727.25834196310529
 11
1231.6963098366284
 21
727.30287067636823
  0
LINE
  8
_0-2_線色２__白__
  6
CONTINUOUS
 62
    7
 10
1231.6963098366284
 20
727.30287067636823
 11
1231.4964213787778
 21
727.37018130478305
  0
LINE
  8
_0-2_線色２__白__
  6
CONTINUOUS
 62
    7
 10
1231.4964213787778
 20
727.37018130478305
 11
1231.2927192799168
 21
727.42678485628062
  0
LINE
  8
_0-2_線色２__白__
  6
CONTINUOUS
 62
    7
 10
1231.2927192799168
 20
727.42678485628062
 11
1231.0859202031077
 21
727.47415973001011
  0
LINE
  8
_0-2_線色２__白__
  6
CONTINUOUS
 62
    7
 10
1231.0859202031077
 20
727.47415973001011
 11
1230.8767408113988
 21
727.5137843251207
  0
LINE
  8
_0-2_線色２__白__
  6
CONTINUOUS
 62
    7
 10
1230.8767408113988
 20
727.5137843251207
 11
1230.6658977678433
 21
727.54713704075698
  0
LINE
  8
_0-2_線色２__白__
  6
CONTINUOUS
 62
    7
 10
1230.6658977678433
 20
727.54713704075698
 11
1230.5431289198157
 21
727.56419040679134
  0
LINE
  8
_0-2_線色２__白__
  6
CONTINUOUS
 62
    7
 10
1230.5431289198157
 20
727.56419040679134
 11
1230.3946719497287
 21
727.5829074060573
  0
LINE
  8
_0-2_線色２__白__
  6
CONTINUOUS
 62
    7
 10
1230.3946719497287
 20
727.5829074060573
 11
1230.1383516844442
 21
727.60981416714799
  0
LINE
  8
_0-2_線色２__白__
  6
CONTINUOUS
 62
    7
 10
1230.1383516844442
 20
727.60981416714799
 11
1229.8819563558652
 21
727.62867241444724
  0
LINE
  8
_0-2_線色２__白__
  6
CONTINUOUS
 62
    7
 10
1229.8819563558652
 20
727.62867241444724
 11
1229.6259285192343
 21
727.63801850563254
  0
LINE
  8
_0-2_線色２__白__
  6
CONTINUOUS
 62
    7
 10
1229.6259285192343
 20
727.63801850563254
 11
1229.3707107297985
 21
727.63638879838595
  0
LINE
  8
_0-2_線色２__白__
  6
CONTINUOUS
 62
    7
 10
1229.3707107297985
 20
727.63638879838595
 11
1229.1167455428092
 21
727.62231965038268
  0
LINE
  8
_0-2_線色２__白__
  6
CONTINUOUS
 62
    7
 10
1229.1167455428092
 20
727.62231965038268
 11
1228.9701940665725
 21
727.60788304160201
  0
LINE
  8
_0-2_線色２__白__
  6
CONTINUOUS
 62
    7
 10
1228.9701940665725
 20
727.60788304160201
 11
1228.8628498750074
 21
727.59419325551676
  0
LINE
  8
_0-2_線色２__白__
  6
CONTINUOUS
 62
    7
 10
1228.8628498750074
 20
727.59419325551676
 11
1228.678399814238
 21
727.56523362427629
  0
LINE
  8
_0-2_線色２__白__
  6
CONTINUOUS
 62
    7
 10
1228.678399814238
 20
727.56523362427629
 11
1228.4944289567954
 21
727.53091814273716
  0
LINE
  8
_0-2_線色２__白__
  6
CONTINUOUS
 62
    7
 10
1228.4944289567954
 20
727.53091814273716
 11
1228.3105729209399
 21
727.49290331670977
  0
LINE
  8
_0-2_線色２__白__
  6
CONTINUOUS
 62
    7
 10
1228.3105729209399
 20
727.49290331670977
 11
1228.1264673249177
 21
727.4528456520045
  0
LINE
  8
_0-2_線色２__白__
  6
CONTINUOUS
 62
    7
 10
1228.1264673249177
 20
727.4528456520045
 11
1227.941747786989
 21
727.41240165442946
  0
LINE
  8
_0-2_線色２__白__
  6
CONTINUOUS
 62
    7
 10
1227.941747786989
 20
727.41240165442946
 11
1227.8341855614542
 21
727.38941986754185
  0
LINE
  8
_0-2_線色２__白__
  6
CONTINUOUS
 62
    7
 10
1227.8341855614542
 20
727.38941986754185
 11
1227.7120743301236
 21
727.36414614604314
  0
LINE
  8
_0-2_線色２__白__
  6
CONTINUOUS
 62
    7
 10
1227.7120743301236
 20
727.36414614604314
 11
1227.5012763065604
 21
727.32079662980937
  0
LINE
  8
_0-2_線色２__白__
  6
CONTINUOUS
 62
    7
 10
1227.5012763065604
 20
727.32079662980937
 11
1227.2915710827226
 21
727.27466347165887
  0
LINE
  8
_0-2_線色２__白__
  6
CONTINUOUS
 62
    7
 10
1227.2915710827226
 20
727.27466347165887
 11
1227.0846141334584
 21
727.22217742995667
  0
LINE
  8
_0-2_線色２__白__
  6
CONTINUOUS
 62
    7
 10
1227.0846141334584
 20
727.22217742995667
 11
1226.8820609336024
 21
727.15976926305871
  0
LINE
  8
_0-2_線色２__白__
  6
CONTINUOUS
 62
    7
 10
1226.8820609336024
 20
727.15976926305871
 11
1226.6855669580025
 21
727.08386972932317
  0
LINE
  8
_0-2_線色２__白__
  6
CONTINUOUS
 62
    7
 10
1226.6855669580025
 20
727.08386972932317
 11
1226.5750291318807
 21
727.03225978866726
  0
LINE
  8
_0-2_線色２__白__
  6
CONTINUOUS
 62
    7
 10
1226.5750291318807
 20
727.03225978866726
 11
1226.4757069007044
 21
726.97917431674227
  0
LINE
  8
_0-2_線色２__白__
  6
CONTINUOUS
 62
    7
 10
1226.4757069007044
 20
726.97917431674227
 11
1226.3102829855131
 21
726.87588803564381
  0
LINE
  8
_0-2_線色２__白__
  6
CONTINUOUS
 62
    7
 10
1226.3102829855131
 20
726.87588803564381
 11
1226.1522314141519
 21
726.75933840391167
  0
LINE
  8
_0-2_線色２__白__
  6
CONTINUOUS
 62
    7
 10
1226.1522314141519
 20
726.75933840391167
 11
1226.0015563677359
 21
726.63141173059898
  0
LINE
  8
_0-2_線色２__白__
  6
CONTINUOUS
 62
    7
 10
1226.0015563677359
 20
726.63141173059898
 11
1225.8582620273717
 21
726.49399432475207
  0
LINE
  8
_0-2_線色２__白__
  6
CONTINUOUS
 62
    7
 10
1225.8582620273717
 20
726.49399432475207
 11
1225.7223525741654
 21
726.34897249542178
  0
LINE
  8
_0-2_線色２__白__
  6
CONTINUOUS
 62
    7
 10
1225.7223525741654
 20
726.34897249542178
 11
1225.6469104941777
 21
726.26211879142488
  0
LINE
  8
_0-2_線色２__白__
  6
CONTINUOUS
 62
    7
 10
1225.6469104941777
 20
726.26211879142488
 11
1225.5626154698064
 21
726.15955140343317
  0
LINE
  8
_0-2_線色２__白__
  6
CONTINUOUS
 62
    7
 10
1225.5626154698064
 20
726.15955140343317
 11
1225.4244436105398
 21
725.978266393696
  0
LINE
  8
_0-2_線色２__白__
  6
CONTINUOUS
 62
    7
 10
1225.4244436105398
 20
725.978266393696
 11
1225.2943333435212
 21
725.79204171907691
  0
LINE
  8
_0-2_線色２__白__
  6
CONTINUOUS
 62
    7
 10
1225.2943333435212
 20
725.79204171907691
 11
1225.1711134415325
 21
725.60167565798679
  0
LINE
  8
_0-2_線色２__白__
  6
CONTINUOUS
 62
    7
 10
1225.1711134415325
 20
725.60167565798679
 11
1225.0536126773648
 21
725.40796648884339
  0
LINE
  8
_0-2_線色２__白__
  6
CONTINUOUS
 62
    7
 10
1225.0536126773648
 20
725.40796648884339
 11
1224.9406598237954
 21
725.21171249005988
  0
LINE
  8
_0-2_線色２__白__
  6
CONTINUOUS
 62
    7
 10
1224.9406598237954
 20
725.21171249005988
 11
1224.8767694969354
 21
725.09703369303111
  0
LINE
  8
_0-2_線色２__白__
  6
CONTINUOUS
 62
    7
 10
1224.8767694969354
 20
725.09703369303111
 11
1224.8095021294318
 21
724.97396710089674
  0
LINE
  8
_0-2_線色２__白__
  6
CONTINUOUS
 62
    7
 10
1224.8095021294318
 20
724.97396710089674
 11
1224.6955208882207
 21
724.76076034452831
  0
LINE
  8
_0-2_線色２__白__
  6
CONTINUOUS
 62
    7
 10
1224.6955208882207
 20
724.76076034452831
 11
1224.5834063398559
 21
724.54646334498989
  0
LINE
  8
_0-2_線色２__白__
  6
CONTINUOUS
 62
    7
 10
1224.5834063398559
 20
724.54646334498989
 11
1224.4723897306119
 21
724.3313140839166
  0
LINE
  8
_0-2_線色２__白__
  6
CONTINUOUS
 62
    7
 10
1224.4723897306119
 20
724.3313140839166
 11
1224.3617023067497
 21
724.11555054293672
  0
LINE
  8
_0-2_線色２__白__
  6
CONTINUOUS
 62
    7
 10
1224.3617023067497
 20
724.11555054293672
 11
1224.2505753145531
 21
723.89941070368081
  0
LINE
  8
_0-2_線色２__白__
  6
CONTINUOUS
 62
    7
 10
1224.2505753145531
 20
723.89941070368081
 11
1224.1856173199255
 21
723.77397095417905
  0
LINE
  8
_0-2_線色２__白__
  6
CONTINUOUS
 62
    7
 10
1224.1856173199255
 20
723.77397095417905
 11
1224.097203865748
 21
723.60514277117204
  0
LINE
  8
_0-2_線色２__白__
  6
CONTINUOUS
 62
    7
 10
1224.097203865748
 20
723.60514277117204
 11
1223.9406990498162
 21
723.31574700528449
  0
LINE
  8
_0-2_線色２__白__
  6
CONTINUOUS
 62
    7
 10
1223.9406990498162
 20
723.31574700528449
 11
1223.7764774565892
 21
723.03103882903429
  0
LINE
  8
_0-2_線色２__白__
  6
CONTINUOUS
 62
    7
 10
1223.7764774565892
 20
723.03103882903429
 11
1223.6015534692058
 21
722.75398540101719
  0
LINE
  8
_0-2_線色２__白__
  6
CONTINUOUS
 62
    7
 10
1223.6015534692058
 20
722.75398540101719
 11
1223.4129414708048
 21
722.48755387982897
  0
LINE
  8
_0-2_線色２__白__
  6
CONTINUOUS
 62
    7
 10
1223.4129414708048
 20
722.48755387982897
 11
1223.2076558445294
 21
722.2347114240722
  0
LINE
  8
_0-2_線色２__白__
  6
CONTINUOUS
 62
    7
 10
1223.2076558445294
 20
722.2347114240722
 11
1223.0797738367016
 21
722.09545852429187
  0
LINE
  8
_0-2_線色２__白__
  6
CONTINUOUS
 62
    7
 10
1223.0797738367016
 20
722.09545852429187
 11
1223.0335586644003
 21
722.04835351838142
  0
LINE
  8
_0-2_線色２__白__
  6
CONTINUOUS
 62
    7
 10
1223.0335586644003
 20
722.04835351838142
 11
1222.9518594028593
 21
721.96900842334685
  0
LINE
  8
_0-2_線色２__白__
  6
CONTINUOUS
 62
    7
 10
1222.9518594028593
 20
721.96900842334685
 11
1222.8676570105279
 21
721.89220831390344
  0
LINE
  8
_0-2_線色２__白__
  6
CONTINUOUS
 62
    7
 10
1222.8676570105279
 20
721.89220831390344
 11
1222.7810110350345
 21
721.81815941057835
  0
LINE
  8
_0-2_線色２__白__
  6
CONTINUOUS
 62
    7
 10
1222.7810110350345
 20
721.81815941057835
 11
1222.6919810239986
 21
721.74706793388964
  0
LINE
  8
_0-2_線色２__白__
  6
CONTINUOUS
 62
    7
 10
1222.6919810239986
 20
721.74706793388964
 11
1222.6006265250442
 21
721.67914010435993
  0
LINE
  8
_0-2_線色２__白__
  6
CONTINUOUS
 62
    7
 10
1222.6006265250442
 20
721.67914010435993
 11
1222.5465993001524
 21
721.64127280796833
  0
LINE
  8
_0-2_線色２__白__
  6
CONTINUOUS
 62
    7
 10
1222.5465993001524
 20
721.64127280796833
 11
1222.4569978890611
 21
721.58198011759055
  0
LINE
  8
_0-2_線色２__白__
  6
CONTINUOUS
 62
    7
 10
1222.4569978890611
 20
721.58198011759055
 11
1222.2988064448907
 21
721.48556685339486
  0
LINE
  8
_0-2_線色２__白__
  6
CONTINUOUS
 62
    7
 10
1222.2988064448907
 20
721.48556685339486
 11
1222.1373951578596
 21
721.39423844432599
  0
LINE
  8
_0-2_線色２__白__
  6
CONTINUOUS
 62
    7
 10
1222.1373951578596
 20
721.39423844432599
 11
1221.9744752095664
 21
721.30534773587328
  0
LINE
  8
_0-2_線色２__白__
  6
CONTINUOUS
 62
    7
 10
1221.9744752095664
 20
721.30534773587328
 11
1221.8117577816145
 21
721.21624757353743
  0
LINE
  8
_0-2_線色２__白__
  6
CONTINUOUS
 62
    7
 10
1221.8117577816145
 20
721.21624757353743
 11
1221.6509540556024
 21
721.12429080281231
  0
LINE
  8
_0-2_線色２__白__
  6
CONTINUOUS
 62
    7
 10
1221.6509540556024
 20
721.12429080281231
 11
1221.5592390472773
 21
721.06860386130052
  0
LINE
  8
_0-2_線色２__白__
  6
CONTINUOUS
 62
    7
 10
1221.5592390472773
 20
721.06860386130052
 11
1221.4668280548756
 21
721.00923909143035
  0
LINE
  8
_0-2_線色２__白__
  6
CONTINUOUS
 62
    7
 10
1221.4668280548756
 20
721.00923909143035
 11
1221.3108850527249
 21
720.90173732966036
  0
LINE
  8
_0-2_線色２__白__
  6
CONTINUOUS
 62
    7
 10
1221.3108850527249
 20
720.90173732966036
 11
1221.1585625105033
 21
720.78875413969286
  0
LINE
  8
_0-2_線色２__白__
  6
CONTINUOUS
 62
    7
 10
1221.1585625105033
 20
720.78875413969286
 11
1221.0090860217667
 21
720.67149408729733
  0
LINE
  8
_0-2_線色２__白__
  6
CONTINUOUS
 62
    7
 10
1221.0090860217667
 20
720.67149408729733
 11
1220.8616811800709
 21
720.55116173825013
  0
LINE
  8
_0-2_線色２__白__
  6
CONTINUOUS
 62
    7
 10
1220.8616811800709
 20
720.55116173825013
 11
1220.7155735789763
 21
720.42896165832303
  0
LINE
  8
_0-2_線色２__白__
  6
CONTINUOUS
 62
    7
 10
1220.7155735789763
 20
720.42896165832303
 11
1220.6311204095744
 21
720.35770447923028
  0
LINE
  8
_0-2_線色２__白__
  6
CONTINUOUS
 62
    7
 10
1220.6311204095744
 20
720.35770447923028
 11
1220.525278545955
 21
720.26822389533095
  0
LINE
  8
_0-2_線色２__白__
  6
CONTINUOUS
 62
    7
 10
1220.525278545955
 20
720.26822389533095
 11
1220.3437057676445
 21
720.11314084153469
  0
LINE
  8
_0-2_線色２__白__
  6
CONTINUOUS
 62
    7
 10
1220.3437057676445
 20
720.11314084153469
 11
1220.1645311150185
 21
719.95575167329321
  0
LINE
  8
_0-2_線色２__白__
  6
CONTINUOUS
 62
    7
 10
1220.1645311150185
 20
719.95575167329321
 11
1219.9891989887954
 21
719.7945614753678
  0
LINE
  8
_0-2_線色２__白__
  6
CONTINUOUS
 62
    7
 10
1219.9891989887954
 20
719.7945614753678
 11
1219.8191537896844
 21
719.62807533251976
  0
LINE
  8
_0-2_線色２__白__
  6
CONTINUOUS
 62
    7
 10
1219.8191537896844
 20
719.62807533251976
 11
1219.6558399184084
 21
719.45479832950809
  0
LINE
  8
_0-2_線色２__白__
  6
CONTINUOUS
 62
    7
 10
1219.6558399184084
 20
719.45479832950809
 11
1219.5647713364667
 21
719.35059702129934
  0
LINE
  8
_0-2_線色２__白__
  6
CONTINUOUS
 62
    7
 10
1219.5647713364667
 20
719.35059702129934
 11
1219.5131120638314
 21
719.28850974577585
  0
LINE
  8
_0-2_線色２__白__
  6
CONTINUOUS
 62
    7
 10
1219.5131120638314
 20
719.28850974577585
 11
1219.4267869535258
 21
719.17903700593911
  0
LINE
  8
_0-2_線色２__白__
  6
CONTINUOUS
 62
    7
 10
1219.4267869535258
 20
719.17903700593911
 11
1219.344427081395
 21
719.06653574817824
  0
LINE
  8
_0-2_線色２__白__
  6
CONTINUOUS
 62
    7
 10
1219.344427081395
 20
719.06653574817824
 11
1219.2666063906506
 21
718.95105481546693
  0
LINE
  8
_0-2_線色２__白__
  6
CONTINUOUS
 62
    7
 10
1219.2666063906506
 20
718.95105481546693
 11
1219.1938988245045
 21
718.83264305077432
  0
LINE
  8
_0-2_線色２__白__
  6
CONTINUOUS
 62
    7
 10
1219.1938988245045
 20
718.83264305077432
 11
1219.1268783261728
 21
718.71134929707182
  0
LINE
  8
_0-2_線色２__白__
  6
CONTINUOUS
 62
    7
 10
1219.1268783261728
 20
718.71134929707182
 11
1219.0908384150896
 21
718.6396976392291
  0
LINE
  8
_0-2_線色２__白__
  6
CONTINUOUS
 62
    7
 10
1219.0908384150896
 20
718.6396976392291
 11
1219.0441865617311
 21
718.53822174817765
  0
LINE
  8
_0-2_線色２__白__
  6
CONTINUOUS
 62
    7
 10
1219.0441865617311
 20
718.53822174817765
 11
1218.9726998033791
 21
718.35945736912777
  0
LINE
  8
_0-2_線色２__白__
  6
CONTINUOUS
 62
    7
 10
1218.9726998033791
 20
718.35945736912777
 11
1218.9107484647582
 21
718.17663695097849
  0
LINE
  8
_0-2_線色２__白__
  6
CONTINUOUS
 62
    7
 10
1218.9107484647582
 20
718.17663695097849
 11
1218.8562505764855
 21
717.99064609179027
  0
LINE
  8
_0-2_線色２__白__
  6
CONTINUOUS
 62
    7
 10
1218.8562505764855
 20
717.99064609179027
 11
1218.8071241692012
 21
717.80237038961445
  0
LINE
  8
_0-2_線色２__白__
  6
CONTINUOUS
 62
    7
 10
1218.8071241692012
 20
717.80237038961445
 11
1218.7612872735224
 21
717.61269544251149
  0
LINE
  8
_0-2_線色２__白__
  6
CONTINUOUS
 62
    7
 10
1218.7612872735224
 20
717.61269544251149
 11
1218.7353887240522
 21
717.50239181085021
  0
LINE
  8
_0-4_線色４__黄__
  6
CONTINUOUS
 62
    2
 10
1266.7101761878655
 20
722.50239181085021
 11
1229.4832645866688
 21
722.50239181085021
  0
LINE
  8
_0-4_線色４__黄__
  6
CONTINUOUS
 62
    2
 10
1266.7101761878655
 20
722.50239181085021
 11
1271.7273387862258
 21
721.15804714432329
  0
LINE
  8
_0-4_線色４__黄__
  6
CONTINUOUS
 62
    2
 10
1271.7273387862258
 20
721.15804714432329
 11
1284.6409126275228
 21
713.70239181084912
  0
LINE
  8
_0-2_線色２__白__
  6
CONTINUOUS
 62
    7
 10
1266.0519136999289
 20
717.50239181085021
 11
1269.7974108231381
 21
716.49878888143235
  0
LINE
  8
_0-2_線色２__白__
  6
CONTINUOUS
 62
    7
 10
1269.7974108231381
 20
716.49878888143235
 11
1268.5033155976214
 21
711.66915974998687
  0
LINE
  8
_0-4_線色４__黄__
  6
CONTINUOUS
 62
    2
 10
1218.7353887240522
 20
717.50239181085021
 11
1229.4832645866688
 21
717.50239181085021
  0
LINE
  8
_0-4_線色４__黄__
  6
CONTINUOUS
 62
    2
 10
1229.4832645866688
 20
722.50239181085021
 11
1229.4832645866688
 21
717.50239181085021
  0
LINE
  8
_0-2_線色２__白__
  6
CONTINUOUS
 62
    7
 10
1229.4832645866688
 20
717.50239181085021
 11
1266.0519136999289
 21
717.50239181085021
  0
TEXT
  8
_0-a_文字
 62
    7
 10
1293.3555854401436
 20
731.20264181084963
 40
14.999999999999858
 41
1.0000000000000115
 50
0
  1
ＢＰ－Ｈ２Ｎ
  0
LINE
  8
ADD_LINE
  6
DOT
 62
    4
 10
849.99919135572782
 20
556.74840081434127
 11
849.99919135572782
 21
685.40275165754224
  0
LINE
  8
ADD_LINE
  6
DOT
 62
    4
 10
1249.9991913557267
 20
556.74840081434127
 11
1249.9991913557267
 21
685.40275165754224
  0
LINE
  8
ADD_LINE
  6
DOT
 62
    4
 10
1449.9991913557267
 20
556.74840081434127
 11
1449.9991913557267
 21
685.40275165754224
  0
LINE
  8
ADD_LINE
  6
DOT
 62
    4
 10
649.99919135572782
 20
556.74840081434127
 11
649.99919135572782
 21
685.40275165754224
  0
LINE
  8
_0-4_線色４__黄__
  6
CONTINUOUS
 62
    2
 10
1284.6409126275228
 20
713.70239181084912
 11
1467.6725471097132
 21
713.70239181084912
  0
LINE
  8
_0-2_線色２__白__
  6
CONTINUOUS
 62
    7
 10
1349.9991913557267
 20
668.70239181084912
 11
1467.6725471097132
 21
668.70239181084912
  0
LINE
  8
_0-2_線色２__白__
  6
CONTINUOUS
 62
    7
 10
1212.4033619667568
 20
703.70239181084912
 11
1467.6725471097132
 21
703.70239181084912
  0
LINE
  8
_0-2_線色２__白__
  6
CONTINUOUS
 62
    7
 10
1211.0636160046022
 20
708.70239181084912
 11
1467.6725471097132
 21
708.70239181084912
  0
LINE
  8
_0-2_線色２__白__
  6
CONTINUOUS
 62
    7
 10
749.99919135572782
 20
668.70264181084963
 11
632.32583560174021
 21
668.70264181084963
  0
LINE
  8
_0-2_線色２__白__
  6
CONTINUOUS
 62
    7
 10
889.14893698551623
 20
708.70264181084963
 11
632.32583560174021
 21
708.70264181084963
  0
LINE
  8
_0-2_線色２__白__
  6
CONTINUOUS
 62
    7
 10
887.80919102336156
 20
703.70264181084963
 11
632.32583560174021
 21
703.70264181084963
  0
LINE
  8
_0-a_文字
  6
CONTINUOUS
 62
    7
 10
1253.2288640498052
 20
712.50239181085021
 11
1268.3555854401436
 21
738.70264181084963
  0
ARC
  8
_0-1_線色１__水色__
  6
CONTINUOUS
 62
    4
 10
1455.572871402718
 20
705.24405848211586
 40
1.2083333333333179
 50
127.52351320610693
 51
52.47648680188081
  0
ARC
  8
_0-1_線色１__水色__
  6
CONTINUOUS
 62
    4
 10
1457.0448315469491
 20
707.16072514994835
 40
1.2083333333333581
 50
307.52351320333912
 51
232.47648680464988
  0
ARC
  8
_0-1_線色１__水色__
  6
CONTINUOUS
 62
    4
 10
1458.5167916913986
 20
705.24405848211586
 40
1.2083333333333179
 50
127.52351320610693
 51
52.47648680188081
  0
ARC
  8
_0-1_線色１__水色__
  6
CONTINUOUS
 62
    4
 10
1459.9887518356297
 20
707.16072514994835
 40
1.2083333333333581
 50
307.52351320333912
 51
232.47648680464988
  0
ARC
  8
_0-1_線色１__水色__
  6
CONTINUOUS
 62
    4
 10
1461.4607119800837
 20
705.24405848211586
 40
1.2083333333333179
 50
127.52351320610693
 51
52.47648680188081
  0
ARC
  8
_0-1_線色１__水色__
  6
CONTINUOUS
 62
    4
 10
1462.9326721243149
 20
707.16072514994835
 40
1.2083333333333581
 50
307.52351320333912
 51
232.47648680464988
  0
ARC
  8
_0-1_線色１__水色__
  6
CONTINUOUS
 62
    4
 10
1464.4046322687689
 20
705.24405848211586
 40
1.2083333333333179
 50
127.52351320610693
 51
52.47648680188081
  0
ARC
  8
_0-1_線色１__水色__
  6
CONTINUOUS
 62
    4
 10
1465.876592413
 20
707.16072514994835
 40
1.2083333333333581
 50
307.52351320333912
 51
232.47648680464988
  0
LINE
  8
_0-d_断熱__ハッチ
  6
CONTINUOUS
 62
    4
 10
1427.3275777337574
 20
703.70239181084685
 11
1462.3275777337574
 21
668.70239181084912
  0
LINE
  8
_0-d_断熱__ハッチ
  6
CONTINUOUS
 62
    4
 10
643.78793171290909
 20
668.70264181084735
 11
678.7879317129125
 21
703.70264181084963
  0
LINE
  8
_0-d_断熱__ハッチ
  6
CONTINUOUS
 62
    4
 10
635.36773280483771
 20
703.70264181084963
 11
670.3677328048343
 21
668.70264181084963
  0
ARC
  8
_0-1_線色１__水色__
  6
CONTINUOUS
 62
    4
 10
637.06571058749319
 20
707.16072513105587
 40
1.2083333333333581
 50
307.52351319535012
 51
232.47648679666085
  0
ARC
  8
_0-1_線色１__水色__
  6
CONTINUOUS
 62
    4
 10
640.00963087617492
 20
707.16072513085123
 40
1.2083333333333581
 50
307.52351319535012
 51
232.47648679666085
  0
ARC
  8
_0-1_線色１__水色__
  6
CONTINUOUS
 62
    4
 10
638.53767073170161
 20
705.24405846425111
 40
1.2083333333333177
 50
127.52351319811918
 51
52.476486793893116
  0
ARC
  8
_0-1_線色１__水色__
  6
CONTINUOUS
 62
    4
 10
642.95355116486007
 20
707.16072513064432
 40
1.2083333333333581
 50
307.52351319535012
 51
232.47648679666085
  0
ARC
  8
_0-1_線色１__水色__
  6
CONTINUOUS
 62
    4
 10
641.48159102038335
 20
705.24405846404647
 40
1.2083333333333177
 50
127.52351319811918
 51
52.476486793893116
  0
ARC
  8
_0-1_線色１__水色__
  6
CONTINUOUS
 62
    4
 10
644.42551130906736
 20
705.24405846383956
 40
1.2083333333333177
 50
127.52351319811918
 51
52.476486793893116
  0
ARC
  8
_0-1_線色１__水色__
  6
CONTINUOUS
 62
    4
 10
634.12179029914
 20
707.16072513064432
 40
1.2083333333333581
 50
307.52351319535012
 51
232.47648679666085
  0
ARC
  8
_0-1_線色１__水色__
  6
CONTINUOUS
 62
    4
 10
635.59375044334502
 20
705.24405846383956
 40
1.2083333333333177
 50
127.52351319811918
 51
52.476486793893116
  0
LINE
  8
_0-d_断熱__ハッチ
  6
CONTINUOUS
 62
    4
 10
632.32583560174021
 20
685.52481694713492
 11
650.50366046545491
 21
703.70264181084963
  0
LINE
  8
_0-d_断熱__ハッチ
  6
CONTINUOUS
 62
    4
 10
632.32583560174021
 20
678.46026776648728
 11
642.08346155737672
 21
668.70264181084963
  0
ARC
  8
_0-1_線色１__水色__
  6
CONTINUOUS
 62
    4
 10
632.64983015466328
 20
705.24405846404647
 40
1.2083333333333177
 50
254.44677520723127
 51
52.476486793893102
  0
ARC
  8
_0-1_線色１__水色__
  6
CONTINUOUS
 62
    4
 10
1467.3485525574495
 20
705.24405848211586
 40
1.2083333333333179
 50
127.52351320610693
 51
285.55322476036866
  0
LINE
  8
_0-d_断熱__ハッチ
  6
CONTINUOUS
 62
    4
 10
1435.7472766418311
 20
668.70239181084912
 11
1467.6725471097132
 21
700.62766227873112
  0
LINE
  8
_0-d_断熱__ハッチ
  6
CONTINUOUS
 62
    4
 10
1455.6118489812195
 20
703.70239181084685
 11
1467.6725471097132
 21
691.64169368235093
  0
LINE
  8
_0-d_断熱__ハッチ
  6
CONTINUOUS
 62
    4
 10
1464.0315478892933
 20
668.70239181084912
 11
1467.6725471097132
 21
672.34339103127127
  0
LINE
  8
_0-a_文字
  6
CONTINUOUS
 62
    7
 10
682.44762769785666
 20
686.20251681084824
 11
741.62595812101131
 21
788.70239181084912
  0
LINE
  8
ADD_LINE
  6
DOT
 62
    4
 10
1242.3936512119906
 20
629.38302714889801
 11
1242.3936512119906
 21
718.99974689151463
  0
LINE
  8
_0-7_ビス
  6
CONTINUOUS
 62
    7
 10
1248.3936512119897
 20
712.1177764262336
 11
1248.3936512119897
 21
712.50239181085021
  0
LINE
  8
_0-7_ビス
  6
DASHED3
 62
    7
 10
1243.8611193282452
 20
709.95302228002174
 11
1244.9436670481407
 21
712.50239181085021
  0
LINE
  8
_0-7_ビス
  6
CONTINUOUS
 62
    7
 10
1236.3936512119915
 20
712.1177764262336
 11
1236.3936512119915
 21
712.50239181085021
  0
LINE
  8
_0-7_ビス
  6
DASHED3
 62
    7
 10
1240.926183095736
 20
709.95302228002174
 11
1239.8436353758427
 21
712.50239181085021
  0
LINE
  8
_0-7_ビス
  6
CONTINUOUS
 62
    7
 10
1248.3936512119897
 20
712.1177764262336
 11
1236.3936512119915
 21
712.1177764262336
  0
LINE
  8
_0-7_ビス
  6
CONTINUOUS
 62
    7
 10
1248.3936512119897
 20
712.50239181085021
 11
1236.3936512119915
 21
712.50239181085021
  0
ARC
  8
_0-7_ビス
  6
DASHED3
 62
    7
 10
1242.3936512119906
 20
711.06356537828901
 40
1.8403175392666382
 50
217.11750793457031
 51
322.88247680664062
  0
LINE
  8
_0-7_ビス
  6
CONTINUOUS
 62
    7
 10
1246.4794376496172
 20
710.20356286386118
 11
1248.3936512119897
 21
712.1177764262336
  0
ARC
  8
_0-7_ビス
  6
CONTINUOUS
 62
    7
 10
1247.8936512119901
 20
708.7893493014883
 40
2
 50
135.00000000000153
 51
180.00000000000003
  0
LINE
  8
_0-7_ビス
  6
CONTINUOUS
 62
    7
 10
1238.3078647743639
 20
710.20356286386118
 11
1236.3936512119915
 21
712.1177764262336
  0
ARC
  8
_0-7_ビス
  6
CONTINUOUS
 62
    7
 10
1236.893651211991
 20
708.7893493014883
 40
2
 50
0
 51
44.999999999998501
  0
LINE
  8
_0-7_ビス
  6
CONTINUOUS
 62
    7
 10
1245.8936512119897
 20
708.5023918108493
 11
1238.8936512119915
 21
708.5023918108493
  0
LINE
  8
_0-7_ビス
  6
CONTINUOUS
 62
    7
 10
1238.8936512119915
 20
639.52311775301155
 11
1242.3936512119906
 21
637.50239181085021
  0
LINE
  8
_0-7_ビス
  6
CONTINUOUS
 62
    7
 10
1238.8936512119915
 20
708.7893493014883
 11
1238.8936512119915
 21
639.52311775301155
  0
LINE
  8
_0-7_ビス
  6
CONTINUOUS
 62
    7
 10
1245.8936512119897
 20
643.00239181084976
 11
1238.8936512119915
 21
643.00239181084976
  0
LINE
  8
_0-7_ビス
  6
CONTINUOUS
 62
    7
 10
1245.8936512119897
 20
639.52311775301382
 11
1242.3936512119906
 21
637.50239181085021
  0
LINE
  8
_0-7_ビス
  6
CONTINUOUS
 62
    7
 10
1245.8936512119897
 20
708.7893493014883
 11
1245.8936512119897
 21
639.52311775301382
  0
LINE
  8
_0-7_ビス
  6
CONTINUOUS
 62
    7
 10
1245.8936512119897
 20
697.50239181085021
 11
1238.8936512119915
 21
697.50239181085021
  0
LINE
  8
_0-7_ビス
  6
CONTINUOUS
 62
    4
 10
1238.8936512119915
 20
696.30258845145477
 11
1243.3712316539311
 21
697.50239181085021
  0
LINE
  8
_0-7_ビス
  6
CONTINUOUS
 62
    4
 10
1238.8936512119915
 20
683.99636792207843
 11
1245.8936512119897
 21
685.87207370216788
  0
LINE
  8
_0-7_ビス
  6
CONTINUOUS
 62
    4
 10
1238.8936512119915
 20
685.99636792207889
 11
1245.8936512119897
 21
687.87207370216606
  0
LINE
  8
_0-7_ビス
  6
CONTINUOUS
 62
    4
 10
1238.8936512119915
 20
687.99636792207934
 11
1245.8936512119897
 21
689.87207370216652
  0
LINE
  8
_0-7_ビス
  6
CONTINUOUS
 62
    4
 10
1238.8936512119915
 20
689.99636792207752
 11
1245.8936512119897
 21
691.87207370216697
  0
LINE
  8
_0-7_ビス
  6
CONTINUOUS
 62
    4
 10
1238.8936512119915
 20
691.99636792207798
 11
1245.8936512119897
 21
693.87207370216743
  0
LINE
  8
_0-7_ビス
  6
CONTINUOUS
 62
    4
 10
1238.8936512119915
 20
693.99636792207843
 11
1245.8936512119897
 21
695.87207370216788
  0
LINE
  8
_0-7_ビス
  6
CONTINUOUS
 62
    4
 10
1238.8936512119915
 20
671.6901473927021
 11
1245.8936512119897
 21
673.56585317278928
  0
LINE
  8
_0-7_ビス
  6
CONTINUOUS
 62
    4
 10
1238.8936512119915
 20
673.69014739270256
 11
1245.8936512119897
 21
675.56585317278973
  0
LINE
  8
_0-7_ビス
  6
CONTINUOUS
 62
    4
 10
1238.8936512119915
 20
675.69014739270074
 11
1245.8936512119897
 21
677.56585317279018
  0
LINE
  8
_0-7_ビス
  6
CONTINUOUS
 62
    4
 10
1238.8936512119915
 20
677.69014739270119
 11
1245.8936512119897
 21
679.56585317279064
  0
LINE
  8
_0-7_ビス
  6
CONTINUOUS
 62
    4
 10
1238.8936512119915
 20
679.69014739270165
 11
1245.8936512119897
 21
681.56585317278996
  0
LINE
  8
_0-7_ビス
  6
CONTINUOUS
 62
    4
 10
1238.8936512119915
 20
681.6901473927021
 11
1245.8936512119897
 21
683.56585317279041
  0
LINE
  8
_0-7_ビス
  6
CONTINUOUS
 62
    4
 10
1238.8936512119915
 20
659.3839268633235
 11
1245.8936512119897
 21
661.25963264341294
  0
LINE
  8
_0-7_ビス
  6
CONTINUOUS
 62
    4
 10
1238.8936512119915
 20
661.38392686332395
 11
1245.8936512119897
 21
663.2596326434134
  0
LINE
  8
_0-7_ビス
  6
CONTINUOUS
 62
    4
 10
1238.8936512119915
 20
663.3839268633244
 11
1245.8936512119897
 21
665.25963264341385
  0
LINE
  8
_0-7_ビス
  6
CONTINUOUS
 62
    4
 10
1238.8936512119915
 20
665.38392686332486
 11
1245.8936512119897
 21
667.25963264341431
  0
LINE
  8
_0-7_ビス
  6
CONTINUOUS
 62
    4
 10
1238.8936512119915
 20
667.38392686332531
 11
1245.8936512119897
 21
669.25963264341249
  0
LINE
  8
_0-7_ビス
  6
CONTINUOUS
 62
    4
 10
1238.8936512119915
 20
669.38392686332577
 11
1245.8936512119897
 21
671.25963264341294
  0
LINE
  8
_0-7_ビス
  6
CONTINUOUS
 62
    4
 10
1238.8936512119915
 20
647.07770633394716
 11
1245.8936512119897
 21
648.95341211403661
  0
LINE
  8
_0-7_ビス
  6
CONTINUOUS
 62
    4
 10
1238.8936512119915
 20
649.07770633394762
 11
1245.8936512119897
 21
650.95341211403706
  0
LINE
  8
_0-7_ビス
  6
CONTINUOUS
 62
    4
 10
1238.8936512119915
 20
651.07770633394807
 11
1245.8936512119897
 21
652.95341211403525
  0
LINE
  8
_0-7_ビス
  6
CONTINUOUS
 62
    4
 10
1238.8936512119915
 20
653.07770633394853
 11
1245.8936512119897
 21
654.9534121140357
  0
LINE
  8
_0-7_ビス
  6
CONTINUOUS
 62
    4
 10
1238.8936512119915
 20
655.07770633394671
 11
1245.8936512119897
 21
656.95341211403615
  0
LINE
  8
_0-7_ビス
  6
CONTINUOUS
 62
    4
 10
1238.8936512119915
 20
657.07770633394716
 11
1245.8936512119897
 21
658.95341211403661
  0
LINE
  8
_0-7_ビス
  6
CONTINUOUS
 62
    4
 10
1238.8936512119915
 20
644.77148580457083
 11
1245.8936512119897
 21
646.64719158466028
  0
LINE
  8
_0-7_ビス
  6
CONTINUOUS
 62
    4
 10
1239.7553759350819
 20
643.00239181084976
 11
1245.8936512119897
 21
644.64719158465982
  0
LINE
  8
_0-5_金属
  6
CONTINUOUS
 62
    7
 10
632.32583560174021
 20
568.70243181084902
 11
959.99919135572668
 21
568.70243181084902
  0
LINE
  8
_0-5_金属
  6
CONTINUOUS
 62
    7
 10
1467.6725471097132
 20
568.70243181084902
 11
1139.9991913557267
 21
568.70243181084902
  0
TEXT
  8
_0-a_文字
 62
    7
 10
1263.3857988381501
 20
536.20243181084902
 40
14.999999999999858
 41
1.0000000000000062
 50
0
  1
縦型ドレイン用補強鋼板 t=1.6
  0
LINE
  8
_0-a_文字
  6
CONTINUOUS
 62
    7
 10
1238.3857988381499
 20
543.70243181084902
 11
1258.3857988381499
 21
543.70243181084902
  0
LINE
  8
_0-a_文字
  6
CONTINUOUS
 62
    7
 10
1165.7930539160714
 20
669.43675427677476
 11
1238.3857988381499
 21
543.70243181084902
  0
LINE
  8
_0-5_金属
  6
CONTINUOUS
 62
    7
 10
959.99919135572668
 20
577.70243181084993
 11
959.99919135572668
 21
506.72735303479044
  0
LINE
  8
_0-5_金属
  6
CONTINUOUS
 62
    7
 10
1139.9991913557267
 20
577.70243181084993
 11
1139.9991913557267
 21
506.72735303479044
  0
LINE
  8
_0-5_金属
  6
CONTINUOUS
 62
    7
 10
869.99913135572911
 20
577.70237181085008
 11
829.99926135572764
 21
577.70237181085008
  0
LINE
  8
_0-5_金属
  6
CONTINUOUS
 62
    7
 10
829.99919054101952
 20
580.70239181084958
 11
869.99913135572911
 21
580.70239181084958
  0
ARC
  8
_0-5_金属
  6
CONTINUOUS
 62
    7
 10
888.33621135572685
 20
664.93879181084935
 40
2.9999997999999999
 50
90
 51
167.90458000000001
  0
ARC
  8
_0-5_金属
  6
CONTINUOUS
 62
    7
 10
869.99913135572911
 20
580.70246181085054
 40
2.9999997999999999
 50
270
 51
347.90458000000001
  0
LINE
  8
_0-5_金属
  6
CONTINUOUS
 62
    7
 10
869.99913135572911
 20
580.70239181084958
 11
885.40281158212565
 21
665.56741297516851
  0
LINE
  8
_0-5_金属
  6
CONTINUOUS
 62
    7
 10
888.32456135572897
 20
664.90240181084914
 11
872.9325311293303
 21
580.07384064653138
  0
ARC
  8
_0-5_金属
  6
CONTINUOUS
 62
    7
 10
811.63602145572781
 20
664.89382181085034
 40
2.9999997999999999
 50
12.095412999999999
 51
90.000000000000028
  0
ARC
  8
_0-5_金属
  6
CONTINUOUS
 62
    7
 10
829.99920145572901
 20
580.70246181085054
 40
2.9999997999999999
 50
192.09540999999999
 51
270
  0
LINE
  8
_0-5_金属
  6
CONTINUOUS
 62
    7
 10
827.06580157241092
 20
580.07384115850641
 11
811.67371145572702
 21
664.90240181084914
  0
LINE
  8
_0-5_金属
  6
CONTINUOUS
 62
    7
 10
814.56942130613129
 20
665.52244261678538
 11
829.99919054101952
 21
580.70239181084958
  0
LINE
  8
_0-5_金属
  6
CONTINUOUS
 62
    7
 10
1139.9991913557267
 20
577.70243181084993
 11
1467.6725471097132
 21
577.70243181084993
  0
ARC
  8
_0-5_金属
  6
CONTINUOUS
 62
    7
 10
1211.6592963557275
 20
664.9072918108493
 40
2.9999997999999999
 50
12.095412999999999
 51
90.000000000000028
  0
LINE
  8
_0-5_金属
  6
CONTINUOUS
 62
    7
 10
1229.9992563557259
 20
580.70230161084851
 11
1214.592696206131
 21
665.53591261678434
  0
LINE
  8
_0-5_金属
  6
CONTINUOUS
 62
    7
 10
1211.6738263557261
 20
664.90240181084914
 11
1227.0658564724079
 21
580.07375095850534
  0
ARC
  8
_0-5_金属
  6
CONTINUOUS
 62
    7
 10
1229.9992563557259
 20
580.70237161084947
 40
2.9999997999999999
 50
192.09540999999999
 51
269.63762905713986
  0
ARC
  8
_0-5_金属
  6
CONTINUOUS
 62
    7
 10
1288.3511014557268
 20
664.8983818108502
 40
2.9999997999999999
 50
90
 51
167.90458000000001
  0
LINE
  8
_0-5_金属
  6
CONTINUOUS
 62
    7
 10
1229.9992563557259
 20
580.70230161084851
 11
1269.9990650600182
 21
580.70230161084851
  0
LINE
  8
_0-5_金属
  6
CONTINUOUS
 62
    7
 10
1269.9990650600182
 20
580.70230161084851
 11
1285.4177016821257
 21
665.52700297516708
  0
LINE
  8
_0-5_金属
  6
CONTINUOUS
 62
    7
 10
1288.3245114557246
 20
664.90240181084914
 11
1272.9324812293305
 21
580.07384064654275
  0
ARC
  8
_0-5_金属
  6
CONTINUOUS
 62
    7
 10
1269.9990814557248
 20
580.70246181085054
 40
2.9999997999999999
 50
270
 51
347.90458000020737
  0
ARC
  8
_0-5_金属
  6
CONTINUOUS
 62
    7
 10
1411.6591164557292
 20
664.9072918108493
 40
2.9999997999999999
 50
12.095412999999999
 51
90.000000000000028
  0
LINE
  8
_0-5_金属
  6
CONTINUOUS
 62
    7
 10
1288.3245114557246
 20
664.90240181084914
 11
1411.6736464557277
 21
664.90240181084914
  0
LINE
  8
_0-5_金属
  6
CONTINUOUS
 62
    7
 10
1429.9990764557276
 20
580.70230161084851
 11
1414.5925163061281
 21
665.53591261678434
  0
LINE
  8
_0-5_金属
  6
CONTINUOUS
 62
    7
 10
1411.6736464557277
 20
664.90240181084914
 11
1427.0656765724095
 21
580.07375095850534
  0
ARC
  8
_0-5_金属
  6
CONTINUOUS
 62
    7
 10
1429.9992563557259
 20
580.70237161084947
 40
2.9999997999999999
 50
192.09540999999999
 51
269.63762905713986
  0
ARC
  8
_0-5_金属
  6
CONTINUOUS
 62
    7
 10
688.35110145572685
 20
664.8983818108502
 40
2.9999997999999999
 50
90
 51
167.90458000000001
  0
LINE
  8
_0-5_金属
  6
CONTINUOUS
 62
    7
 10
669.99906506001935
 20
580.70230161084851
 11
685.41770168212565
 21
665.52700297516708
  0
ARC
  8
_0-5_金属
  6
CONTINUOUS
 62
    7
 10
669.9990814557259
 20
580.70246181085054
 40
2.9999997999999999
 50
270
 51
347.90458000020737
  0
LINE
  8
_0-5_金属
  6
CONTINUOUS
 62
    7
 10
811.67371145572702
 20
664.90240181084914
 11
688.32451145572577
 21
664.90240181084914
  0
LINE
  8
_0-5_金属
  6
CONTINUOUS
 62
    7
 10
688.32451145572577
 20
664.90240181084914
 11
672.93248122933164
 21
580.07384064654275
  0
LINE
  8
_0-5_金属
  6
CONTINUOUS
 62
    7
 10
632.32583560174021
 20
577.70243181084993
 11
959.99919135572668
 21
577.70243181084993
  0
LINE
  8
_0-5_金属
  6
CONTINUOUS
 62
    7
 10
632.32583560174021
 20
580.70230161084851
 11
669.99906506001935
 21
580.70230161084851
  0
LINE
  8
_0-5_金属
  6
CONTINUOUS
 62
    7
 10
1429.9992563557259
 20
580.70230161084851
 11
1467.6725471097132
 21
580.70230161084851
  0
LINE
  8
_0-5_金属
  6
CONTINUOUS
 62
    7
 10
959.99919135572668
 20
664.90240181084914
 11
888.32456135572897
 21
664.90240181084914
  0
LINE
  8
_0-5_金属
  6
CONTINUOUS
 62
    7
 10
1139.9991913557267
 20
664.90240181084914
 11
1211.6738263557261
 21
664.90240181084914
  0
LINE
  8
_0-5_金属
  6
CONTINUOUS
 62
    7
 10
1139.9991913557267
 20
664.90240181084914
 11
1139.9991913557267
 21
667.90242181084864
  0
LINE
  8
_0-5_金属
  6
CONTINUOUS
 62
    7
 10
959.99919135572668
 20
664.90240181084914
 11
959.99919135572668
 21
667.90242181084864
  0
ARC
  8
_0-5_金属
  6
CONTINUOUS
 62
    7
 10
836.0491513557281
 20
594.75234181085057
 40
1.0499997999999999
 50
90
 51
270
  0
ARC
  8
_0-5_金属
  6
CONTINUOUS
 62
    7
 10
836.0491513557281
 20
594.75234181085057
 40
0.2499999
 50
90
 51
270
  0
ARC
  8
_0-5_金属
  6
CONTINUOUS
 62
    7
 10
863.94923135572753
 20
594.75234181085057
 40
1.0499997999999999
 50
270
 51
90
  0
ARC
  8
_0-5_金属
  6
CONTINUOUS
 62
    7
 10
863.94923135572753
 20
594.75234181085057
 40
0.2499999
 50
270
 51
90
  0
ARC
  8
_0-5_金属
  6
CONTINUOUS
 62
    7
 10
848.39924135572801
 20
596.60239181084876
 40
0.7999998999999997
 50
270
 51
0
  0
ARC
  8
_0-5_金属
  6
CONTINUOUS
 62
    7
 10
848.39924135572801
 20
596.60239181084876
 40
1.5999999
 50
270
 51
0
  0
ARC
  8
_0-5_金属
  6
CONTINUOUS
 62
    7
 10
851.59914135572762
 20
596.60239181084876
 40
0.7999998999999997
 50
180
 51
270
  0
ARC
  8
_0-5_金属
  6
CONTINUOUS
 62
    7
 10
851.59914135572762
 20
596.60239181084876
 40
1.5999999
 50
180
 51
270
  0
ARC
  8
_0-5_金属
  6
CONTINUOUS
 62
    7
 10
848.39924135572801
 20
666.30241181084898
 40
0.7999998999999997
 50
0
 51
90
  0
ARC
  8
_0-5_金属
  6
CONTINUOUS
 62
    7
 10
848.39924135572801
 20
666.30241181084898
 40
1.5999999
 50
0
 51
90
  0
ARC
  8
_0-5_金属
  6
CONTINUOUS
 62
    7
 10
851.59914135572762
 20
667.10239181085058
 40
0.7999998999999997
 50
90
 51
180
  0
ARC
  8
_0-5_金属
  6
CONTINUOUS
 62
    7
 10
851.59914135572762
 20
667.10239181085058
 40
1.5999999
 50
90
 51
180
  0
LINE
  8
_0-5_金属
  6
CONTINUOUS
 62
    7
 10
849.99919135572782
 20
663.8512718108484
 11
849.99919135572782
 21
653.41043181084956
  0
LINE
  8
_0-5_金属
  6
CONTINUOUS
 62
    7
 10
848.4341313557286
 20
654.97542181084896
 11
849.99919135572782
 21
653.41043181084956
  0
LINE
  8
_0-5_金属
  6
CONTINUOUS
 62
    7
 10
849.99919135572782
 20
663.8512718108484
 11
848.4341313557286
 21
654.97542181084896
  0
LINE
  8
_0-5_金属
  6
CONTINUOUS
 62
    7
 10
849.99919135572782
 20
653.41043181084956
 11
849.99919135572782
 21
596.60239181084876
  0
LINE
  8
_0-5_金属
  6
CONTINUOUS
 62
    7
 10
847.57397135572774
 20
654.70423181085039
 11
849.19922135572847
 21
653.07898181084852
  0
LINE
  8
_0-5_金属
  6
CONTINUOUS
 62
    7
 10
849.19922135572847
 20
653.07898181084852
 11
849.19922135572847
 21
596.60239181084876
  0
LINE
  8
_0-5_金属
  6
CONTINUOUS
 62
    7
 10
849.19922135572847
 20
663.92142181084978
 11
847.57397135572774
 21
654.70423181085039
  0
LINE
  8
_0-5_金属
  6
CONTINUOUS
 62
    7
 10
849.99919135572782
 20
667.10239181085058
 11
849.99919135572782
 21
663.8512718108484
  0
LINE
  8
_0-5_金属
  6
CONTINUOUS
 62
    7
 10
849.19922135572847
 20
666.30241181084898
 11
849.19922135572847
 21
663.92142181084978
  0
LINE
  8
_0-5_金属
  6
CONTINUOUS
 62
    7
 10
849.99919135572782
 20
667.90242181084864
 11
849.99919135572782
 21
668.70239181084912
  0
LINE
  8
_0-5_金属
  6
CONTINUOUS
 62
    7
 10
834.99920135572665
 20
667.90242181084864
 11
834.99920135572665
 21
667.10245181085043
  0
LINE
  8
_0-5_金属
  6
CONTINUOUS
 62
    7
 10
834.99920135572665
 20
667.10245181085043
 11
848.39924135572801
 21
667.10245181085043
  0
LINE
  8
_0-5_金属
  6
CONTINUOUS
 62
    7
 10
850.79916135572944
 20
667.10239181085058
 11
850.79916135572944
 21
596.60239181084876
  0
LINE
  8
_0-5_金属
  6
CONTINUOUS
 62
    7
 10
836.0491513557281
 20
595.0023818108491
 11
848.39924135572801
 21
595.0023818108491
  0
LINE
  8
_0-5_金属
  6
CONTINUOUS
 62
    7
 10
836.0491513557281
 20
594.5023118108486
 11
863.94923135572753
 21
594.5023118108486
  0
LINE
  8
_0-5_金属
  6
CONTINUOUS
 62
    7
 10
836.0491513557281
 20
595.80229181084974
 11
848.39924135572801
 21
595.80229181084974
  0
LINE
  8
_0-5_金属
  6
CONTINUOUS
 62
    7
 10
851.59914135572762
 20
595.80229181084974
 11
863.94923135572753
 21
595.80229181084974
  0
LINE
  8
_0-5_金属
  6
CONTINUOUS
 62
    7
 10
851.59914135572762
 20
595.0023818108491
 11
863.94923135572753
 21
595.0023818108491
  0
LINE
  8
_0-5_金属
  6
CONTINUOUS
 62
    7
 10
836.0491513557281
 20
593.70234201085054
 11
863.94923135572753
 21
593.70234201085054
  0
ARC
  8
_0-5_金属
  6
CONTINUOUS
 62
    7
 10
1263.9492363557281
 20
594.75234181085057
 40
1.0499997999999999
 50
270
 51
90
  0
ARC
  8
_0-5_金属
  6
CONTINUOUS
 62
    7
 10
1263.9492363557281
 20
594.75234181085057
 40
0.2499999
 50
270
 51
90
  0
ARC
  8
_0-5_金属
  6
CONTINUOUS
 62
    7
 10
1236.0491563557287
 20
594.75234181085057
 40
1.0499997999999999
 50
90
 51
270
  0
ARC
  8
_0-5_金属
  6
CONTINUOUS
 62
    7
 10
1236.0491563557287
 20
594.75234181085057
 40
0.2499999
 50
90
 51
270
  0
ARC
  8
_0-5_金属
  6
CONTINUOUS
 62
    7
 10
1251.5991363557248
 20
596.60239181084876
 40
0.7999998999999997
 50
180
 51
270
  0
ARC
  8
_0-5_金属
  6
CONTINUOUS
 62
    7
 10
1251.5991363557248
 20
596.60239181084876
 40
1.5999999
 50
180
 51
270
  0
ARC
  8
_0-5_金属
  6
CONTINUOUS
 62
    7
 10
1248.3992463557286
 20
596.60239181084876
 40
0.7999998999999997
 50
270
 51
0
  0
ARC
  8
_0-5_金属
  6
CONTINUOUS
 62
    7
 10
1248.3992463557286
 20
596.60239181084876
 40
1.5999999
 50
270
 51
0
  0
ARC
  8
_0-5_金属
  6
CONTINUOUS
 62
    7
 10
1251.5991363557248
 20
667.10239181085058
 40
0.7999998999999997
 50
90
 51
180
  0
ARC
  8
_0-5_金属
  6
CONTINUOUS
 62
    7
 10
1248.3992463557286
 20
667.10239181085058
 40
0.7999998999999997
 50
0
 51
90
  0
ARC
  8
_0-5_金属
  6
CONTINUOUS
 62
    7
 10
1248.3992463557286
 20
667.10239181085058
 40
1.5999999
 50
0
 51
90
  0
LINE
  8
_0-5_金属
  6
CONTINUOUS
 62
    7
 10
1214.9990763557287
 20
668.70239181084912
 11
1248.3992463557286
 21
668.70239181084912
  0
LINE
  8
_0-5_金属
  6
CONTINUOUS
 62
    7
 10
1250.7991663557266
 20
667.10239181085058
 11
1250.7991663557266
 21
596.60239181084876
  0
LINE
  8
_0-5_金属
  6
CONTINUOUS
 62
    7
 10
1249.1992263557256
 20
667.10239181085058
 11
1249.1992263557256
 21
596.60239181084876
  0
LINE
  8
_0-5_金属
  6
CONTINUOUS
 62
    7
 10
1249.9991963557284
 20
667.10239181085058
 11
1249.9991963557284
 21
596.60239181084876
  0
LINE
  8
_0-5_金属
  6
CONTINUOUS
 62
    7
 10
1263.9492363557281
 20
595.0023818108491
 11
1251.5991363557248
 21
595.0023818108491
  0
LINE
  8
_0-5_金属
  6
CONTINUOUS
 62
    7
 10
1263.9492363557281
 20
594.5023118108486
 11
1236.0491563557287
 21
594.5023118108486
  0
LINE
  8
_0-5_金属
  6
CONTINUOUS
 62
    7
 10
1263.9492363557281
 20
595.80229181084974
 11
1251.5991363557248
 21
595.80229181084974
  0
LINE
  8
_0-5_金属
  6
CONTINUOUS
 62
    7
 10
1248.3992463557286
 20
595.80229181084974
 11
1236.0491563557287
 21
595.80229181084974
  0
LINE
  8
_0-5_金属
  6
CONTINUOUS
 62
    7
 10
1248.3992463557286
 20
595.0023818108491
 11
1236.0491563557287
 21
595.0023818108491
  0
LINE
  8
_0-5_金属
  6
CONTINUOUS
 62
    7
 10
1236.0491563557287
 20
593.70234201085054
 11
1263.9492363557281
 21
593.70234201085054
  0
ARC
  8
_0-5_金属
  6
CONTINUOUS
 62
    7
 10
1251.5991363557248
 20
667.10239181085058
 40
1.5999999
 50
90
 51
180
  0
ARC
  8
_0-5_金属
  6
CONTINUOUS
 62
    7
 10
1436.049151355727
 20
594.75234181085057
 40
1.0499997999999999
 50
90
 51
270
  0
ARC
  8
_0-5_金属
  6
CONTINUOUS
 62
    7
 10
1436.049151355727
 20
594.75234181085057
 40
0.2499999
 50
90
 51
270
  0
ARC
  8
_0-5_金属
  6
CONTINUOUS
 62
    7
 10
1463.9492313557264
 20
594.75234181085057
 40
1.0499997999999999
 50
270
 51
90
  0
ARC
  8
_0-5_金属
  6
CONTINUOUS
 62
    7
 10
1463.9492313557264
 20
594.75234181085057
 40
0.2499999
 50
270
 51
90
  0
ARC
  8
_0-5_金属
  6
CONTINUOUS
 62
    7
 10
1448.3992413557269
 20
596.60239181084876
 40
0.7999998999999997
 50
270
 51
0
  0
ARC
  8
_0-5_金属
  6
CONTINUOUS
 62
    7
 10
1448.3992413557269
 20
596.60239181084876
 40
1.5999999
 50
270
 51
0
  0
ARC
  8
_0-5_金属
  6
CONTINUOUS
 62
    7
 10
1451.5991413557265
 20
596.60239181084876
 40
0.7999998999999997
 50
180
 51
270
  0
ARC
  8
_0-5_金属
  6
CONTINUOUS
 62
    7
 10
1451.5991413557265
 20
596.60239181084876
 40
1.5999999
 50
180
 51
270
  0
ARC
  8
_0-5_金属
  6
CONTINUOUS
 62
    7
 10
1448.3992413557269
 20
666.30241181084898
 40
0.7999998999999997
 50
0
 51
90
  0
ARC
  8
_0-5_金属
  6
CONTINUOUS
 62
    7
 10
1448.3992413557269
 20
666.30241181084898
 40
1.5999999
 50
0
 51
90
  0
ARC
  8
_0-5_金属
  6
CONTINUOUS
 62
    7
 10
1451.5991413557265
 20
667.10239181085058
 40
0.7999998999999997
 50
90
 51
180
  0
ARC
  8
_0-5_金属
  6
CONTINUOUS
 62
    7
 10
1451.5991413557265
 20
667.10239181085058
 40
1.5999999
 50
90
 51
180
  0
LINE
  8
_0-5_金属
  6
CONTINUOUS
 62
    7
 10
1449.9991913557267
 20
663.8512718108484
 11
1449.9991913557267
 21
653.41043181084956
  0
LINE
  8
_0-5_金属
  6
CONTINUOUS
 62
    7
 10
1448.4341313557286
 20
654.97542181084896
 11
1449.9991913557267
 21
653.41043181084956
  0
LINE
  8
_0-5_金属
  6
CONTINUOUS
 62
    7
 10
1449.9991913557267
 20
663.8512718108484
 11
1448.4341313557286
 21
654.97542181084896
  0
LINE
  8
_0-5_金属
  6
CONTINUOUS
 62
    7
 10
1449.9991913557267
 20
653.41043181084956
 11
1449.9991913557267
 21
596.60239181084876
  0
LINE
  8
_0-5_金属
  6
CONTINUOUS
 62
    7
 10
1447.5739713557266
 20
654.70423181085039
 11
1449.1992213557285
 21
653.07898181084852
  0
LINE
  8
_0-5_金属
  6
CONTINUOUS
 62
    7
 10
1449.1992213557285
 20
653.07898181084852
 11
1449.1992213557285
 21
596.60239181084876
  0
LINE
  8
_0-5_金属
  6
CONTINUOUS
 62
    7
 10
1449.1992213557285
 20
663.92142181084978
 11
1447.5739713557266
 21
654.70423181085039
  0
LINE
  8
_0-5_金属
  6
CONTINUOUS
 62
    7
 10
1449.9991913557267
 20
667.10239181085058
 11
1449.9991913557267
 21
663.8512718108484
  0
LINE
  8
_0-5_金属
  6
CONTINUOUS
 62
    7
 10
1449.1992213557285
 20
666.30241181084898
 11
1449.1992213557285
 21
663.92142181084978
  0
LINE
  8
_0-5_金属
  6
CONTINUOUS
 62
    7
 10
1449.9991913557267
 20
667.90242181084864
 11
1449.9991913557267
 21
668.70239181084912
  0
LINE
  8
_0-5_金属
  6
CONTINUOUS
 62
    7
 10
1434.9992013557255
 20
667.90242181084864
 11
1434.9992013557255
 21
667.10245181085043
  0
LINE
  8
_0-5_金属
  6
CONTINUOUS
 62
    7
 10
1434.9992013557255
 20
667.10245181085043
 11
1448.3992413557269
 21
667.10245181085043
  0
LINE
  8
_0-5_金属
  6
CONTINUOUS
 62
    7
 10
1450.7991613557294
 20
667.10239181085058
 11
1450.7991613557294
 21
596.60239181084876
  0
LINE
  8
_0-5_金属
  6
CONTINUOUS
 62
    7
 10
1436.049151355727
 20
595.0023818108491
 11
1448.3992413557269
 21
595.0023818108491
  0
LINE
  8
_0-5_金属
  6
CONTINUOUS
 62
    7
 10
1436.049151355727
 20
594.5023118108486
 11
1463.9492313557264
 21
594.5023118108486
  0
LINE
  8
_0-5_金属
  6
CONTINUOUS
 62
    7
 10
1436.049151355727
 20
595.80229181084974
 11
1448.3992413557269
 21
595.80229181084974
  0
LINE
  8
_0-5_金属
  6
CONTINUOUS
 62
    7
 10
1451.5991413557265
 20
595.80229181084974
 11
1463.9492313557264
 21
595.80229181084974
  0
LINE
  8
_0-5_金属
  6
CONTINUOUS
 62
    7
 10
1451.5991413557265
 20
595.0023818108491
 11
1463.9492313557264
 21
595.0023818108491
  0
LINE
  8
_0-5_金属
  6
CONTINUOUS
 62
    7
 10
1436.049151355727
 20
593.70234201085054
 11
1463.9492313557264
 21
593.70234201085054
  0
LINE
  8
_0-5_金属
  6
CONTINUOUS
 62
    7
 10
1251.5991363557248
 20
668.70239181084912
 11
1449.9991913557267
 21
668.70239181084912
  0
LINE
  8
_0-5_金属
  6
CONTINUOUS
 62
    7
 10
1449.9991913557267
 20
667.90242181084864
 11
1251.5991363557248
 21
667.90242181084864
  0
ARC
  8
_0-5_金属
  6
CONTINUOUS
 62
    7
 10
663.94923635572809
 20
594.75234181085057
 40
1.0499997999999999
 50
270
 51
90
  0
ARC
  8
_0-5_金属
  6
CONTINUOUS
 62
    7
 10
663.94923635572809
 20
594.75234181085057
 40
0.2499999
 50
270
 51
90
  0
ARC
  8
_0-5_金属
  6
CONTINUOUS
 62
    7
 10
636.04915635572866
 20
594.75234181085057
 40
1.0499997999999999
 50
90
 51
270
  0
ARC
  8
_0-5_金属
  6
CONTINUOUS
 62
    7
 10
636.04915635572866
 20
594.75234181085057
 40
0.2499999
 50
90
 51
270
  0
ARC
  8
_0-5_金属
  6
CONTINUOUS
 62
    7
 10
651.59913635572593
 20
596.60239181084876
 40
0.7999998999999997
 50
180
 51
270
  0
ARC
  8
_0-5_金属
  6
CONTINUOUS
 62
    7
 10
651.59913635572593
 20
596.60239181084876
 40
1.5999999
 50
180
 51
270
  0
ARC
  8
_0-5_金属
  6
CONTINUOUS
 62
    7
 10
648.39924635572856
 20
596.60239181084876
 40
0.7999998999999997
 50
270
 51
0
  0
ARC
  8
_0-5_金属
  6
CONTINUOUS
 62
    7
 10
648.39924635572856
 20
596.60239181084876
 40
1.5999999
 50
270
 51
0
  0
ARC
  8
_0-5_金属
  6
CONTINUOUS
 62
    7
 10
651.59913635572593
 20
667.10239181085058
 40
0.7999998999999997
 50
90
 51
180
  0
ARC
  8
_0-5_金属
  6
CONTINUOUS
 62
    7
 10
648.39924635572856
 20
667.10239181085058
 40
0.7999998999999997
 50
0
 51
90
  0
ARC
  8
_0-5_金属
  6
CONTINUOUS
 62
    7
 10
648.39924635572856
 20
667.10239181085058
 40
1.5999999
 50
0
 51
90
  0
LINE
  8
_0-5_金属
  6
CONTINUOUS
 62
    7
 10
650.79916635572772
 20
667.10239181085058
 11
650.79916635572772
 21
596.60239181084876
  0
LINE
  8
_0-5_金属
  6
CONTINUOUS
 62
    7
 10
649.19922635572675
 20
667.10239181085058
 11
649.19922635572675
 21
596.60239181084876
  0
LINE
  8
_0-5_金属
  6
CONTINUOUS
 62
    7
 10
649.99919635572837
 20
667.10239181085058
 11
649.99919635572837
 21
596.60239181084876
  0
LINE
  8
_0-5_金属
  6
CONTINUOUS
 62
    7
 10
663.94923635572809
 20
595.0023818108491
 11
651.59913635572593
 21
595.0023818108491
  0
LINE
  8
_0-5_金属
  6
CONTINUOUS
 62
    7
 10
663.94923635572809
 20
594.5023118108486
 11
636.04915635572866
 21
594.5023118108486
  0
LINE
  8
_0-5_金属
  6
CONTINUOUS
 62
    7
 10
663.94923635572809
 20
595.80229181084974
 11
651.59913635572593
 21
595.80229181084974
  0
LINE
  8
_0-5_金属
  6
CONTINUOUS
 62
    7
 10
648.39924635572856
 20
595.80229181084974
 11
636.04915635572866
 21
595.80229181084974
  0
LINE
  8
_0-5_金属
  6
CONTINUOUS
 62
    7
 10
648.39924635572856
 20
595.0023818108491
 11
636.04915635572866
 21
595.0023818108491
  0
LINE
  8
_0-5_金属
  6
CONTINUOUS
 62
    7
 10
636.04915635572866
 20
593.70234201085054
 11
663.94923635572809
 21
593.70234201085054
  0
LINE
  8
_0-5_金属
  6
CONTINUOUS
 62
    7
 10
849.99919135572782
 20
668.70239181084912
 11
651.59913635572593
 21
668.70239181084912
  0
ARC
  8
_0-5_金属
  6
CONTINUOUS
 62
    7
 10
651.59913635572593
 20
667.10239181085058
 40
1.5999999
 50
90
 51
180
  0
LINE
  8
_0-5_金属
  6
CONTINUOUS
 62
    7
 10
651.59913635572593
 20
667.90242181084864
 11
849.99919135572782
 21
667.90242181084864
  0
LINE
  8
_0-5_金属
  6
CONTINUOUS
 62
    7
 10
648.39924635572856
 20
667.90242181084864
 11
632.32583560174021
 21
667.90242181084864
  0
LINE
  8
_0-5_金属
  6
CONTINUOUS
 62
    7
 10
632.32583560174021
 20
668.70239181084912
 11
648.39924635572856
 21
668.70239181084912
  0
LINE
  8
_0-5_金属
  6
CONTINUOUS
 62
    7
 10
1467.6725471097132
 20
668.70239181084912
 11
1451.4497713557273
 21
668.70239181084912
  0
LINE
  8
_0-5_金属
  6
CONTINUOUS
 62
    7
 10
1467.6725471097132
 20
667.90242181084864
 11
1451.6826913557259
 21
667.90242181084864
  0
LINE
  8
_0-5_金属
  6
CONTINUOUS
 62
    7
 10
959.99919135572668
 20
667.90242181084864
 11
851.682691355727
 21
667.90242181084864
  0
LINE
  8
_0-5_金属
  6
CONTINUOUS
 62
    7
 10
959.99919135572668
 20
668.70239181084912
 11
851.44977135572844
 21
668.70239181084912
  0
LINE
  8
_0-5_金属
  6
CONTINUOUS
 62
    7
 10
1248.3992463557286
 20
667.90242181084864
 11
1139.9991913557267
 21
667.90242181084864
  0
LINE
  8
_0-5_金属
  6
CONTINUOUS
 62
    7
 10
1139.9991913557267
 20
668.70239181084912
 11
1214.9990763557287
 21
668.70239181084912
  0
LINE
  8
_0-5_金属
  6
CONTINUOUS
 62
    7
 10
959.99919135572668
 20
668.70239181084912
 11
959.99919135572668
 21
667.90242181084864
  0
LINE
  8
_0-5_金属
  6
CONTINUOUS
 62
    7
 10
1139.9991913557267
 20
668.70239181084912
 11
1139.9991913557267
 21
667.90242181084864
  0
ARC
  8
_0-6_鋼板__アングル
  6
CONTINUOUS
 62
    2
 10
883.6184163223345
 20
710.51004875844114
 40
1.2000000000000006
 50
254.99999999999449
 51
74.9999999999945
  0
LINE
  8
_0-6_鋼板__アングル
  6
CONTINUOUS
 62
    4
 10
851.31933479082704
 20
712.50239181085249
 11
864.31933479082545
 21
712.50239181085249
  0
LINE
  8
_0-6_鋼板__アングル
  6
CONTINUOUS
 62
    2
 10
864.31933479082545
 20
712.50239181085249
 11
861.06929623188876
 21
709.59703289040704
  0
LINE
  8
_0-6_鋼板__アングル
  6
CONTINUOUS
 62
    2
 10
861.86905703286016
 20
708.7023918108514
 11
861.06929623188876
 21
709.59703289040704
  0
LINE
  8
_0-6_鋼板__アングル
  6
CONTINUOUS
 62
    2
 10
864.77751016537241
 20
711.3023918108513
 11
861.86905703286016
 21
708.7023918108514
  0
LINE
  8
_0-6_鋼板__アングル
  6
CONTINUOUS
 62
    2
 10
851.31933479082704
 20
712.50239181085249
 11
854.5693733497626
 21
709.59703289040704
  0
LINE
  8
_0-6_鋼板__アングル
  6
CONTINUOUS
 62
    2
 10
853.7696125487912
 20
708.7023918108514
 11
854.5693733497626
 21
709.59703289040704
  0
LINE
  8
_0-6_鋼板__アングル
  6
CONTINUOUS
 62
    2
 10
850.86115941628009
 20
711.3023918108513
 11
853.7696125487912
 21
708.7023918108514
  0
LINE
  8
_0-6_鋼板__アングル
  6
CONTINUOUS
 62
    4
 10
861.06933479082613
 20
709.59698975700007
 11
854.5693733497626
 21
709.59698975700007
  0
LINE
  8
_0-6_鋼板__アングル
  6
CONTINUOUS
 62
    4
 10
861.86905703286016
 20
708.7023918108514
 11
853.7696125487912
 21
708.7023918108514
  0
LINE
  8
_0-6_鋼板__アングル
  6
CONTINUOUS
 62
    2
 10
837.83530078503532
 20
711.3023918108513
 11
837.83530078503532
 21
710.10239181085012
  0
LINE
  8
ADD_LINE
  6
DOT
 62
    4
 10
857.81933479082568
 20
697.65524414620245
 11
857.81933479082568
 21
731.83960033626477
  0
LINE
  8
ADD_LINE
  6
DOT
 62
    4
 10
884.81841632233568
 20
708.7023918108514
 11
884.81841632233568
 21
712.50239181085249
  0
LINE
  8
ADD_LINE
  6
DOT
 62
    4
 10
883.6184163223345
 20
710.51004875844114
 11
886.82786690042008
 21
710.51004875844114
  0
LINE
  8
_0-6_鋼板__アングル
  6
CONTINUOUS
 62
    2
 10
850.86115941628009
 20
711.3023918108513
 11
834.97731778793082
 21
711.3023918108513
  0
LINE
  8
_0-6_鋼板__アングル
  6
CONTINUOUS
 62
    2
 10
832.02025325931686
 20
710.51004875844114
 11
834.97731778793082
 21
711.3023918108513
  0
LINE
  8
_0-6_鋼板__アングル
  6
CONTINUOUS
 62
    2
 10
851.31933479082704
 20
712.50239181085249
 11
834.81933479082613
 21
712.50239181085249
  0
LINE
  8
_0-6_鋼板__アングル
  6
CONTINUOUS
 62
    2
 10
834.81933479082613
 20
712.50239181085249
 11
831.70967040519372
 21
711.66915974998915
  0
ARC
  8
_0-6_鋼板__アングル
  6
CONTINUOUS
 62
    2
 10
832.02025325931686
 20
710.51004875844114
 40
1.2000000000000006
 50
105.00000000000549
 51
285.00000000000546
  0
LINE
  8
_0-6_鋼板__アングル
  6
CONTINUOUS
 62
    2
 10
837.83530078503532
 20
710.10239181085012
 11
835.1353007850355
 21
710.10239181085012
  0
LINE
  8
_0-6_鋼板__アングル
  6
CONTINUOUS
 62
    2
 10
835.1353007850355
 20
710.10239181085012
 11
832.33083611344114
 21
709.35093776689541
  0
LINE
  8
_0-6_鋼板__アングル
  6
CONTINUOUS
 62
    2
 10
883.6184163223345
 20
710.51004875844114
 11
880.66135179372054
 21
711.3023918108513
  0
LINE
  8
_0-6_鋼板__アングル
  6
CONTINUOUS
 62
    2
 10
864.77751016537241
 20
711.3023918108513
 11
880.66135179372054
 21
711.3023918108513
  0
LINE
  8
_0-6_鋼板__アングル
  6
CONTINUOUS
 62
    2
 10
864.31933479082545
 20
712.50239181085249
 11
880.81933479082636
 21
712.50239181085249
  0
LINE
  8
_0-6_鋼板__アングル
  6
CONTINUOUS
 62
    2
 10
880.81933479082636
 20
712.50239181085249
 11
883.92899917645877
 21
711.66915974998915
  0
LINE
  8
_0-6_鋼板__アングル
  6
CONTINUOUS
 62
    2
 10
880.50336879661586
 20
710.10239181085012
 11
883.30783346821136
 21
709.35093776689541
  0
LINE
  8
_0-6_鋼板__アングル
  6
CONTINUOUS
 62
    2
 10
877.80336879661604
 20
710.10239181085012
 11
880.50336879661586
 21
710.10239181085012
  0
LINE
  8
_0-6_鋼板__アングル
  6
CONTINUOUS
 62
    2
 10
877.80336879661604
 20
711.3023918108513
 11
877.80336879661604
 21
710.10239181085012
  0
LINE
  8
_0-2_線色２__白__
  6
CONTINUOUS
 62
    7
 10
830.41557517968045
 20
716.49878888143462
 11
816.91181933745042
 21
708.7023918108514
  0
LINE
  8
_0-2_線色２__白__
  6
CONTINUOUS
 62
    7
 10
864.73258934921773
 20
722.50239181085249
 11
864.75080813674026
 21
722.63329675753198
  0
LINE
  8
_0-2_線色２__白__
  6
CONTINUOUS
 62
    7
 10
864.75080813674026
 20
722.63329675753198
 11
864.78387491640092
 21
722.85837069255081
  0
LINE
  8
_0-2_線色２__白__
  6
CONTINUOUS
 62
    7
 10
864.78387491640092
 20
722.85837069255081
 11
864.82153913226625
 21
723.0817106028087
  0
LINE
  8
_0-2_線色２__白__
  6
CONTINUOUS
 62
    7
 10
864.82153913226625
 20
723.0817106028087
 11
864.86671055409147
 21
723.30221900428
  0
LINE
  8
_0-2_線色２__白__
  6
CONTINUOUS
 62
    7
 10
864.86671055409147
 20
723.30221900428
 11
864.92229895162041
 21
723.5187984129368
  0
LINE
  8
_0-2_線色２__白__
  6
CONTINUOUS
 62
    7
 10
864.92229895162041
 20
723.5187984129368
 11
864.99121409461054
 21
723.73035134475799
  0
LINE
  8
_0-2_線色２__白__
  6
CONTINUOUS
 62
    7
 10
864.99121409461054
 20
723.73035134475799
 11
865.03843779290378
 21
723.8503164477504
  0
LINE
  8
_0-2_線色２__白__
  6
CONTINUOUS
 62
    7
 10
865.03843779290378
 20
723.8503164477504
 11
865.07937885416595
 21
723.94243328733978
  0
LINE
  8
_0-2_線色２__白__
  6
CONTINUOUS
 62
    7
 10
865.07937885416595
 20
723.94243328733978
 11
865.15779402684871
 21
724.09814759035385
  0
LINE
  8
_0-2_線色２__白__
  6
CONTINUOUS
 62
    7
 10
865.15779402684871
 20
724.09814759035385
 11
865.2449010411749
 21
724.25015119323348
  0
LINE
  8
_0-2_線色２__白__
  6
CONTINUOUS
 62
    7
 10
865.2449010411749
 20
724.25015119323348
 11
865.33928603032223
 21
724.3987037090335
  0
LINE
  8
_0-2_線色２__白__
  6
CONTINUOUS
 62
    7
 10
865.33928603032223
 20
724.3987037090335
 11
865.43953512746725
 21
724.54406475080646
  0
LINE
  8
_0-2_線色２__白__
  6
CONTINUOUS
 62
    7
 10
865.43953512746725
 20
724.54406475080646
 11
865.54423446578312
 21
724.68649393160263
  0
LINE
  8
_0-2_線色２__白__
  6
CONTINUOUS
 62
    7
 10
865.54423446578312
 20
724.68649393160263
 11
865.60644204546293
 21
724.76786177880854
  0
LINE
  8
_0-2_線色２__白__
  6
CONTINUOUS
 62
    7
 10
865.60644204546293
 20
724.76786177880854
 11
865.68065831939862
 21
724.86254537161017
  0
LINE
  8
_0-2_線色２__白__
  6
CONTINUOUS
 62
    7
 10
865.68065831939862
 20
724.86254537161017
 11
865.81088325950191
 21
725.02326416547135
  0
LINE
  8
_0-2_線色２__白__
  6
CONTINUOUS
 62
    7
 10
865.81088325950191
 20
725.02326416547135
 11
865.94373507872319
 21
725.18113092786166
  0
LINE
  8
_0-2_線色２__白__
  6
CONTINUOUS
 62
    7
 10
865.94373507872319
 20
725.18113092786166
 11
866.07893321685083
 21
725.33655142132716
  0
LINE
  8
_0-2_線色２__白__
  6
CONTINUOUS
 62
    7
 10
866.07893321685083
 20
725.33655142132716
 11
866.21619711367543
 21
725.48993140841617
  0
LINE
  8
_0-2_線色２__白__
  6
CONTINUOUS
 62
    7
 10
866.21619711367543
 20
725.48993140841617
 11
866.35524620898309
 21
725.6416766516702
  0
LINE
  8
_0-2_線色２__白__
  6
CONTINUOUS
 62
    7
 10
866.35524620898309
 20
725.6416766516702
 11
866.43660210689518
 21
725.72909974467734
  0
LINE
  8
_0-2_線色２__白__
  6
CONTINUOUS
 62
    7
 10
866.43660210689518
 20
725.72909974467734
 11
866.52223718030996
 21
725.82016991907608
  0
LINE
  8
_0-2_線色２__白__
  6
CONTINUOUS
 62
    7
 10
866.52223718030996
 20
725.82016991907608
 11
866.6714345386174
 21
725.97587166790959
  0
LINE
  8
_0-2_線色２__白__
  6
CONTINUOUS
 62
    7
 10
866.6714345386174
 20
725.97587166790959
 11
866.82318475218722
 21
726.12921764630869
  0
LINE
  8
_0-2_線色２__白__
  6
CONTINUOUS
 62
    7
 10
866.82318475218722
 20
726.12921764630869
 11
866.97817383169081
 21
726.27940528523027
  0
LINE
  8
_0-2_線色２__白__
  6
CONTINUOUS
 62
    7
 10
866.97817383169081
 20
726.27940528523027
 11
867.13708778779733
 21
726.42563201562666
  0
LINE
  8
_0-2_線色２__白__
  6
CONTINUOUS
 62
    7
 10
867.13708778779733
 20
726.42563201562666
 11
867.30061263117818
 21
726.56709526845475
  0
LINE
  8
_0-2_線色２__白__
  6
CONTINUOUS
 62
    7
 10
867.30061263117818
 20
726.56709526845475
 11
867.39784007276626
 21
726.64664507573548
  0
LINE
  8
_0-2_線色２__白__
  6
CONTINUOUS
 62
    7
 10
867.39784007276626
 20
726.64664507573548
 11
867.48549377230688
 21
726.71537042823161
  0
LINE
  8
_0-2_線色２__白__
  6
CONTINUOUS
 62
    7
 10
867.48549377230688
 20
726.71537042823161
 11
867.64010687222822
 21
726.82958319603017
  0
LINE
  8
_0-2_線色２__白__
  6
CONTINUOUS
 62
    7
 10
867.64010687222822
 20
726.82958319603017
 11
867.79907201541732
 21
726.93755588496174
  0
LINE
  8
_0-2_線色２__白__
  6
CONTINUOUS
 62
    7
 10
867.79907201541732
 20
726.93755588496174
 11
867.96231867264396
 21
727.03833111638801
  0
LINE
  8
_0-2_線色２__白__
  6
CONTINUOUS
 62
    7
 10
867.96231867264396
 20
727.03833111638801
 11
868.12977631467561
 21
727.13095151167522
  0
LINE
  8
_0-2_線色２__白__
  6
CONTINUOUS
 62
    7
 10
868.12977631467561
 20
727.13095151167522
 11
868.30137441227976
 21
727.21445969218507
  0
LINE
  8
_0-2_線色２__白__
  6
CONTINUOUS
 62
    7
 10
868.30137441227976
 20
727.21445969218507
 11
868.40277067344687
 21
727.25834196310529
  0
LINE
  8
_0-2_線色２__白__
  6
CONTINUOUS
 62
    7
 10
868.40277067344687
 20
727.25834196310529
 11
868.5166761661867
 21
727.3028706763705
  0
LINE
  8
_0-2_線色２__白__
  6
CONTINUOUS
 62
    7
 10
868.5166761661867
 20
727.3028706763705
 11
868.71656462404076
 21
727.37018130478532
  0
LINE
  8
_0-2_線色２__白__
  6
CONTINUOUS
 62
    7
 10
868.71656462404076
 20
727.37018130478532
 11
868.92026672289944
 21
727.42678485628289
  0
LINE
  8
_0-2_線色２__白__
  6
CONTINUOUS
 62
    7
 10
868.92026672289944
 20
727.42678485628289
 11
869.12706579970859
 21
727.47415973001239
  0
LINE
  8
_0-2_線色２__白__
  6
CONTINUOUS
 62
    7
 10
869.12706579970859
 20
727.47415973001239
 11
869.33624519141745
 21
727.51378432512297
  0
LINE
  8
_0-2_線色２__白__
  6
CONTINUOUS
 62
    7
 10
869.33624519141745
 20
727.51378432512297
 11
869.54708823497299
 21
727.54713704075925
  0
LINE
  8
_0-2_線色２__白__
  6
CONTINUOUS
 62
    7
 10
869.54708823497299
 20
727.54713704075925
 11
869.66985708300285
 21
727.56419040679134
  0
LINE
  8
_0-2_線色２__白__
  6
CONTINUOUS
 62
    7
 10
869.66985708300285
 20
727.56419040679134
 11
869.8183140530864
 21
727.58290740605958
  0
LINE
  8
_0-2_線色２__白__
  6
CONTINUOUS
 62
    7
 10
869.8183140530864
 20
727.58290740605958
 11
870.07463431837095
 21
727.60981416714799
  0
LINE
  8
_0-2_線色２__白__
  6
CONTINUOUS
 62
    7
 10
870.07463431837095
 20
727.60981416714799
 11
870.33102964695331
 21
727.62867241444724
  0
LINE
  8
_0-2_線色２__白__
  6
CONTINUOUS
 62
    7
 10
870.33102964695331
 20
727.62867241444724
 11
870.5870574835842
 21
727.63801850563482
  0
LINE
  8
_0-2_線色２__白__
  6
CONTINUOUS
 62
    7
 10
870.5870574835842
 20
727.63801850563482
 11
870.84227527301778
 21
727.63638879838823
  0
LINE
  8
_0-2_線色２__白__
  6
CONTINUOUS
 62
    7
 10
870.84227527301778
 20
727.63638879838823
 11
871.09624046000931
 21
727.62231965038495
  0
LINE
  8
_0-2_線色２__白__
  6
CONTINUOUS
 62
    7
 10
871.09624046000931
 20
727.62231965038495
 11
871.24279193624602
 21
727.60788304160428
  0
LINE
  8
_0-2_線色２__白__
  6
CONTINUOUS
 62
    7
 10
871.24279193624602
 20
727.60788304160428
 11
871.35013612781108
 21
727.59419325551903
  0
LINE
  8
_0-2_線色２__白__
  6
CONTINUOUS
 62
    7
 10
871.35013612781108
 20
727.59419325551903
 11
871.53458618858053
 21
727.56523362427856
  0
LINE
  8
_0-2_線色２__白__
  6
CONTINUOUS
 62
    7
 10
871.53458618858053
 20
727.56523362427856
 11
871.71855704602081
 21
727.53091814273944
  0
LINE
  8
_0-2_線色２__白__
  6
CONTINUOUS
 62
    7
 10
871.71855704602081
 20
727.53091814273944
 11
871.90241308187865
 21
727.49290331671205
  0
LINE
  8
_0-2_線色２__白__
  6
CONTINUOUS
 62
    7
 10
871.90241308187865
 20
727.49290331671205
 11
872.08651867790081
 21
727.45284565200677
  0
LINE
  8
_0-2_線色２__白__
  6
CONTINUOUS
 62
    7
 10
872.08651867790081
 20
727.45284565200677
 11
872.27123821582722
 21
727.41240165443173
  0
LINE
  8
_0-2_線色２__白__
  6
CONTINUOUS
 62
    7
 10
872.27123821582722
 20
727.41240165443173
 11
872.37880044136432
 21
727.38941986754412
  0
LINE
  8
_0-2_線色２__白__
  6
CONTINUOUS
 62
    7
 10
872.37880044136432
 20
727.38941986754412
 11
872.50091167269261
 21
727.36414614604541
  0
LINE
  8
_0-2_線色２__白__
  6
CONTINUOUS
 62
    7
 10
872.50091167269261
 20
727.36414614604541
 11
872.71170969625587
 21
727.32079662980937
  0
LINE
  8
_0-2_線色２__白__
  6
CONTINUOUS
 62
    7
 10
872.71170969625587
 20
727.32079662980937
 11
872.92141492009364
 21
727.27466347166114
  0
LINE
  8
_0-2_線色２__白__
  6
CONTINUOUS
 62
    7
 10
872.92141492009364
 20
727.27466347166114
 11
873.12837186936008
 21
727.22217742995667
  0
LINE
  8
_0-2_線色２__白__
  6
CONTINUOUS
 62
    7
 10
873.12837186936008
 20
727.22217742995667
 11
873.33092506921616
 21
727.15976926306098
  0
LINE
  8
_0-2_線色２__白__
  6
CONTINUOUS
 62
    7
 10
873.33092506921616
 20
727.15976926306098
 11
873.52741904481604
 21
727.08386972932544
  0
LINE
  8
_0-2_線色２__白__
  6
CONTINUOUS
 62
    7
 10
873.52741904481604
 20
727.08386972932544
 11
873.63795687093557
 21
727.03225978866953
  0
LINE
  8
_0-2_線色２__白__
  6
CONTINUOUS
 62
    7
 10
873.63795687093557
 20
727.03225978866953
 11
873.73727910211414
 21
726.97917431674455
  0
LINE
  8
_0-2_線色２__白__
  6
CONTINUOUS
 62
    7
 10
873.73727910211414
 20
726.97917431674455
 11
873.90270301730538
 21
726.87588803564608
  0
LINE
  8
_0-2_線色２__白__
  6
CONTINUOUS
 62
    7
 10
873.90270301730538
 20
726.87588803564608
 11
874.06075458866439
 21
726.75933840391394
  0
LINE
  8
_0-2_線色２__白__
  6
CONTINUOUS
 62
    7
 10
874.06075458866439
 20
726.75933840391394
 11
874.2114296350826
 21
726.63141173059898
  0
LINE
  8
_0-2_線色２__白__
  6
CONTINUOUS
 62
    7
 10
874.2114296350826
 20
726.63141173059898
 11
874.35472397544686
 21
726.49399432475434
  0
LINE
  8
_0-2_線色２__白__
  6
CONTINUOUS
 62
    7
 10
874.35472397544686
 20
726.49399432475434
 11
874.49063342865315
 21
726.34897249542405
  0
LINE
  8
_0-2_線色２__白__
  6
CONTINUOUS
 62
    7
 10
874.49063342865315
 20
726.34897249542405
 11
874.56607550863851
 21
726.26211879142716
  0
LINE
  8
_0-2_線色２__白__
  6
CONTINUOUS
 62
    7
 10
874.56607550863851
 20
726.26211879142716
 11
874.65037053300989
 21
726.15955140343544
  0
LINE
  8
_0-2_線色２__白__
  6
CONTINUOUS
 62
    7
 10
874.65037053300989
 20
726.15955140343544
 11
874.78854239227871
 21
725.97826639369828
  0
LINE
  8
_0-2_線色２__白__
  6
CONTINUOUS
 62
    7
 10
874.78854239227871
 20
725.97826639369828
 11
874.91865265929732
 21
725.79204171907691
  0
LINE
  8
_0-2_線色２__白__
  6
CONTINUOUS
 62
    7
 10
874.91865265929732
 20
725.79204171907691
 11
875.04187256128375
 21
725.60167565798906
  0
LINE
  8
_0-2_線色２__白__
  6
CONTINUOUS
 62
    7
 10
875.04187256128375
 20
725.60167565798906
 11
875.15937332545377
 21
725.40796648884566
  0
LINE
  8
_0-2_線色２__白__
  6
CONTINUOUS
 62
    7
 10
875.15937332545377
 20
725.40796648884566
 11
875.27232617902087
 21
725.21171249006215
  0
LINE
  8
_0-2_線色２__白__
  6
CONTINUOUS
 62
    7
 10
875.27232617902087
 20
725.21171249006215
 11
875.33621650588088
 21
725.09703369303338
  0
LINE
  8
_0-2_線色２__白__
  6
CONTINUOUS
 62
    7
 10
875.33621650588088
 20
725.09703369303338
 11
875.40348387338668
 21
724.97396710089902
  0
LINE
  8
_0-2_線色２__白__
  6
CONTINUOUS
 62
    7
 10
875.40348387338668
 20
724.97396710089902
 11
875.51746511459555
 21
724.76076034452831
  0
LINE
  8
_0-2_線色２__白__
  6
CONTINUOUS
 62
    7
 10
875.51746511459555
 20
724.76076034452831
 11
875.62957966295926
 21
724.54646334499216
  0
LINE
  8
_0-2_線色２__白__
  6
CONTINUOUS
 62
    7
 10
875.62957966295926
 20
724.54646334499216
 11
875.74059627220663
 21
724.33131408391887
  0
LINE
  8
_0-2_線色２__白__
  6
CONTINUOUS
 62
    7
 10
875.74059627220663
 20
724.33131408391887
 11
875.85128369606537
 21
724.11555054293672
  0
LINE
  8
_0-2_線色２__白__
  6
CONTINUOUS
 62
    7
 10
875.85128369606537
 20
724.11555054293672
 11
875.96241068826203
 21
723.89941070368309
  0
LINE
  8
_0-2_線色２__白__
  6
CONTINUOUS
 62
    7
 10
875.96241068826203
 20
723.89941070368309
 11
876.02736868289298
 21
723.77397095418132
  0
LINE
  8
_0-2_線色２__白__
  6
CONTINUOUS
 62
    7
 10
876.02736868289298
 20
723.77397095418132
 11
876.11578213707048
 21
723.60514277117431
  0
LINE
  8
_0-2_線色２__白__
  6
CONTINUOUS
 62
    7
 10
876.11578213707048
 20
723.60514277117431
 11
876.27228695299891
 21
723.31574700528677
  0
LINE
  8
_0-2_線色２__白__
  6
CONTINUOUS
 62
    7
 10
876.27228695299891
 20
723.31574700528677
 11
876.43650854622706
 21
723.03103882903656
  0
LINE
  8
_0-2_線色２__白__
  6
CONTINUOUS
 62
    7
 10
876.43650854622706
 20
723.03103882903656
 11
876.61143253361274
 21
722.75398540101719
  0
LINE
  8
_0-2_線色２__白__
  6
CONTINUOUS
 62
    7
 10
876.61143253361274
 20
722.75398540101719
 11
876.8000445320115
 21
722.48755387983124
  0
LINE
  8
_0-2_線色２__白__
  6
CONTINUOUS
 62
    7
 10
876.8000445320115
 20
722.48755387983124
 11
877.00533015828682
 21
722.23471142407448
  0
LINE
  8
_0-2_線色２__白__
  6
CONTINUOUS
 62
    7
 10
877.00533015828682
 20
722.23471142407448
 11
877.13321216611348
 21
722.09545852429414
  0
LINE
  8
_0-2_線色２__白__
  6
CONTINUOUS
 62
    7
 10
877.13321216611348
 20
722.09545852429414
 11
877.17942733841824
 21
722.04835351838369
  0
LINE
  8
_0-2_線色２__白__
  6
CONTINUOUS
 62
    7
 10
877.17942733841824
 20
722.04835351838369
 11
877.2611265999592
 21
721.96900842334685
  0
LINE
  8
_0-2_線色２__白__
  6
CONTINUOUS
 62
    7
 10
877.2611265999592
 20
721.96900842334685
 11
877.34532899228839
 21
721.89220831390571
  0
LINE
  8
_0-2_線色２__白__
  6
CONTINUOUS
 62
    7
 10
877.34532899228839
 20
721.89220831390571
 11
877.43197496778407
 21
721.81815941058062
  0
LINE
  8
_0-2_線色２__白__
  6
CONTINUOUS
 62
    7
 10
877.43197496778407
 20
721.81815941058062
 11
877.52100497881997
 21
721.74706793389191
  0
LINE
  8
_0-2_線色２__白__
  6
CONTINUOUS
 62
    7
 10
877.52100497881997
 20
721.74706793389191
 11
877.61235947777209
 21
721.67914010435993
  0
LINE
  8
_0-2_線色２__白__
  6
CONTINUOUS
 62
    7
 10
877.61235947777209
 20
721.67914010435993
 11
877.66638670266616
 21
721.64127280797061
  0
LINE
  8
_0-2_線色２__白__
  6
CONTINUOUS
 62
    7
 10
877.66638670266616
 20
721.64127280797061
 11
877.75598811375403
 21
721.58198011759282
  0
LINE
  8
_0-2_線色２__白__
  6
CONTINUOUS
 62
    7
 10
877.75598811375403
 20
721.58198011759282
 11
877.91417955792554
 21
721.48556685339713
  0
LINE
  8
_0-2_線色２__白__
  6
CONTINUOUS
 62
    7
 10
877.91417955792554
 20
721.48556685339713
 11
878.07559084495665
 21
721.39423844432599
  0
LINE
  8
_0-2_線色２__白__
  6
CONTINUOUS
 62
    7
 10
878.07559084495665
 20
721.39423844432599
 11
878.23851079324982
 21
721.30534773587556
  0
LINE
  8
_0-2_線色２__白__
  6
CONTINUOUS
 62
    7
 10
878.23851079324982
 20
721.30534773587556
 11
878.40122822120406
 21
721.2162475735397
  0
LINE
  8
_0-2_線色２__白__
  6
CONTINUOUS
 62
    7
 10
878.40122822120406
 20
721.2162475735397
 11
878.56203194721616
 21
721.12429080281458
  0
LINE
  8
_0-2_線色２__白__
  6
CONTINUOUS
 62
    7
 10
878.56203194721616
 20
721.12429080281458
 11
878.65374695554124
 21
721.06860386130279
  0
LINE
  8
_0-2_線色２__白__
  6
CONTINUOUS
 62
    7
 10
878.65374695554124
 20
721.06860386130279
 11
878.74615794794067
 21
721.00923909143035
  0
LINE
  8
_0-2_線色２__白__
  6
CONTINUOUS
 62
    7
 10
878.74615794794067
 20
721.00923909143035
 11
878.90210095009365
 21
720.90173732966264
  0
LINE
  8
_0-2_線色２__白__
  6
CONTINUOUS
 62
    7
 10
878.90210095009365
 20
720.90173732966264
 11
879.05442349231521
 21
720.78875413969286
  0
LINE
  8
_0-2_線色２__白__
  6
CONTINUOUS
 62
    7
 10
879.05442349231521
 20
720.78875413969286
 11
879.20389998105179
 21
720.67149408729961
  0
LINE
  8
_0-2_線色２__白__
  6
CONTINUOUS
 62
    7
 10
879.20389998105179
 20
720.67149408729961
 11
879.35130482274417
 21
720.5511617382524
  0
LINE
  8
_0-2_線色２__白__
  6
CONTINUOUS
 62
    7
 10
879.35130482274417
 20
720.5511617382524
 11
879.49741242383993
 21
720.42896165832531
  0
LINE
  8
_0-2_線色２__白__
  6
CONTINUOUS
 62
    7
 10
879.49741242383993
 20
720.42896165832531
 11
879.58186559324417
 21
720.35770447923255
  0
LINE
  8
_0-2_線色２__白__
  6
CONTINUOUS
 62
    7
 10
879.58186559324417
 20
720.35770447923255
 11
879.68770745686129
 21
720.26822389533095
  0
LINE
  8
_0-2_線色２__白__
  6
CONTINUOUS
 62
    7
 10
879.68770745686129
 20
720.26822389533095
 11
879.8692802351718
 21
720.11314084153696
  0
LINE
  8
_0-2_線色２__白__
  6
CONTINUOUS
 62
    7
 10
879.8692802351718
 20
720.11314084153696
 11
880.04845488779665
 21
719.95575167329548
  0
LINE
  8
_0-2_線色２__白__
  6
CONTINUOUS
 62
    7
 10
880.04845488779665
 20
719.95575167329548
 11
880.2237870140209
 21
719.79456147537007
  0
LINE
  8
_0-2_線色２__白__
  6
CONTINUOUS
 62
    7
 10
880.2237870140209
 20
719.79456147537007
 11
880.39383221313074
 21
719.62807533251976
  0
LINE
  8
_0-2_線色２__白__
  6
CONTINUOUS
 62
    7
 10
880.39383221313074
 20
719.62807533251976
 11
880.55714608441008
 21
719.45479832951037
  0
LINE
  8
_0-2_線色２__白__
  6
CONTINUOUS
 62
    7
 10
880.55714608441008
 20
719.45479832951037
 11
880.64821466634953
 21
719.35059702130161
  0
LINE
  8
_0-2_線色２__白__
  6
CONTINUOUS
 62
    7
 10
880.64821466634953
 20
719.35059702130161
 11
880.69987393898714
 21
719.28850974577813
  0
LINE
  8
_0-2_線色２__白__
  6
CONTINUOUS
 62
    7
 10
880.69987393898714
 20
719.28850974577813
 11
880.78619904929042
 21
719.17903700594138
  0
LINE
  8
_0-2_線色２__白__
  6
CONTINUOUS
 62
    7
 10
880.78619904929042
 20
719.17903700594138
 11
880.86855892142353
 21
719.06653574818051
  0
LINE
  8
_0-2_線色２__白__
  6
CONTINUOUS
 62
    7
 10
880.86855892142353
 20
719.06653574818051
 11
880.9463796121679
 21
718.95105481546921
  0
LINE
  8
_0-2_線色２__白__
  6
CONTINUOUS
 62
    7
 10
880.9463796121679
 20
718.95105481546921
 11
881.01908717831407
 21
718.8326430507766
  0
LINE
  8
_0-2_線色２__白__
  6
CONTINUOUS
 62
    7
 10
881.01908717831407
 20
718.8326430507766
 11
881.08610767664231
 21
718.71134929707182
  0
LINE
  8
_0-2_線色２__白__
  6
CONTINUOUS
 62
    7
 10
881.08610767664231
 20
718.71134929707182
 11
881.12214758772893
 21
718.63969763923137
  0
LINE
  8
_0-2_線色２__白__
  6
CONTINUOUS
 62
    7
 10
881.12214758772893
 20
718.63969763923137
 11
881.16879944108746
 21
718.53822174817992
  0
LINE
  8
_0-2_線色２__白__
  6
CONTINUOUS
 62
    7
 10
881.16879944108746
 20
718.53822174817992
 11
881.24028619943715
 21
718.35945736913004
  0
LINE
  8
_0-2_線色２__白__
  6
CONTINUOUS
 62
    7
 10
881.24028619943715
 20
718.35945736913004
 11
881.30223753806035
 21
718.17663695098076
  0
LINE
  8
_0-2_線色２__白__
  6
CONTINUOUS
 62
    7
 10
881.30223753806035
 20
718.17663695098076
 11
881.35673542632958
 21
717.99064609179254
  0
LINE
  8
_0-2_線色２__白__
  6
CONTINUOUS
 62
    7
 10
881.35673542632958
 20
717.99064609179254
 11
881.40586183361734
 21
717.80237038961673
  0
LINE
  8
_0-2_線色２__白__
  6
CONTINUOUS
 62
    7
 10
881.40586183361734
 20
717.80237038961673
 11
881.45169872929387
 21
717.61269544251149
  0
LINE
  8
_0-2_線色２__白__
  6
CONTINUOUS
 62
    7
 10
881.45169872929387
 20
717.61269544251149
 11
881.47759727876405
 21
717.50239181085249
  0
LINE
  8
_0-4_線色４__黄__
  6
CONTINUOUS
 62
    2
 10
833.50280981494961
 20
722.50239181085249
 11
870.72972141614969
 21
722.50239181085249
  0
LINE
  8
_0-4_線色４__黄__
  6
CONTINUOUS
 62
    2
 10
833.50280981494961
 20
722.50239181085249
 11
828.48564721659272
 21
721.15804714432556
  0
LINE
  8
_0-2_線色２__白__
  6
CONTINUOUS
 62
    7
 10
834.16107230288731
 20
717.50239181085249
 11
830.41557517968045
 21
716.49878888143462
  0
LINE
  8
_0-2_線色２__白__
  6
CONTINUOUS
 62
    7
 10
830.41557517968045
 20
716.49878888143462
 11
831.70967040519372
 21
711.66915974998915
  0
LINE
  8
_0-4_線色４__黄__
  6
CONTINUOUS
 62
    2
 10
881.47759727876405
 20
717.50239181085249
 11
870.72972141614969
 21
717.50239181085249
  0
LINE
  8
_0-4_線色４__黄__
  6
CONTINUOUS
 62
    2
 10
870.72972141614969
 20
722.50239181085249
 11
870.72972141614969
 21
717.50239181085249
  0
LINE
  8
_0-2_線色２__白__
  6
CONTINUOUS
 62
    7
 10
870.72972141614969
 20
717.50239181085249
 11
834.16107230288731
 21
717.50239181085249
  0
LINE
  8
ADD_LINE
  6
DOT
 62
    4
 10
857.81933479082568
 20
629.38302714890028
 11
857.81933479082568
 21
718.99974689151691
  0
LINE
  8
_0-7_ビス
  6
CONTINUOUS
 62
    7
 10
863.81933479082704
 20
712.11777642623588
 11
863.81933479082704
 21
712.50239181085249
  0
LINE
  8
_0-7_ビス
  6
DASHED3
 62
    7
 10
859.2868029070803
 20
709.95302228002288
 11
860.36935062697466
 21
712.50239181085249
  0
LINE
  8
_0-7_ビス
  6
CONTINUOUS
 62
    7
 10
851.81933479082545
 20
712.11777642623588
 11
851.81933479082545
 21
712.50239181085249
  0
LINE
  8
_0-7_ビス
  6
DASHED3
 62
    7
 10
856.35186667457106
 20
709.95302228002288
 11
855.26931895467783
 21
712.50239181085249
  0
LINE
  8
_0-7_ビス
  6
CONTINUOUS
 62
    7
 10
863.81933479082704
 20
712.11777642623588
 11
851.81933479082545
 21
712.11777642623588
  0
LINE
  8
_0-7_ビス
  6
CONTINUOUS
 62
    7
 10
863.81933479082704
 20
712.50239181085249
 11
851.81933479082545
 21
712.50239181085249
  0
ARC
  8
_0-7_ビス
  6
DASHED3
 62
    7
 10
857.81933479082568
 20
711.06356537828901
 40
1.8403175392666382
 50
217.11750793457028
 51
322.88247680664062
  0
LINE
  8
_0-7_ビス
  6
CONTINUOUS
 62
    7
 10
861.90512122845234
 20
710.20356286386118
 11
863.81933479082477
 21
712.11777642623588
  0
ARC
  8
_0-7_ビス
  6
CONTINUOUS
 62
    7
 10
863.31933479082522
 20
708.78934930149057
 40
2
 50
135.00000000000153
 51
180.00000000000003
  0
LINE
  8
_0-7_ビス
  6
CONTINUOUS
 62
    7
 10
853.73354835319901
 20
710.20356286386118
 11
851.81933479082545
 21
712.11777642623588
  0
ARC
  8
_0-7_ビス
  6
CONTINUOUS
 62
    7
 10
852.31933479082613
 20
708.78934930149057
 40
2
 50
0.0000000000000127
 51
44.999999999998508
  0
LINE
  8
_0-7_ビス
  6
CONTINUOUS
 62
    7
 10
861.31933479082477
 20
708.50239181085158
 11
854.31933479082545
 21
708.50239181085158
  0
LINE
  8
_0-7_ビス
  6
CONTINUOUS
 62
    7
 10
854.31933479082545
 20
639.52311775301382
 11
857.81933479082568
 21
637.50239181085021
  0
LINE
  8
_0-7_ビス
  6
CONTINUOUS
 62
    7
 10
854.31933479082545
 20
708.78934930149057
 11
854.31933479082545
 21
639.52311775301382
  0
LINE
  8
_0-7_ビス
  6
CONTINUOUS
 62
    7
 10
861.31933479082477
 20
643.00239181084976
 11
854.31933479082545
 21
643.00239181084976
  0
LINE
  8
_0-7_ビス
  6
CONTINUOUS
 62
    7
 10
861.31933479082477
 20
639.52311775301382
 11
857.81933479082568
 21
637.50239181085021
  0
LINE
  8
_0-7_ビス
  6
CONTINUOUS
 62
    7
 10
861.31933479082477
 20
708.78934930149057
 11
861.31933479082477
 21
639.52311775301382
  0
LINE
  8
_0-7_ビス
  6
CONTINUOUS
 62
    7
 10
861.31933479082477
 20
697.50239181085249
 11
854.31933479082545
 21
697.50239181085249
  0
LINE
  8
_0-7_ビス
  6
CONTINUOUS
 62
    4
 10
854.31933479082545
 20
696.30258845145704
 11
858.7969152327662
 21
697.50239181085249
  0
LINE
  8
_0-7_ビス
  6
CONTINUOUS
 62
    4
 10
854.31933479082545
 20
683.99636792208071
 11
861.31933479082477
 21
685.87207370216788
  0
LINE
  8
_0-7_ビス
  6
CONTINUOUS
 62
    4
 10
854.31933479082545
 20
685.99636792207889
 11
861.31933479082477
 21
687.87207370216834
  0
LINE
  8
_0-7_ビス
  6
CONTINUOUS
 62
    4
 10
854.31933479082545
 20
687.99636792207934
 11
861.31933479082477
 21
689.87207370216879
  0
LINE
  8
_0-7_ビス
  6
CONTINUOUS
 62
    4
 10
854.31933479082545
 20
689.9963679220798
 11
861.31933479082477
 21
691.87207370216925
  0
LINE
  8
_0-7_ビス
  6
CONTINUOUS
 62
    4
 10
854.31933479082545
 20
691.99636792208025
 11
861.31933479082477
 21
693.87207370216743
  0
LINE
  8
_0-7_ビス
  6
CONTINUOUS
 62
    4
 10
854.31933479082545
 20
693.99636792208071
 11
861.31933479082477
 21
695.87207370217016
  0
LINE
  8
_0-7_ビス
  6
CONTINUOUS
 62
    4
 10
854.31933479082545
 20
671.6901473927021
 11
861.31933479082477
 21
673.56585317279155
  0
LINE
  8
_0-7_ビス
  6
CONTINUOUS
 62
    4
 10
854.31933479082545
 20
673.69014739270256
 11
861.31933479082477
 21
675.565853172792
  0
LINE
  8
_0-7_ビス
  6
CONTINUOUS
 62
    4
 10
854.31933479082545
 20
675.69014739270301
 11
861.31933479082477
 21
677.56585317279246
  0
LINE
  8
_0-7_ビス
  6
CONTINUOUS
 62
    4
 10
854.31933479082545
 20
677.69014739270347
 11
861.31933479082477
 21
679.56585317279064
  0
LINE
  8
_0-7_ビス
  6
CONTINUOUS
 62
    4
 10
854.31933479082545
 20
679.69014739270165
 11
861.31933479082477
 21
681.56585317279109
  0
LINE
  8
_0-7_ビス
  6
CONTINUOUS
 62
    4
 10
854.31933479082545
 20
681.6901473927021
 11
861.31933479082477
 21
683.56585317279155
  0
LINE
  8
_0-7_ビス
  6
CONTINUOUS
 62
    4
 10
854.31933479082545
 20
659.38392686332577
 11
861.31933479082477
 21
661.25963264341522
  0
LINE
  8
_0-7_ビス
  6
CONTINUOUS
 62
    4
 10
854.31933479082545
 20
661.38392686332622
 11
861.31933479082477
 21
663.2596326434134
  0
LINE
  8
_0-7_ビス
  6
CONTINUOUS
 62
    4
 10
854.31933479082545
 20
663.38392686332668
 11
861.31933479082477
 21
665.25963264341385
  0
LINE
  8
_0-7_ビス
  6
CONTINUOUS
 62
    4
 10
854.31933479082545
 20
665.38392686332486
 11
861.31933479082477
 21
667.25963264341431
  0
LINE
  8
_0-7_ビス
  6
CONTINUOUS
 62
    4
 10
854.31933479082545
 20
667.38392686332531
 11
861.31933479082477
 21
669.25963264341476
  0
LINE
  8
_0-7_ビス
  6
CONTINUOUS
 62
    4
 10
854.31933479082545
 20
669.38392686332577
 11
861.31933479082477
 21
671.25963264341522
  0
LINE
  8
_0-7_ビス
  6
CONTINUOUS
 62
    4
 10
854.31933479082545
 20
647.07770633394944
 11
861.31933479082477
 21
648.95341211403661
  0
LINE
  8
_0-7_ビス
  6
CONTINUOUS
 62
    4
 10
854.31933479082545
 20
649.07770633394989
 11
861.31933479082477
 21
650.95341211403706
  0
LINE
  8
_0-7_ビス
  6
CONTINUOUS
 62
    4
 10
854.31933479082545
 20
651.07770633394807
 11
861.31933479082477
 21
652.95341211403752
  0
LINE
  8
_0-7_ビス
  6
CONTINUOUS
 62
    4
 10
854.31933479082545
 20
653.07770633394853
 11
861.31933479082477
 21
654.95341211403797
  0
LINE
  8
_0-7_ビス
  6
CONTINUOUS
 62
    4
 10
854.31933479082545
 20
655.07770633394898
 11
861.31933479082477
 21
656.95341211403843
  0
LINE
  8
_0-7_ビス
  6
CONTINUOUS
 62
    4
 10
854.31933479082545
 20
657.07770633394944
 11
861.31933479082477
 21
658.95341211403888
  0
LINE
  8
_0-7_ビス
  6
CONTINUOUS
 62
    4
 10
854.31933479082545
 20
644.7714858045731
 11
861.31933479082477
 21
646.64719158466028
  0
LINE
  8
_0-7_ビス
  6
CONTINUOUS
 62
    4
 10
855.18105951391703
 20
643.00239181084976
 11
861.31933479082477
 21
644.64719158465982
  0
LINE
  8
_0-4_線色４__黄__
  6
CONTINUOUS
 62
    2
 10
881.47759727876405
 20
717.50239181085249
 11
886.01152699656154
 21
716.28752900442691
  0
LINE
  8
_0-4_線色４__黄__
  6
CONTINUOUS
 62
    2
 10
943.87765822250799
 20
682.87850256416391
 11
886.01152699656154
 21
716.28752900442691
  0
LINE
  8
_0-4_線色４__黄__
  6
CONTINUOUS
 62
    2
 10
815.57250638799246
 20
713.70264181084963
 11
632.32583560174021
 21
713.70264181084963
  0
LINE
  8
_0-4_線色４__黄__
  6
CONTINUOUS
 62
    2
 10
828.48564721659272
 20
721.15804714432556
 11
815.57250638799246
 21
713.70264181084963
  0
LINE
  8
_0-2_線色２__白__
  6
CONTINUOUS
 62
    7
 10
942.24019135572576
 20
678.05039180859353
 11
884.21841632233622
 21
711.54927924298249
  0
TEXT
  8
_0-a_文字
 62
    7
 10
886.34222796224878
 20
425.20243181084993
 40
14.999999999999858
 41
1.0000000000000158
 50
0
  1
タイトフレーム（別途工事）
  0
LINE
  8
_0-a_文字
  6
CONTINUOUS
 62
    7
 10
835.36146584871517
 20
477.70243181084993
 11
881.34222796225117
 21
477.70243181084993
  0
LINE
  8
_0-a_文字
  6
CONTINUOUS
 62
    7
 10
725.36656660344192
 20
668.21918587707046
 11
861.34222796225004
 21
432.70243181084993
  0
LINE
  8
_0-a_文字
  6
CONTINUOUS
 62
    7
 10
861.34222796225004
 20
432.70243181084993
 11
881.34222796225117
 21
432.70243181084993
  0
TEXT
  8
_0-a_文字
 62
    7
 10
886.34222796224867
 20
470.20243181084993
 40
14.999999999999858
 41
1.0000000000000089
 50
0
  1
デッキプレート フラットタイプ H=75
  0
TEXT
  8
_0-a_文字
 62
    7
 10
886.3422279622489
 20
450.20243181084993
 40
14.999999999999858
 41
1.0000000000000069
 50
0
  1
t=1.0 または t=1.2（別途工事）
  0
TEXT
  8
_f-0_
 62
    7
 10
405.30228976001922
 20
1163.75
 40
17.499999999999993
 41
0.9999999999999996
 50
0
  1
ＳＤ－Ｆ仕様 ドレイン 縦型
  0
ENDSEC
  0
EOF
